  0
SECTION
  2
HEADER
  9
$ACADVER
  1
AC1009
  9
$INSBASE
 10
0.0
 20
0.0
 30
0.0
  9
$EXTMIN
 10
0.0
 20
-2.960436562073669
 30
0.0
  9
$EXTMAX
 10
268.36296601465688
 20
231.9565820038226
 30
0.0
  9
$LIMMIN
 10
0.0
 20
0.0
  9
$LIMMAX
 10
375.0
 20
270.0
  9
$ORTHOMODE
 70
     1
  9
$REGENMODE
 70
     1
  9
$FILLMODE
 70
     1
  9
$QTEXTMODE
 70
     0
  9
$MIRRTEXT
 70
     0
  9
$DRAGMODE
 70
     2
  9
$LTSCALE
 40
10.0
  9
$OSMODE
 70
  3071
  9
$ATTMODE
 70
     1
  9
$TEXTSIZE
 40
5.0
  9
$TRACEWID
 40
0.05
  9
$TEXTSTYLE
  7
STANDARD
  9
$CLAYER
  8
0
  9
$CELTYPE
  6
BYLAYER
  9
$CECOLOR
 62
   256
  9
$DIMSCALE
 40
1.0
  9
$DIMASZ
 40
3.0
  9
$DIMEXO
 40
2.0
  9
$DIMDLI
 40
0.38
  9
$DIMRND
 40
0.0
  9
$DIMDLE
 40
0.0
  9
$DIMEXE
 40
2.0
  9
$DIMTP
 40
0.0
  9
$DIMTM
 40
0.0
  9
$DIMTXT
 40
3.0
  9
$DIMCEN
 40
0.0
  9
$DIMTSZ
 40
0.0
  9
$DIMTOL
 70
     0
  9
$DIMLIM
 70
     0
  9
$DIMTIH
 70
     0
  9
$DIMTOH
 70
     0
  9
$DIMSE1
 70
     0
  9
$DIMSE2
 70
     0
  9
$DIMTAD
 70
     1
  9
$DIMZIN
 70
     0
  9
$DIMBLK
  1

  9
$DIMASO
 70
     0
  9
$DIMSHO
 70
     0
  9
$DIMPOST
  1

  9
$DIMAPOST
  1

  9
$DIMALT
 70
     0
  9
$DIMALTD
 70
     2
  9
$DIMALTF
 40
25.399999999999999
  9
$DIMLFAC
 40
1.0
  9
$DIMTOFL
 70
     1
  9
$DIMTVP
 40
1.6000000000000001
  9
$DIMTIX
 70
     1
  9
$DIMSOXD
 70
     0
  9
$DIMSAH
 70
     0
  9
$DIMBLK1
  1

  9
$DIMBLK2
  1

  9
$DIMSTYLE
  2
STANDARD
  9
$DIMCLRD
 70
     0
  9
$DIMCLRE
 70
     0
  9
$DIMCLRT
 70
     0
  9
$DIMTFAC
 40
1.0
  9
$DIMGAP
 40
0.09
  9
$LUNITS
 70
     2
  9
$LUPREC
 70
     4
  9
$SKETCHINC
 40
0.1
  9
$FILLETRAD
 40
0.0
  9
$AUNITS
 70
     0
  9
$AUPREC
 70
     4
  9
$MENU
  1
E:\r13\win\SUPPORT\ACAD
  9
$ELEVATION
 40
0.0
  9
$PELEVATION
 40
0.0
  9
$THICKNESS
 40
0.0
  9
$LIMCHECK
 70
     0
  9
$BLIPMODE
 70
     0
  9
$CHAMFERA
 40
0.0
  9
$CHAMFERB
 40
0.0
  9
$SKPOLY
 70
     0
  9
$TDCREATE
 40
2449840.653518518
  9
$TDUPDATE
 40
2456597.5614750688
  9
$TDINDWG
 40
0.0083687731
  9
$TDUSRTIMER
 40
0.0083687731
  9
$USRTIMER
 70
     1
  9
$ANGBASE
 50
0.0
  9
$ANGDIR
 70
     0
  9
$PDMODE
 70
    35
  9
$PDSIZE
 40
0.0
  9
$PLINEWID
 40
0.0
  9
$COORDS
 70
     1
  9
$SPLFRAME
 70
     0
  9
$SPLINETYPE
 70
     6
  9
$SPLINESEGS
 70
     8
  9
$ATTDIA
 70
     0
  9
$ATTREQ
 70
     1
  9
$HANDLING
 70
     1
  9
$HANDSEED
  5
4EE
  9
$SURFTAB1
 70
     6
  9
$SURFTAB2
 70
     6
  9
$SURFTYPE
 70
     6
  9
$SURFU
 70
     6
  9
$SURFV
 70
     6
  9
$UCSNAME
  2

  9
$UCSORG
 10
0.0
 20
0.0
 30
0.0
  9
$UCSXDIR
 10
1.0
 20
0.0
 30
0.0
  9
$UCSYDIR
 10
0.0
 20
1.0
 30
0.0
  9
$PUCSNAME
  2

  9
$PUCSORG
 10
0.0
 20
0.0
 30
0.0
  9
$PUCSXDIR
 10
1.0
 20
0.0
 30
0.0
  9
$PUCSYDIR
 10
0.0
 20
1.0
 30
0.0
  9
$USERI1
 70
     0
  9
$USERI2
 70
     1
  9
$USERI3
 70
     1
  9
$USERI4
 70
     0
  9
$USERI5
 70
     0
  9
$USERR1
 40
0.0
  9
$USERR2
 40
0.0
  9
$USERR3
 40
0.0
  9
$USERR4
 40
0.0
  9
$USERR5
 40
0.0
  9
$WORLDVIEW
 70
     1
  9
$SHADEDGE
 70
     3
  9
$SHADEDIF
 70
    70
  9
$TILEMODE
 70
     1
  9
$MAXACTVP
 70
    16
  9
$PLIMCHECK
 70
     0
  9
$PEXTMIN
 10
1.0000000000000000E+020
 20
1.0000000000000000E+020
 30
1.0000000000000000E+020
  9
$PEXTMAX
 10
-1.0000000000000000E+020
 20
-1.0000000000000000E+020
 30
-1.0000000000000000E+020
  9
$PLIMMIN
 10
0.0
 20
0.0
  9
$PLIMMAX
 10
12.0
 20
9.0
  9
$UNITMODE
 70
     0
  9
$VISRETAIN
 70
     0
  9
$PLINEGEN
 70
     0
  9
$PSLTSCALE
 70
     0
  0
ENDSEC
  0
SECTION
  2
TABLES
  0
TABLE
  2
VPORT
 70
     1
  0
VPORT
  2
*ACTIVE
 70
     0
 10
0.0
 20
0.0
 11
1.0
 21
1.0
 12
187.49427839065231
 22
162.8616388594717
 13
0.0
 23
0.0
 14
5.0
 24
5.0
 15
10.0
 25
10.0
 16
0.0
 26
0.0
 36
1.0
 17
0.0
 27
0.0
 37
0.0
 40
334.81001162774987
 41
1.9089595375722539
 42
50.0
 43
0.0
 44
0.0
 50
0.0
 51
0.0
 71
     0
 72
   500
 73
     1
 74
     0
 75
     0
 76
     0
 77
     0
 78
     2
  0
ENDTAB
  0
TABLE
  2
LTYPE
 70
     3
  0
LTYPE
  2
CONTINUOUS
 70
     0
  3
Solid Line
 72
    65
 73
     0
 40
0.0
  0
LTYPE
  2
CENTER
 70
     0
  3
____ _ ____ _ ____ _ ____ _ ____ _ ____ _ ____
 72
    65
 73
     4
 40
2.0
 49
1.25
 49
-0.25
 49
0.25
 49
-0.25
  0
LTYPE
  2
PHANTOM2
 70
     0
  3
___ _ _ ___ _ _ ___ _ _ ___ _ _
 72
    65
 73
     6
 40
1.25
 49
0.625
 49
-0.125
 49
0.125
 49
-0.125
 49
0.125
 49
-0.125
  0
ENDTAB
  0
TABLE
  2
LAYER
 70
     5
  0
LAYER
  2
0
 70
     0
 62
     7
  6
CONTINUOUS
  0
LAYER
  2
1
 70
     0
 62
     1
  6
CENTER
  0
LAYER
  2
10
 70
     0
 62
     7
  6
CONTINUOUS
  0
LAYER
  2
ITTEN
 70
     0
 62
     1
  6
CENTER
  0
LAYER
  2
ITEM_HILFE
 70
     0
 62
     3
  6
CONTINUOUS
  0
ENDTAB
  0
TABLE
  2
STYLE
 70
     3
  0
STYLE
  2
STANDARD
 70
     0
 40
0.0
 41
1.0
 50
0.0
 71
     0
 42
5.0
  3
TXT
  4
BIGFONT
  0
STYLE
  2
EAITTSTIL
 70
     0
 40
0.0
 41
0.8
 50
0.0
 71
     0
 42
2.0
  3
SIMPLEX.SHX
  4

  0
STYLE
  2
STANDARD1
 70
     0
 40
0.0
 41
1.0
 50
0.0
 71
     0
 42
3.0
  3
txt
  4

  0
ENDTAB
  0
TABLE
  2
VIEW
 70
     1
  0
VIEW
  2
ALL
 70
     0
 40
270.0
 10
220.99159663865549
 20
135.0
 41
0.0
 11
0.0
 21
0.0
 31
1.0
 12
0.0
 22
0.0
 32
0.0
 42
0.0
 43
0.0
 44
0.0
 50
0.0
 71
     0
  0
ENDTAB
  0
TABLE
  2
UCS
 70
     0
  0
ENDTAB
  0
TABLE
  2
APPID
 70
     4
  0
APPID
  2
ACAD
 70
     0
  0
APPID
  2
GENIUS_GENOREF_13
 70
     0
  0
APPID
  2
ACAD_MLEADERVER
 70
     0
  0
APPID
  2
ACAD_NAV_VCDISPLAY
 70
     0
  0
ENDTAB
  0
TABLE
  2
DIMSTYLE
 70
     1
  0
DIMSTYLE
  2
STANDARD
 70
     0
  3

  4

  5

  6

  7

 40
1.0
 41
0.18
 42
0.0625
 43
0.38
 44
0.18
 45
0.0
 46
0.0
 47
0.0
 48
0.0
140
0.18
141
0.09
142
0.0
143
25.399999999999999
144
1.0
145
0.0
146
1.0
147
0.09
 71
     0
 72
     0
 73
     1
 74
     1
 75
     0
 76
     0
 77
     0
 78
     0
170
     0
171
     2
172
     0
173
     0
174
     0
175
     0
176
     0
177
     0
178
     0
  0
ENDTAB
  0
ENDSEC
  0
SECTION
  2
BLOCKS
  0
BLOCK
  8
0
  2
$MODEL_SPACE
 70
     0
 10
0.0
 20
0.0
 30
0.0
  3
$MODEL_SPACE
  1

  0
ENDBLK
  5
E1
  8
0
  0
BLOCK
 67
     1
  8
0
  2
$PAPER_SPACE
 70
     0
 10
0.0
 20
0.0
 30
0.0
  3
$PAPER_SPACE
  1

  0
ENDBLK
  5
DF
 67
     1
  8
0
  0
BLOCK
  8
0
  2
EAITMERK
 70
     2
 10
0.0
 20
0.0
 30
0.0
  3
EAITMERK
  1

  0
ATTDEF
  5
F2
  8
ITEM_HILFE
 10
0.8310912943111077
 20
-26.762904636920432
 30
0.0
 40
2.0
  1

 41
0.8
  7
EAITTSTIL
  3
nicht mehr benutzt
  2
EAITHAUPTMENUE
 70
     1
  0
ATTDEF
  5
F3
  8
ITEM_HILFE
 10
0.8310912943111077
 20
-23.762904636920432
 30
0.0
 40
2.0
  1
1
 41
0.8
  7
EAITTSTIL
  3
Massstabfaktor
  2
EAITMASSTABSFAKTOR
 70
     1
  0
ATTDEF
  5
F4
  8
ITEM_HILFE
 10
0.8310912943111077
 20
-20.762904636920432
 30
0.0
 40
2.0
  1
0
 41
0.8
  7
EAITTSTIL
  3
Letzte Position
  2
EAITLETZTE-POSITION
 70
     1
  0
ATTDEF
  5
F5
  8
ITEM_HILFE
 10
0.8310912943111077
 20
-17.762904636920432
 30
0.0
 40
2.0
  1
0
 41
0.8
  7
EAITTSTIL
  3
Bem. Nachkomma
  2
EAITBEM_NACHKOMMA
 70
     1
  0
ATTDEF
  5
F6
  8
ITEM_HILFE
 10
0.8310912943111077
 20
-14.76290463692043
 30
0.0
 40
2.0
  1
0
 41
0.8
  7
EAITTSTIL
  3
Pos. neu sort. 0/1
  2
EAITPOSORT
 70
     1
  0
ATTDEF
  5
F7
  8
ITEM_HILFE
 10
0.8310912943111077
 20
-11.76290463692043
 30
0.0
 40
2.0
  1
0
 41
0.8
  7
EAITTSTIL
  3
ML3-Stueckliste 0/1
  2
EAITML3
 70
     1
  0
ATTDEF
  5
F8
  8
ITEM_HILFE
 10
0.8310912943111077
 20
-8.7629046369204335
 30
0.0
 40
2.0
  1

 41
0.8
  7
EAITTSTIL
  3
Merker-7
  2
EAITMERKER-7
 70
     1
  0
ATTDEF
  5
F9
  8
ITEM_HILFE
 10
0.8310912943111077
 20
-5.7629046369204318
 30
0.0
 40
2.0
  1

 41
0.8
  7
EAITTSTIL
  3
Merker-8
  2
EAITMERKER-8
 70
     1
  0
ATTDEF
  5
FA
  8
ITEM_HILFE
 10
0.8310912943111077
 20
-2.7629046369204331
 30
0.0
 40
2.0
  1

 41
0.8
  7
EAITTSTIL
  3
Merker-9
  2
EAITMERKER-9
 70
     1
  0
ENDBLK
  5
FC
  8
0
  0
ENDSEC
  0
SECTION
  2
ENTITIES
  0
INSERT
  5
1AF
  8
0
 66
     1
  2
EAITMERK
 10
286.22813416987208
 20
-62.079574673841392
 30
0.0
  0
ATTRIB
  5
1B0
  8
ITEM_HILFE
 10
287.05922546418321
 20
-88.842479310761803
 30
0.0
 40
2.0
  1

 41
0.8
  7
EAITTSTIL
  2
EAITHAUPTMENUE
 70
     1
  0
ATTRIB
  5
1B1
  8
ITEM_HILFE
 10
287.05922546418321
 20
-85.842479310761817
 30
0.0
 40
2.0
  1
1
 41
0.8
  7
EAITTSTIL
  2
EAITMASSTABSFAKTOR
 70
     1
  0
ATTRIB
  5
1B2
  8
ITEM_HILFE
 10
287.05922546418321
 20
-82.842479310761831
 30
0.0
 40
2.0
  1
0
 41
0.8
  7
EAITTSTIL
  2
EAITLETZTE-POSITION
 70
     1
  0
ATTRIB
  5
1B3
  8
ITEM_HILFE
 10
287.05922546418321
 20
-79.842479310761831
 30
0.0
 40
2.0
  1
0
 41
0.8
  7
EAITTSTIL
  2
EAITBEM_NACHKOMMA
 70
     1
  0
ATTRIB
  5
1B4
  8
ITEM_HILFE
 10
287.05922546418321
 20
-76.842479310761817
 30
0.0
 40
2.0
  1
0
 41
0.8
  7
EAITTSTIL
  2
EAITPOSORT
 70
     1
  0
ATTRIB
  5
1B5
  8
ITEM_HILFE
 10
287.05922546418321
 20
-73.842479310761803
 30
0.0
 40
2.0
  1
0
 41
0.8
  7
EAITTSTIL
  2
EAITML3
 70
     1
  0
ATTRIB
  5
1B6
  8
ITEM_HILFE
 10
287.05922546418321
 20
-70.842479310761831
 30
0.0
 40
2.0
  1

 41
0.8
  7
EAITTSTIL
  2
EAITMERKER-7
 70
     1
  0
ATTRIB
  5
1B7
  8
ITEM_HILFE
 10
287.05922546418321
 20
-67.842479310761831
 30
0.0
 40
2.0
  1

 41
0.8
  7
EAITTSTIL
  2
EAITMERKER-8
 70
     1
  0
ATTRIB
  5
1B8
  8
ITEM_HILFE
 10
287.05922546418321
 20
-64.842479310761831
 30
0.0
 40
2.0
  1

 41
0.8
  7
EAITTSTIL
  2
EAITMERKER-9
 70
     1
  0
SEQEND
  5
1B9
  8
0
  0
LINE
  5
1BA
  8
1
 10
169.953165465137
 20
153.78813855840841
 30
0.0
 11
195.3074034004652
 21
128.43390062308029
 31
0.0
  0
LINE
  5
1BB
  8
1
 10
198.2371689198512
 20
153.78840787274169
 30
0.0
 11
172.88266167018239
 21
128.43390062307299
 31
0.0
  0
LINE
  5
1BC
  8
0
 10
164.1249203402063
 20
95.139255369261804
 30
0.0
 11
164.1249203402063
 21
65.139255369261804
 31
0.0
  0
LINE
  5
1BD
  8
0
 10
164.1249203402063
 20
95.139255369261804
 30
0.0
 11
204.0656833591579
 21
95.139255369261704
 31
0.0
  0
LINE
  5
1BE
  8
0
 10
164.1249203402063
 20
65.139255369261804
 30
0.0
 11
204.0656833591579
 21
65.139255369261718
 31
0.0
  0
LINE
  5
1BF
  8
0
 10
204.0656833591579
 20
95.139255369261704
 30
0.0
 11
204.0656833591579
 21
65.139255369261718
 31
0.0
  0
LINE
  5
1C0
  8
0
 10
238.36296601465691
 20
133.43390062308151
 30
0.0
 11
268.36296601465688
 21
133.43390062308151
 31
0.0
  0
LINE
  5
1C1
  8
0
 10
238.36296601465691
 20
133.43390062308151
 30
0.0
 11
238.36296601465691
 21
139.64653978110911
 31
0.0
  0
LINE
  5
1C2
  8
0
 10
268.36296601465688
 20
133.43390062308151
 30
0.0
 11
268.36296601465688
 21
139.64653978110911
 31
0.0
  0
LINE
  5
1C3
  8
0
 10
258.86296601465688
 20
163.43390062308899
 30
0.0
 11
268.36296601465688
 21
163.43390062308151
 31
0.0
  0
LINE
  5
1C4
  8
0
 10
238.36296601465691
 20
139.64653978110911
 30
0.0
 11
268.36296601465688
 21
139.64653978110911
 31
0.0
  0
CIRCLE
  5
1C5
  8
0
 10
184.09530184968509
 20
139.6465408025758
 30
0.0
 40
2.5
  0
CIRCLE
  5
1CD
  8
0
 10
184.0950325353275
 20
80.139255369261704
 30
0.0
 40
3.5
  0
LINE
  5
1CE
  8
1
 10
184.09503253532759
 20
60.139255369261768
 30
0.0
 11
184.09503253532759
 21
100.1392553692618
 31
0.0
  0
LINE
  5
1CF
  8
1
 10
159.1249203402063
 20
80.139255369261704
 30
0.0
 11
209.06568335915779
 21
80.139255369261704
 31
0.0
  0
LINE
  5
1D0
  8
1
 10
184.0953008282172
 20
164.61683270664611
 30
0.0
 11
184.095300828229
 21
128.4339006230766
 31
0.0
  0
LINE
  5
1D3
  8
1
 10
253.36296601465691
 20
168.43390062308151
 30
0.0
 11
253.36296601465691
 21
128.43390062308151
 31
0.0
  0
LINE
  5
1D4
  8
0
 10
177.23636607217449
 20
150.8895386234428
 30
0.0
 11
176.38810674899031
 21
151.7377979466269
 31
0.0
  0
ARC
  5
1D5
  8
0
 10
177.09521353017689
 20
152.44490472781351
 30
0.0
 40
1.0
 50
134.99999484828999
 51
224.99999999999969
  0
LINE
  5
1D6
  8
0
 10
176.38810681256939
 20
153.15201157257911
 30
0.0
 11
181.95028184264589
 21
158.7141856024177
 31
0.0
  0
ARC
  5
1D7
  8
0
 10
184.09530184968509
 20
156.61683270664619
 30
0.0
 40
2.9999999999999409
 50
44.35625428582366
 51
135.64374571417599
  0
LINE
  5
1D8
  8
0
 10
186.24032185672431
 20
158.71418560241759
 30
0.0
 11
191.80249688680061
 21
153.15201157257911
 31
0.0
  0
ARC
  5
1D9
  8
0
 10
191.095390169193
 20
152.44490472781359
 30
0.0
 40
1.0000000000000031
 50
315.00000000000028
 51
45.000005151709132
  0
LINE
  5
1DA
  8
0
 10
191.80249695037961
 20
151.73779794662701
 30
0.0
 11
190.9542376271954
 21
150.8895386234428
 31
0.0
  0
ARC
  5
1DB
  8
0
 10
190.3885522022685
 20
151.45522404839051
 30
0.0
 40
0.7999999999830436
 50
224.99999999895471
 51
314.99999999895527
  0
LINE
  5
1DC
  8
0
 10
189.822866777321
 20
150.88953862346349
 30
0.0
 11
188.8329172836599
 21
151.87948811712471
 31
0.0
  0
ARC
  5
1DD
  8
0
 10
189.0450493180158
 20
152.0916201514807
 30
0.0
 40
0.2999999999999261
 50
135.0000000000052
 51
225.00000000000489
  0
LINE
  5
1DE
  8
0
 10
188.83291728365981
 20
152.3037521858366
 30
0.0
 11
189.4693133867278
 21
152.94014828890451
 31
0.0
  0
ARC
  5
1DF
  8
0
 10
189.25718135237179
 20
153.1522803232605
 30
0.0
 40
0.2999999999999829
 50
315.00000000000517
 51
45.000000000004889
  0
LINE
  5
1E0
  8
0
 10
189.4693133867278
 20
153.36441235761649
 30
0.0
 11
188.5854299102254
 21
154.24829583411901
 31
0.0
  0
ARC
  5
1E1
  8
0
 10
187.87832312903879
 20
153.5411890529324
 30
0.0
 40
1.000000000000028
 50
44.999999999998849
 51
134.9999999999994
  0
LINE
  5
1E2
  8
0
 10
187.17121634785229
 20
154.24829583411901
 30
0.0
 11
185.97398150614649
 21
153.0510609924134
 31
0.0
  0
ARC
  5
1E3
  8
0
 10
188.095301849706
 20
150.9297406488536
 30
0.0
 40
3.000000000000028
 50
134.99999999999591
 51
179.99999999999631
  0
LINE
  5
1E4
  8
0
 10
185.095301849706
 20
150.92974064885379
 30
0.0
 11
185.09530184970581
 21
147.31380269217959
 31
0.0
  0
ARC
  5
1E5
  8
0
 10
188.09530184970569
 20
147.31380269217971
 30
0.0
 40
2.9999999999999432
 50
180.0
 51
224.99999999999881
  0
LINE
  5
1E6
  8
0
 10
185.97398150614609
 20
145.1924823486201
 30
0.0
 11
189.6412433957293
 21
141.52522045903629
 31
0.0
  0
ARC
  5
1E7
  8
0
 10
191.76256373928919
 20
143.64654080259569
 30
0.0
 40
2.9999999999999138
 50
224.99999999999429
 51
269.99999999999352
  0
LINE
  5
1E8
  8
0
 10
191.76256373928891
 20
140.64654080259581
 30
0.0
 11
195.37850169596311
 21
140.64654080259569
 31
0.0
  0
ARC
  5
1E9
  8
0
 10
195.37850169596331
 20
143.64654080259561
 30
0.0
 40
2.9999999999998632
 50
269.99999999999682
 51
314.99999999999631
  0
LINE
  5
1EA
  8
0
 10
197.49982203952271
 20
141.52522045903589
 30
0.0
 11
198.69705688122869
 21
142.72245530074159
 31
0.0
  0
ARC
  5
1EB
  8
0
 10
197.98995010004211
 20
143.4295620819282
 30
0.0
 40
0.9999999999999715
 50
315.00000000000119
 51
45.000000000000568
  0
LINE
  5
1EC
  8
0
 10
198.6970568812286
 20
144.13666886311469
 30
0.0
 11
197.81317340472631
 21
145.0205523396173
 31
0.0
  0
ARC
  5
1ED
  8
0
 10
197.6010413703703
 20
144.80842030526139
 30
0.0
 40
0.3000000000000966
 50
44.999999999999709
 51
135.0000000000052
  0
LINE
  5
1EE
  8
0
 10
197.38890933601419
 20
145.0205523396173
 30
0.0
 11
196.75251323294651
 21
144.3841562365495
 31
0.0
  0
ARC
  5
1EF
  8
0
 10
196.54038119859041
 20
144.59628827090549
 30
0.0
 40
0.3000000000000966
 50
225.000000000017
 51
315.00000000001529
  0
LINE
  5
1F0
  8
0
 10
196.32824916423439
 20
144.38415623654939
 30
0.0
 11
195.33829967055189
 21
145.37410573018789
 31
0.0
  0
ARC
  5
1F1
  8
0
 10
195.90398509550121
 20
145.9397911551371
 30
0.0
 40
0.799999999999983
 50
134.99999999999679
 51
224.99999999999881
  0
LINE
  5
1F2
  8
0
 10
195.338299670552
 20
146.50547658008631
 30
0.0
 11
196.18655951508379
 21
147.35373642461821
 31
0.0
  0
ARC
  5
1F3
  8
0
 10
196.8936662962704
 20
146.64662964343171
 30
0.0
 40
1.0
 50
45.000005151709132
 51
135.00000000000031
  0
LINE
  5
1F4
  8
0
 10
197.60077301387801
 20
147.3537364881972
 30
0.0
 11
203.163083593328
 21
141.79142690900929
 31
0.0
  0
ARC
  5
1F5
  8
0
 10
201.0657306975564
 20
139.64640690197021
 30
0.0
 40
2.9999999999999689
 50
315.0
 51
45.643745714176333
  0
LINE
  5
1F6
  8
0
 10
203.18705104111601
 20
137.52508655841049
 30
0.0
 11
199.97454476222711
 21
134.31258027952131
 31
0.0
  0
ARC
  5
1F7
  8
0
 10
197.85322441866759
 20
136.43390062308109
 30
0.0
 40
2.9999999999999711
 50
270.00000000001631
 51
314.99999999999682
  0
LINE
  5
1F8
  8
0
 10
197.85322441866839
 20
133.43390062308109
 30
0.0
 11
170.33737928070519
 21
133.43390062307211
 31
0.0
  0
ARC
  5
1F9
  8
0
 10
170.3373792807044
 20
136.43390062307211
 30
0.0
 40
2.9999999999999432
 50
225.0000000000328
 51
270.00000000001631
  0
LINE
  5
1FA
  8
0
 10
168.21605893714599
 20
134.3125802795112
 30
0.0
 11
165.0035526582495
 21
137.52508655840359
 31
0.0
  0
ARC
  5
1FB
  8
0
 10
167.1248730018078
 20
139.6464069019647
 30
0.0
 40
3.0
 50
134.35625428582301
 51
225.00000000003649
  0
LINE
  5
1FC
  8
0
 10
165.02752010603621
 20
141.7914269090038
 30
0.0
 11
170.58983068549179
 21
147.3537364881972
 31
0.0
  0
ARC
  5
1FD
  8
0
 10
171.29693740309941
 20
146.6466296434316
 30
0.0
 40
1.0000000000000031
 50
44.999999999999709
 51
134.99999484828999
  0
LINE
  5
1FE
  8
0
 10
172.0040441842859
 20
147.35373642461809
 30
0.0
 11
172.8523040288178
 21
146.5054765800862
 31
0.0
  0
ARC
  5
1FF
  8
0
 10
172.28661860386859
 20
145.93979115513699
 30
0.0
 40
0.799999999999983
 50
315.00000000000119
 51
45.000000000003169
  0
LINE
  5
200
  8
0
 10
172.85230402881791
 20
145.37410573018769
 30
0.0
 11
171.86235453513561
 21
144.38415623655229
 31
0.0
  0
ARC
  5
201
  8
0
 10
171.65022250077971
 20
144.59628827090839
 30
0.0
 40
0.3000000000000398
 50
224.9999999999948
 51
314.99999999999511
  0
LINE
  5
202
  8
0
 10
171.4380904664236
 20
144.3841562365524
 30
0.0
 11
170.80169436335581
 21
145.02055233962031
 31
0.0
  0
ARC
  5
203
  8
0
 10
170.5895623289999
 20
144.80842030526429
 30
0.0
 40
0.3000000000000114
 50
45.000000000004889
 51
135.00000000001029
  0
LINE
  5
204
  8
0
 10
170.3774302946438
 20
145.0205523396202
 30
0.0
 11
169.4935468181414
 21
144.13666886311771
 31
0.0
  0
ARC
  5
205
  8
0
 10
170.20065359932789
 20
143.42956208193121
 30
0.0
 40
1.0
 50
135.00000000000031
 51
224.99999999999969
  0
LINE
  5
206
  8
0
 10
169.4935468181414
 20
142.7224553007446
 30
0.0
 11
170.69078165984709
 21
141.52522045903879
 31
0.0
  0
ARC
  5
207
  8
0
 10
172.81210200340681
 20
143.64654080259851
 30
0.0
 40
2.9999999999999711
 50
224.9999999999994
 51
270.0
  0
LINE
  5
208
  8
0
 10
172.81210200340669
 20
140.64654080259851
 30
0.0
 11
176.42803996008089
 21
140.64654080259851
 31
0.0
  0
ARC
  5
209
  8
0
 10
176.42803996008089
 20
143.64654080259851
 30
0.0
 40
2.999999999999984
 50
270.0
 51
315.00000000000063
  0
LINE
  5
20A
  8
0
 10
178.54936030364061
 20
141.52522045903891
 30
0.0
 11
182.21662219322391
 21
145.1924823486226
 31
0.0
  0
ARC
  5
20B
  8
0
 10
180.09530184966439
 20
147.31380269218229
 30
0.0
 40
2.9999999999999138
 50
314.99999999999631
 51
359.99999999999471
  0
LINE
  5
20C
  8
0
 10
183.09530184966439
 20
147.31380269218201
 30
0.0
 11
183.09530184966431
 21
150.92974064885621
 31
0.0
  0
ARC
  5
20D
  8
0
 10
180.09530184966439
 20
150.92974064885621
 30
0.0
 40
2.9999999999999032
 50
0.0
 51
44.999999999999709
  0
LINE
  5
20E
  8
0
 10
182.216622193224
 20
153.05106099241581
 30
0.0
 11
181.01938735151819
 21
154.24829583412151
 31
0.0
  0
ARC
  5
20F
  8
0
 10
180.31228057033169
 20
153.54118905293501
 30
0.0
 40
1.0
 50
44.999999999999709
 51
135.00000000000031
  0
LINE
  5
210
  8
0
 10
179.6051737891452
 20
154.24829583412151
 30
0.0
 11
178.72129031264271
 21
153.36441235761899
 31
0.0
  0
ARC
  5
211
  8
0
 10
178.93342234699861
 20
153.15228032326311
 30
0.0
 40
0.2999999999999829
 50
134.99999999999511
 51
224.9999999999948
  0
LINE
  5
212
  8
0
 10
178.72129031264259
 20
152.9401482889071
 30
0.0
 11
179.35768641571039
 21
152.30375218583919
 31
0.0
  0
ARC
  5
213
  8
0
 10
179.14555438135449
 20
152.09162015148331
 30
0.0
 40
0.2999999999999829
 50
315.00000000000517
 51
45.000000000004889
  0
LINE
  5
214
  8
0
 10
179.3576864157105
 20
151.87948811712729
 30
0.0
 11
178.3677369220494
 21
150.88953862346611
 31
0.0
  0
ARC
  5
215
  8
0
 10
177.80205149710031
 20
151.45522404839201
 30
0.0
 40
0.7999999999833563
 50
225.0000000011797
 51
315.00000000118001
  0
ARC
  5
216
  8
0
 10
176.41713304883859
 20
135.65744771389049
 30
0.0
 40
3.0000000000000551
 50
44.999999999999133
 51
89.918580721320524
  0
LINE
  5
217
  8
0
 10
178.53845339239831
 20
137.77876805745001
 30
0.0
 11
180.02976743614721
 21
136.28745401370071
 31
0.0
  0
ARC
  5
218
  8
0
 10
179.67621404555379
 20
135.93390062310749
 30
0.0
 40
0.5
 50
270.00000000021498
 51
44.999999999986471
  0
LINE
  5
219
  8
0
 10
179.6762140455557
 20
135.43390062310741
 30
0.0
 11
169.56392791802591
 21
135.43390062306901
 31
0.0
  0
ARC
  5
21A
  8
0
 10
169.56392791802401
 20
135.93390062306909
 30
0.0
 40
0.499999999999984
 50
135.00000000012031
 51
270.00000000021498
  0
LINE
  5
21B
  8
0
 10
169.21037452742999
 20
136.28745401366149
 30
0.0
 11
170.70678870152619
 21
137.78386818776431
 31
0.0
  0
ARC
  5
21C
  8
0
 10
172.82810904509051
 20
135.66254784420931
 30
0.0
 40
3.000000000000028
 50
89.918580721323778
 51
135.00000000012429
  0
LINE
  5
21D
  8
0
 10
172.83237214711829
 20
138.6625448152013
 30
0.0
 11
176.42139615086651
 21
138.65744468488251
 31
0.0
  0
LINE
  5
21E
  8
0
 10
183.03464167792319
 20
157.67776372285309
 30
0.0
 11
181.58507277649079
 21
156.22819482142069
 31
0.0
  0
ARC
  5
21F
  8
0
 10
181.79720481084669
 20
156.0160627870647
 30
0.0
 40
0.3000000000000114
 50
134.99999999999511
 51
224.9999999999948
  0
LINE
  5
220
  8
0
 10
181.5850727764907
 20
155.80393075270871
 30
0.0
 11
183.88316981534359
 21
153.50583371385571
 31
0.0
  0
ARC
  5
221
  8
0
 10
184.09530184969961
 20
153.7179657482117
 30
0.0
 40
0.3000000000000114
 50
224.99999999999969
 51
314.99999999987079
  0
LINE
  5
222
  8
0
 10
184.30743388405509
 20
153.5058337138552
 30
0.0
 11
186.60553092291661
 21
155.80393075270641
 31
0.0
  0
ARC
  5
223
  8
0
 10
186.39339888856119
 20
156.01606278706279
 30
0.0
 40
0.2999999999999261
 50
314.99999999987563
 51
45.000000000004889
  0
LINE
  5
224
  8
0
 10
186.6055309229171
 20
156.2281948214187
 30
0.0
 11
185.15596202148279
 21
157.677763722853
 31
0.0
  0
ARC
  5
225
  8
0
 10
184.09530184970299
 20
156.6171035510732
 30
0.0
 40
1.500000000000028
 50
45.000000000000291
 51
134.99999999999969
  0
ARC
  5
226
  8
0
 10
167.1247391012009
 20
139.64654080257139
 30
0.0
 40
1.5
 50
135.00000000000031
 51
224.99999999999969
  0
LINE
  5
227
  8
0
 10
166.0640789294211
 20
138.58588063079151
 30
0.0
 11
167.51364783085529
 21
137.1363117293574
 31
0.0
  0
ARC
  5
228
  8
0
 10
167.72577986521131
 20
137.34844376371339
 30
0.0
 40
0.2999999999999829
 50
225.00000000000489
 51
315.000000000135
  0
LINE
  5
229
  8
0
 10
167.93791189956761
 20
137.13631172935791
 30
0.0
 11
170.23600893840771
 21
139.4344087682079
 31
0.0
  0
ARC
  5
22A
  8
0
 10
170.02387690405121
 20
139.64654080256349
 30
0.0
 40
0.3000000000000966
 50
315.000000000125
 51
44.99999999999482
  0
LINE
  5
22B
  8
0
 10
170.23600893840731
 20
139.85867283691951
 30
0.0
 11
167.93791189955419
 21
142.15676987577251
 31
0.0
  0
ARC
  5
22C
  8
0
 10
167.72577986519829
 20
141.94463784141649
 30
0.0
 40
0.3000000000000398
 50
45.000000000004889
 51
135.0000000000052
  0
LINE
  5
22D
  8
0
 10
167.5136478308423
 20
142.1567698757724
 30
0.0
 11
166.0640789294211
 21
140.70720097435111
 31
0.0
  0
LINE
  5
22E
  8
0
 10
189.65215030697169
 20
137.77876805745009
 30
0.0
 11
188.16083626322279
 21
136.28745401370071
 31
0.0
  0
ARC
  5
22F
  8
0
 10
188.5143896538161
 20
135.93390062310749
 30
0.0
 40
0.5000000000000285
 50
135.00000000000981
 51
269.99999999978502
  0
LINE
  5
230
  8
0
 10
188.51438965381419
 20
135.43390062310741
 30
0.0
 11
198.6266757813442
 21
135.43390062306901
 31
0.0
  0
ARC
  5
231
  8
0
 10
198.62667578134599
 20
135.93390062306901
 30
0.0
 40
0.499999999999984
 50
269.99999999978502
 51
44.999999999875641
  0
LINE
  5
232
  8
0
 10
198.9802291719401
 20
136.28745401366149
 30
0.0
 11
197.48381499784381
 21
137.7838681877644
 31
0.0
  0
ARC
  5
233
  8
0
 10
195.3624946542796
 20
135.66254784420931
 30
0.0
 40
3.0000000000000848
 50
44.999999999875932
 51
90.081419278679476
  0
LINE
  5
234
  8
0
 10
195.35823155225171
 20
138.6625448152013
 30
0.0
 11
191.76920754850349
 21
138.65744468488259
 31
0.0
  0
ARC
  5
235
  8
0
 10
191.77347065053161
 20
135.65744771389069
 30
0.0
 40
3.0000000000000151
 50
90.081419278682731
 51
135.00000000000139
  0
ARC
  5
236
  8
0
 10
200.4648238341716
 20
141.94463784141661
 30
0.0
 40
0.2999999999999545
 50
44.99999999999482
 51
134.99999999999511
  0
LINE
  5
237
  8
0
 10
200.6769558685277
 20
142.15676987577251
 30
0.0
 11
202.1265247699489
 21
140.7072009743512
 31
0.0
  0
ARC
  5
238
  8
0
 10
201.0658645981691
 20
139.64654080257151
 30
0.0
 40
1.5
 50
315.00000000000028
 51
44.999999999999709
  0
LINE
  5
239
  8
0
 10
202.1265247699489
 20
138.58588063079159
 30
0.0
 11
200.67695586851471
 21
137.13631172935749
 31
0.0
  0
ARC
  5
23A
  8
0
 10
200.46482383415881
 20
137.3484437637135
 30
0.0
 40
0.2999999999999829
 50
224.99999999988029
 51
315.00000000000517
  0
LINE
  5
23B
  8
0
 10
200.25269179980231
 20
137.13631172935791
 30
0.0
 11
197.95459476096229
 21
139.43440876820799
 31
0.0
  0
ARC
  5
23C
  8
0
 10
198.16672679531879
 20
139.64654080256361
 30
0.0
 40
0.3000000000000682
 50
135.00000000000031
 51
224.99999999987509
  0
LINE
  5
23D
  8
0
 10
197.95459476096269
 20
139.85867283691951
 30
0.0
 11
200.25269179981581
 21
142.15676987577251
 31
0.0
  0
LINE
  5
23E
  8
0
 10
238.36296601465691
 20
139.64653978110911
 30
0.0
 11
238.36296601465691
 21
163.43390062308151
 31
0.0
  0
LINE
  5
23F
  8
0
 10
268.36296601465688
 20
163.43390062308151
 30
0.0
 11
268.36296601465688
 21
139.64653978110911
 31
0.0
  0
LINE
  5
240
  8
0
 10
238.36296601465691
 20
150.6552240484074
 30
0.0
 11
268.36296601465688
 21
150.6552240484074
 31
0.0
  0
LINE
  5
241
  8
0
 10
238.36296601465691
 20
147.64662964343171
 30
0.0
 11
268.36296601465688
 21
147.64662964343171
 31
0.0
  0
POLYLINE
  5
243
  8
0
 10
258.86296601465688
 20
163.43390062308893
 30
0.0
 66
     1
 70
     8
  0
VERTEX
  8
0
  5
3EA
 10
258.863
 20
163.434
 30
0.000000
  70
    32
  0
VERTEX
  8
0
  5
3EB
 10
258.861
 20
163.236
 30
0.000000
  70
    32
  0
VERTEX
  8
0
  5
3EC
 10
258.856
 20
163.038
 30
0.000000
  70
    32
  0
VERTEX
  8
0
  5
3ED
 10
258.848
 20
162.840
 30
0.000000
  70
    32
  0
VERTEX
  8
0
  5
3EE
 10
258.836
 20
162.642
 30
0.000000
  70
    32
  0
VERTEX
  8
0
  5
3EF
 10
258.822
 20
162.445
 30
0.000000
  70
    32
  0
VERTEX
  8
0
  5
3F0
 10
258.803
 20
162.249
 30
0.000000
  70
    32
  0
VERTEX
  8
0
  5
3F1
 10
258.782
 20
162.053
 30
0.000000
  70
    32
  0
VERTEX
  8
0
  5
3F2
 10
258.757
 20
161.859
 30
0.000000
  70
    32
  0
VERTEX
  8
0
  5
3F3
 10
258.729
 20
161.665
 30
0.000000
  70
    32
  0
VERTEX
  8
0
  5
3F4
 10
258.698
 20
161.472
 30
0.000000
  70
    32
  0
VERTEX
  8
0
  5
3F5
 10
258.664
 20
161.280
 30
0.000000
  70
    32
  0
VERTEX
  8
0
  5
3F6
 10
258.626
 20
161.090
 30
0.000000
  70
    32
  0
VERTEX
  8
0
  5
3F7
 10
258.585
 20
160.901
 30
0.000000
  70
    32
  0
VERTEX
  8
0
  5
3F8
 10
258.541
 20
160.714
 30
0.000000
  70
    32
  0
VERTEX
  8
0
  5
3F9
 10
258.494
 20
160.528
 30
0.000000
  70
    32
  0
VERTEX
  8
0
  5
3FA
 10
258.444
 20
160.344
 30
0.000000
  70
    32
  0
VERTEX
  8
0
  5
3FB
 10
258.391
 20
160.162
 30
0.000000
  70
    32
  0
VERTEX
  8
0
  5
3FC
 10
258.335
 20
159.982
 30
0.000000
  70
    32
  0
VERTEX
  8
0
  5
3FD
 10
258.276
 20
159.803
 30
0.000000
  70
    32
  0
VERTEX
  8
0
  5
3FE
 10
258.214
 20
159.628
 30
0.000000
  70
    32
  0
VERTEX
  8
0
  5
3FF
 10
258.148
 20
159.454
 30
0.000000
  70
    32
  0
VERTEX
  8
0
  5
400
 10
258.080
 20
159.283
 30
0.000000
  70
    32
  0
VERTEX
  8
0
  5
401
 10
258.010
 20
159.114
 30
0.000000
  70
    32
  0
VERTEX
  8
0
  5
402
 10
257.936
 20
158.948
 30
0.000000
  70
    32
  0
VERTEX
  8
0
  5
403
 10
257.860
 20
158.784
 30
0.000000
  70
    32
  0
VERTEX
  8
0
  5
404
 10
257.781
 20
158.624
 30
0.000000
  70
    32
  0
VERTEX
  8
0
  5
405
 10
257.699
 20
158.466
 30
0.000000
  70
    32
  0
VERTEX
  8
0
  5
406
 10
257.615
 20
158.311
 30
0.000000
  70
    32
  0
VERTEX
  8
0
  5
407
 10
257.528
 20
158.160
 30
0.000000
  70
    32
  0
VERTEX
  8
0
  5
408
 10
257.438
 20
158.011
 30
0.000000
  70
    32
  0
VERTEX
  8
0
  5
409
 10
257.346
 20
157.866
 30
0.000000
  70
    32
  0
VERTEX
  8
0
  5
40A
 10
257.252
 20
157.724
 30
0.000000
  70
    32
  0
VERTEX
  8
0
  5
40B
 10
257.155
 20
157.586
 30
0.000000
  70
    32
  0
VERTEX
  8
0
  5
40C
 10
257.057
 20
157.451
 30
0.000000
  70
    32
  0
VERTEX
  8
0
  5
40D
 10
256.955
 20
157.320
 30
0.000000
  70
    32
  0
VERTEX
  8
0
  5
40E
 10
256.852
 20
157.192
 30
0.000000
  70
    32
  0
VERTEX
  8
0
  5
40F
 10
256.747
 20
157.068
 30
0.000000
  70
    32
  0
VERTEX
  8
0
  5
410
 10
256.639
 20
156.948
 30
0.000000
  70
    32
  0
VERTEX
  8
0
  5
411
 10
256.530
 20
156.832
 30
0.000000
  70
    32
  0
VERTEX
  8
0
  5
412
 10
256.419
 20
156.720
 30
0.000000
  70
    32
  0
VERTEX
  8
0
  5
413
 10
256.305
 20
156.612
 30
0.000000
  70
    32
  0
VERTEX
  8
0
  5
414
 10
256.191
 20
156.508
 30
0.000000
  70
    32
  0
VERTEX
  8
0
  5
415
 10
256.074
 20
156.408
 30
0.000000
  70
    32
  0
VERTEX
  8
0
  5
416
 10
255.956
 20
156.313
 30
0.000000
  70
    32
  0
VERTEX
  8
0
  5
417
 10
255.836
 20
156.221
 30
0.000000
  70
    32
  0
VERTEX
  8
0
  5
418
 10
255.715
 20
156.134
 30
0.000000
  70
    32
  0
VERTEX
  8
0
  5
419
 10
255.592
 20
156.052
 30
0.000000
  70
    32
  0
VERTEX
  8
0
  5
41A
 10
255.468
 20
155.974
 30
0.000000
  70
    32
  0
VERTEX
  8
0
  5
41B
 10
255.342
 20
155.900
 30
0.000000
  70
    32
  0
VERTEX
  8
0
  5
41C
 10
255.216
 20
155.831
 30
0.000000
  70
    32
  0
VERTEX
  8
0
  5
41D
 10
255.088
 20
155.767
 30
0.000000
  70
    32
  0
VERTEX
  8
0
  5
41E
 10
254.960
 20
155.707
 30
0.000000
  70
    32
  0
VERTEX
  8
0
  5
41F
 10
254.830
 20
155.652
 30
0.000000
  70
    32
  0
VERTEX
  8
0
  5
420
 10
254.699
 20
155.601
 30
0.000000
  70
    32
  0
VERTEX
  8
0
  5
421
 10
254.568
 20
155.555
 30
0.000000
  70
    32
  0
VERTEX
  8
0
  5
422
 10
254.436
 20
155.514
 30
0.000000
  70
    32
  0
VERTEX
  8
0
  5
423
 10
254.303
 20
155.478
 30
0.000000
  70
    32
  0
VERTEX
  8
0
  5
424
 10
254.170
 20
155.447
 30
0.000000
  70
    32
  0
VERTEX
  8
0
  5
425
 10
254.036
 20
155.420
 30
0.000000
  70
    32
  0
VERTEX
  8
0
  5
426
 10
253.902
 20
155.398
 30
0.000000
  70
    32
  0
VERTEX
  8
0
  5
427
 10
253.768
 20
155.381
 30
0.000000
  70
    32
  0
VERTEX
  8
0
  5
428
 10
253.633
 20
155.369
 30
0.000000
  70
    32
  0
VERTEX
  8
0
  5
429
 10
253.498
 20
155.362
 30
0.000000
  70
    32
  0
VERTEX
  8
0
  5
42A
 10
253.363
 20
155.359
 30
0.000000
  70
    32
  0
VERTEX
  8
0
  5
42B
 10
253.228
 20
155.362
 30
0.000000
  70
    32
  0
VERTEX
  8
0
  5
42C
 10
253.093
 20
155.369
 30
0.000000
  70
    32
  0
VERTEX
  8
0
  5
42D
 10
252.958
 20
155.381
 30
0.000000
  70
    32
  0
VERTEX
  8
0
  5
42E
 10
252.824
 20
155.398
 30
0.000000
  70
    32
  0
VERTEX
  8
0
  5
42F
 10
252.690
 20
155.420
 30
0.000000
  70
    32
  0
VERTEX
  8
0
  5
430
 10
252.556
 20
155.447
 30
0.000000
  70
    32
  0
VERTEX
  8
0
  5
431
 10
252.423
 20
155.478
 30
0.000000
  70
    32
  0
VERTEX
  8
0
  5
432
 10
252.290
 20
155.514
 30
0.000000
  70
    32
  0
VERTEX
  8
0
  5
433
 10
252.158
 20
155.555
 30
0.000000
  70
    32
  0
VERTEX
  8
0
  5
434
 10
252.027
 20
155.601
 30
0.000000
  70
    32
  0
VERTEX
  8
0
  5
435
 10
251.896
 20
155.652
 30
0.000000
  70
    32
  0
VERTEX
  8
0
  5
436
 10
251.766
 20
155.707
 30
0.000000
  70
    32
  0
VERTEX
  8
0
  5
437
 10
251.638
 20
155.767
 30
0.000000
  70
    32
  0
VERTEX
  8
0
  5
438
 10
251.510
 20
155.831
 30
0.000000
  70
    32
  0
VERTEX
  8
0
  5
439
 10
251.384
 20
155.900
 30
0.000000
  70
    32
  0
VERTEX
  8
0
  5
43A
 10
251.258
 20
155.974
 30
0.000000
  70
    32
  0
VERTEX
  8
0
  5
43B
 10
251.134
 20
156.052
 30
0.000000
  70
    32
  0
VERTEX
  8
0
  5
43C
 10
251.011
 20
156.134
 30
0.000000
  70
    32
  0
VERTEX
  8
0
  5
43D
 10
250.890
 20
156.221
 30
0.000000
  70
    32
  0
VERTEX
  8
0
  5
43E
 10
250.770
 20
156.313
 30
0.000000
  70
    32
  0
VERTEX
  8
0
  5
43F
 10
250.652
 20
156.408
 30
0.000000
  70
    32
  0
VERTEX
  8
0
  5
440
 10
250.535
 20
156.508
 30
0.000000
  70
    32
  0
VERTEX
  8
0
  5
441
 10
250.420
 20
156.612
 30
0.000000
  70
    32
  0
VERTEX
  8
0
  5
442
 10
250.307
 20
156.720
 30
0.000000
  70
    32
  0
VERTEX
  8
0
  5
443
 10
250.196
 20
156.832
 30
0.000000
  70
    32
  0
VERTEX
  8
0
  5
444
 10
250.087
 20
156.948
 30
0.000000
  70
    32
  0
VERTEX
  8
0
  5
445
 10
249.979
 20
157.068
 30
0.000000
  70
    32
  0
VERTEX
  8
0
  5
446
 10
249.874
 20
157.192
 30
0.000000
  70
    32
  0
VERTEX
  8
0
  5
447
 10
249.771
 20
157.320
 30
0.000000
  70
    32
  0
VERTEX
  8
0
  5
448
 10
249.669
 20
157.451
 30
0.000000
  70
    32
  0
VERTEX
  8
0
  5
449
 10
249.570
 20
157.586
 30
0.000000
  70
    32
  0
VERTEX
  8
0
  5
44A
 10
249.474
 20
157.724
 30
0.000000
  70
    32
  0
VERTEX
  8
0
  5
44B
 10
249.380
 20
157.866
 30
0.000000
  70
    32
  0
VERTEX
  8
0
  5
44C
 10
249.288
 20
158.011
 30
0.000000
  70
    32
  0
VERTEX
  8
0
  5
44D
 10
249.198
 20
158.160
 30
0.000000
  70
    32
  0
VERTEX
  8
0
  5
44E
 10
249.111
 20
158.311
 30
0.000000
  70
    32
  0
VERTEX
  8
0
  5
44F
 10
249.027
 20
158.466
 30
0.000000
  70
    32
  0
VERTEX
  8
0
  5
450
 10
248.945
 20
158.624
 30
0.000000
  70
    32
  0
VERTEX
  8
0
  5
451
 10
248.866
 20
158.784
 30
0.000000
  70
    32
  0
VERTEX
  8
0
  5
452
 10
248.790
 20
158.948
 30
0.000000
  70
    32
  0
VERTEX
  8
0
  5
453
 10
248.716
 20
159.114
 30
0.000000
  70
    32
  0
VERTEX
  8
0
  5
454
 10
248.645
 20
159.283
 30
0.000000
  70
    32
  0
VERTEX
  8
0
  5
455
 10
248.577
 20
159.454
 30
0.000000
  70
    32
  0
VERTEX
  8
0
  5
456
 10
248.512
 20
159.628
 30
0.000000
  70
    32
  0
VERTEX
  8
0
  5
457
 10
248.450
 20
159.803
 30
0.000000
  70
    32
  0
VERTEX
  8
0
  5
458
 10
248.391
 20
159.982
 30
0.000000
  70
    32
  0
VERTEX
  8
0
  5
459
 10
248.335
 20
160.162
 30
0.000000
  70
    32
  0
VERTEX
  8
0
  5
45A
 10
248.282
 20
160.344
 30
0.000000
  70
    32
  0
VERTEX
  8
0
  5
45B
 10
248.232
 20
160.528
 30
0.000000
  70
    32
  0
VERTEX
  8
0
  5
45C
 10
248.184
 20
160.714
 30
0.000000
  70
    32
  0
VERTEX
  8
0
  5
45D
 10
248.141
 20
160.901
 30
0.000000
  70
    32
  0
VERTEX
  8
0
  5
45E
 10
248.100
 20
161.090
 30
0.000000
  70
    32
  0
VERTEX
  8
0
  5
45F
 10
248.062
 20
161.280
 30
0.000000
  70
    32
  0
VERTEX
  8
0
  5
460
 10
248.028
 20
161.472
 30
0.000000
  70
    32
  0
VERTEX
  8
0
  5
461
 10
247.997
 20
161.665
 30
0.000000
  70
    32
  0
VERTEX
  8
0
  5
462
 10
247.969
 20
161.859
 30
0.000000
  70
    32
  0
VERTEX
  8
0
  5
463
 10
247.944
 20
162.053
 30
0.000000
  70
    32
  0
VERTEX
  8
0
  5
464
 10
247.922
 20
162.249
 30
0.000000
  70
    32
  0
VERTEX
  8
0
  5
465
 10
247.904
 20
162.445
 30
0.000000
  70
    32
  0
VERTEX
  8
0
  5
466
 10
247.889
 20
162.642
 30
0.000000
  70
    32
  0
VERTEX
  8
0
  5
467
 10
247.878
 20
162.840
 30
0.000000
  70
    32
  0
VERTEX
  8
0
  5
468
 10
247.870
 20
163.038
 30
0.000000
  70
    32
  0
VERTEX
  8
0
  5
469
 10
247.865
 20
163.236
 30
0.000000
  70
    32
  0
VERTEX
  8
0
  5
46A
 10
247.863
 20
163.434
 30
0.000000
  70
    32
  0
SEQEND
  8
0
  5
46B
  0
LINE
  5
244
  8
0
 10
247.86296601465691
 20
163.43390062308151
 30
0.0
 11
238.36296601465691
 21
163.43390062308151
 31
0.0
  0
LINE
  5
245
  8
0
 10
164.1249203402063
 20
226.95658200382269
 30
0.0
 11
164.1249203402063
 21
196.9565820038226
 31
0.0
  0
LINE
  5
246
  8
0
 10
204.0656833591579
 20
226.95658200382249
 30
0.0
 11
204.0656833591579
 21
196.95658200382249
 31
0.0
  0
LINE
  5
247
  8
1
 10
184.0950325353275
 20
191.9565820038226
 30
0.0
 11
184.09503253532759
 21
231.9565820038226
 31
0.0
  0
LINE
  5
248
  8
0
 10
164.1249203402063
 20
196.9565820038226
 30
0.0
 11
204.0656833591579
 21
196.95658200382249
 31
0.0
  0
LINE
  5
249
  8
0
 10
164.1249203402063
 20
226.95658200382269
 30
0.0
 11
204.0656833591579
 21
226.95658200382249
 31
0.0
  0
CIRCLE
  5
24A
  8
0
 10
184.0950325353275
 20
211.95658200382249
 30
0.0
 40
3.5
  0
LINE
  5
24B
  8
1
 10
159.1249203402063
 20
211.95658200382249
 30
0.0
 11
209.06568335915779
 21
211.95658200382249
 31
0.0
  0
LINE
  5
24C
  8
0
 10
173.0866186038686
 20
196.9565820038226
 30
0.0
 11
173.0866186038686
 21
226.95658200382269
 31
0.0
  0
LINE
  5
24D
  8
0
 10
176.09521353017689
 20
226.9565820038226
 30
0.0
 11
176.09521353017681
 21
196.9565820038226
 31
0.0
  0
LINE
  5
24E
  8
0
 10
195.10398509372121
 20
196.95677965691749
 30
0.0
 11
195.10344646501201
 21
226.95677965208219
 31
0.0
  0
LINE
  5
24F
  8
0
 10
192.09485153918871
 20
226.95672563489541
 30
0.0
 11
192.09539016789799
 21
196.95672563973071
 31
0.0
  0
CIRCLE
  5
250
  8
0
 10
184.0950325353275
 20
211.95658200382249
 30
0.0
 40
5.5
  0
LINE
  5
251
  8
0
 10
249.86296601465691
 20
150.6552240484074
 30
0.0
 11
249.86296601465691
 21
147.64662964343171
 31
0.0
  0
LINE
  5
252
  8
0
 10
256.86296601465688
 20
150.6552240484074
 30
0.0
 11
256.86296601465688
 21
147.64662964343171
 31
0.0
  0
LINE
  5
256
  8
0
 10
199.00127471576309
 20
95.139255369261704
 30
0.0
 11
199.001274715763
 21
65.139255369261718
 31
0.0
  0
LINE
  5
257
  8
0
 10
169.1893289836103
 20
95.139255369261775
 30
0.0
 11
169.1893289836103
 21
65.139255369261775
 31
0.0
  0
LINE
  5
26A
  8
1
 10
114.8276356417775
 20
168.43390062308151
 30
0.0
 11
114.8276356417775
 21
128.43390062308151
 31
0.0
  0
LINE
  5
26B
  8
0
 10
99.827635641777533
 20
133.43390062308151
 30
0.0
 11
99.827635641777476
 21
139.64653978110911
 31
0.0
  0
LINE
  5
26C
  8
0
 10
129.8276356417775
 20
133.43390062308151
 30
0.0
 11
129.8276356417775
 21
139.64653978110911
 31
0.0
  0
LINE
  5
26D
  8
0
 10
129.8276356417775
 20
133.43390062308151
 30
0.0
 11
99.827635641777533
 21
133.43390062308151
 31
0.0
  0
LINE
  5
26E
  8
0
 10
129.8276356417775
 20
147.64662964343171
 30
0.0
 11
99.827635641777533
 21
147.64662964343171
 31
0.0
  0
LINE
  5
26F
  8
0
 10
129.8276356417775
 20
150.6552240484074
 30
0.0
 11
99.827635641777533
 21
150.6552240484074
 31
0.0
  0
LINE
  5
270
  8
0
 10
129.8276356417775
 20
139.64653978110911
 30
0.0
 11
99.827635641777476
 21
139.64653978110911
 31
0.0
  0
LINE
  5
271
  8
0
 10
109.3276356417775
 20
163.43390062308899
 30
0.0
 11
99.827635641777533
 21
163.43390062308151
 31
0.0
  0
POLYLINE
  5
272
  8
0
 10
109.3276356417775
 20
163.43390062308893
 30
0.0
 66
     1
 70
     8
  0
VERTEX
  8
0
  5
46C
 10
109.328
 20
163.434
 30
0.000000
  70
    32
  0
VERTEX
  8
0
  5
46D
 10
109.329
 20
163.236
 30
0.000000
  70
    32
  0
VERTEX
  8
0
  5
46E
 10
109.334
 20
163.038
 30
0.000000
  70
    32
  0
VERTEX
  8
0
  5
46F
 10
109.343
 20
162.840
 30
0.000000
  70
    32
  0
VERTEX
  8
0
  5
470
 10
109.354
 20
162.642
 30
0.000000
  70
    32
  0
VERTEX
  8
0
  5
471
 10
109.369
 20
162.445
 30
0.000000
  70
    32
  0
VERTEX
  8
0
  5
472
 10
109.387
 20
162.249
 30
0.000000
  70
    32
  0
VERTEX
  8
0
  5
473
 10
109.409
 20
162.053
 30
0.000000
  70
    32
  0
VERTEX
  8
0
  5
474
 10
109.433
 20
161.859
 30
0.000000
  70
    32
  0
VERTEX
  8
0
  5
475
 10
109.461
 20
161.665
 30
0.000000
  70
    32
  0
VERTEX
  8
0
  5
476
 10
109.492
 20
161.472
 30
0.000000
  70
    32
  0
VERTEX
  8
0
  5
477
 10
109.527
 20
161.280
 30
0.000000
  70
    32
  0
VERTEX
  8
0
  5
478
 10
109.564
 20
161.090
 30
0.000000
  70
    32
  0
VERTEX
  8
0
  5
479
 10
109.605
 20
160.901
 30
0.000000
  70
    32
  0
VERTEX
  8
0
  5
47A
 10
109.649
 20
160.714
 30
0.000000
  70
    32
  0
VERTEX
  8
0
  5
47B
 10
109.696
 20
160.528
 30
0.000000
  70
    32
  0
VERTEX
  8
0
  5
47C
 10
109.746
 20
160.344
 30
0.000000
  70
    32
  0
VERTEX
  8
0
  5
47D
 10
109.799
 20
160.162
 30
0.000000
  70
    32
  0
VERTEX
  8
0
  5
47E
 10
109.856
 20
159.982
 30
0.000000
  70
    32
  0
VERTEX
  8
0
  5
47F
 10
109.915
 20
159.803
 30
0.000000
  70
    32
  0
VERTEX
  8
0
  5
480
 10
109.977
 20
159.628
 30
0.000000
  70
    32
  0
VERTEX
  8
0
  5
481
 10
110.042
 20
159.454
 30
0.000000
  70
    32
  0
VERTEX
  8
0
  5
482
 10
110.110
 20
159.283
 30
0.000000
  70
    32
  0
VERTEX
  8
0
  5
483
 10
110.181
 20
159.114
 30
0.000000
  70
    32
  0
VERTEX
  8
0
  5
484
 10
110.255
 20
158.948
 30
0.000000
  70
    32
  0
VERTEX
  8
0
  5
485
 10
110.331
 20
158.784
 30
0.000000
  70
    32
  0
VERTEX
  8
0
  5
486
 10
110.410
 20
158.624
 30
0.000000
  70
    32
  0
VERTEX
  8
0
  5
487
 10
110.492
 20
158.466
 30
0.000000
  70
    32
  0
VERTEX
  8
0
  5
488
 10
110.576
 20
158.311
 30
0.000000
  70
    32
  0
VERTEX
  8
0
  5
489
 10
110.663
 20
158.160
 30
0.000000
  70
    32
  0
VERTEX
  8
0
  5
48A
 10
110.752
 20
158.011
 30
0.000000
  70
    32
  0
VERTEX
  8
0
  5
48B
 10
110.844
 20
157.866
 30
0.000000
  70
    32
  0
VERTEX
  8
0
  5
48C
 10
110.939
 20
157.724
 30
0.000000
  70
    32
  0
VERTEX
  8
0
  5
48D
 10
111.035
 20
157.586
 30
0.000000
  70
    32
  0
VERTEX
  8
0
  5
48E
 10
111.134
 20
157.451
 30
0.000000
  70
    32
  0
VERTEX
  8
0
  5
48F
 10
111.235
 20
157.320
 30
0.000000
  70
    32
  0
VERTEX
  8
0
  5
490
 10
111.338
 20
157.192
 30
0.000000
  70
    32
  0
VERTEX
  8
0
  5
491
 10
111.444
 20
157.068
 30
0.000000
  70
    32
  0
VERTEX
  8
0
  5
492
 10
111.551
 20
156.948
 30
0.000000
  70
    32
  0
VERTEX
  8
0
  5
493
 10
111.661
 20
156.832
 30
0.000000
  70
    32
  0
VERTEX
  8
0
  5
494
 10
111.772
 20
156.720
 30
0.000000
  70
    32
  0
VERTEX
  8
0
  5
495
 10
111.885
 20
156.612
 30
0.000000
  70
    32
  0
VERTEX
  8
0
  5
496
 10
112.000
 20
156.508
 30
0.000000
  70
    32
  0
VERTEX
  8
0
  5
497
 10
112.117
 20
156.408
 30
0.000000
  70
    32
  0
VERTEX
  8
0
  5
498
 10
112.235
 20
156.313
 30
0.000000
  70
    32
  0
VERTEX
  8
0
  5
499
 10
112.355
 20
156.221
 30
0.000000
  70
    32
  0
VERTEX
  8
0
  5
49A
 10
112.476
 20
156.134
 30
0.000000
  70
    32
  0
VERTEX
  8
0
  5
49B
 10
112.599
 20
156.052
 30
0.000000
  70
    32
  0
VERTEX
  8
0
  5
49C
 10
112.723
 20
155.974
 30
0.000000
  70
    32
  0
VERTEX
  8
0
  5
49D
 10
112.848
 20
155.900
 30
0.000000
  70
    32
  0
VERTEX
  8
0
  5
49E
 10
112.975
 20
155.831
 30
0.000000
  70
    32
  0
VERTEX
  8
0
  5
49F
 10
113.102
 20
155.767
 30
0.000000
  70
    32
  0
VERTEX
  8
0
  5
4A0
 10
113.231
 20
155.707
 30
0.000000
  70
    32
  0
VERTEX
  8
0
  5
4A1
 10
113.361
 20
155.652
 30
0.000000
  70
    32
  0
VERTEX
  8
0
  5
4A2
 10
113.491
 20
155.601
 30
0.000000
  70
    32
  0
VERTEX
  8
0
  5
4A3
 10
113.623
 20
155.555
 30
0.000000
  70
    32
  0
VERTEX
  8
0
  5
4A4
 10
113.755
 20
155.514
 30
0.000000
  70
    32
  0
VERTEX
  8
0
  5
4A5
 10
113.887
 20
155.478
 30
0.000000
  70
    32
  0
VERTEX
  8
0
  5
4A6
 10
114.021
 20
155.447
 30
0.000000
  70
    32
  0
VERTEX
  8
0
  5
4A7
 10
114.154
 20
155.420
 30
0.000000
  70
    32
  0
VERTEX
  8
0
  5
4A8
 10
114.289
 20
155.398
 30
0.000000
  70
    32
  0
VERTEX
  8
0
  5
4A9
 10
114.423
 20
155.381
 30
0.000000
  70
    32
  0
VERTEX
  8
0
  5
4AA
 10
114.558
 20
155.369
 30
0.000000
  70
    32
  0
VERTEX
  8
0
  5
4AB
 10
114.693
 20
155.362
 30
0.000000
  70
    32
  0
VERTEX
  8
0
  5
4AC
 10
114.828
 20
155.359
 30
0.000000
  70
    32
  0
VERTEX
  8
0
  5
4AD
 10
114.963
 20
155.362
 30
0.000000
  70
    32
  0
VERTEX
  8
0
  5
4AE
 10
115.098
 20
155.369
 30
0.000000
  70
    32
  0
VERTEX
  8
0
  5
4AF
 10
115.232
 20
155.381
 30
0.000000
  70
    32
  0
VERTEX
  8
0
  5
4B0
 10
115.367
 20
155.398
 30
0.000000
  70
    32
  0
VERTEX
  8
0
  5
4B1
 10
115.501
 20
155.420
 30
0.000000
  70
    32
  0
VERTEX
  8
0
  5
4B2
 10
115.635
 20
155.447
 30
0.000000
  70
    32
  0
VERTEX
  8
0
  5
4B3
 10
115.768
 20
155.478
 30
0.000000
  70
    32
  0
VERTEX
  8
0
  5
4B4
 10
115.901
 20
155.514
 30
0.000000
  70
    32
  0
VERTEX
  8
0
  5
4B5
 10
116.033
 20
155.555
 30
0.000000
  70
    32
  0
VERTEX
  8
0
  5
4B6
 10
116.164
 20
155.601
 30
0.000000
  70
    32
  0
VERTEX
  8
0
  5
4B7
 10
116.295
 20
155.652
 30
0.000000
  70
    32
  0
VERTEX
  8
0
  5
4B8
 10
116.424
 20
155.707
 30
0.000000
  70
    32
  0
VERTEX
  8
0
  5
4B9
 10
116.553
 20
155.767
 30
0.000000
  70
    32
  0
VERTEX
  8
0
  5
4BA
 10
116.681
 20
155.831
 30
0.000000
  70
    32
  0
VERTEX
  8
0
  5
4BB
 10
116.807
 20
155.900
 30
0.000000
  70
    32
  0
VERTEX
  8
0
  5
4BC
 10
116.932
 20
155.974
 30
0.000000
  70
    32
  0
VERTEX
  8
0
  5
4BD
 10
117.056
 20
156.052
 30
0.000000
  70
    32
  0
VERTEX
  8
0
  5
4BE
 10
117.179
 20
156.134
 30
0.000000
  70
    32
  0
VERTEX
  8
0
  5
4BF
 10
117.300
 20
156.221
 30
0.000000
  70
    32
  0
VERTEX
  8
0
  5
4C0
 10
117.420
 20
156.313
 30
0.000000
  70
    32
  0
VERTEX
  8
0
  5
4C1
 10
117.539
 20
156.408
 30
0.000000
  70
    32
  0
VERTEX
  8
0
  5
4C2
 10
117.655
 20
156.508
 30
0.000000
  70
    32
  0
VERTEX
  8
0
  5
4C3
 10
117.770
 20
156.612
 30
0.000000
  70
    32
  0
VERTEX
  8
0
  5
4C4
 10
117.883
 20
156.720
 30
0.000000
  70
    32
  0
VERTEX
  8
0
  5
4C5
 10
117.995
 20
156.832
 30
0.000000
  70
    32
  0
VERTEX
  8
0
  5
4C6
 10
118.104
 20
156.948
 30
0.000000
  70
    32
  0
VERTEX
  8
0
  5
4C7
 10
118.211
 20
157.068
 30
0.000000
  70
    32
  0
VERTEX
  8
0
  5
4C8
 10
118.317
 20
157.192
 30
0.000000
  70
    32
  0
VERTEX
  8
0
  5
4C9
 10
118.420
 20
157.320
 30
0.000000
  70
    32
  0
VERTEX
  8
0
  5
4CA
 10
118.521
 20
157.451
 30
0.000000
  70
    32
  0
VERTEX
  8
0
  5
4CB
 10
118.620
 20
157.586
 30
0.000000
  70
    32
  0
VERTEX
  8
0
  5
4CC
 10
118.717
 20
157.724
 30
0.000000
  70
    32
  0
VERTEX
  8
0
  5
4CD
 10
118.811
 20
157.866
 30
0.000000
  70
    32
  0
VERTEX
  8
0
  5
4CE
 10
118.903
 20
158.011
 30
0.000000
  70
    32
  0
VERTEX
  8
0
  5
4CF
 10
118.992
 20
158.160
 30
0.000000
  70
    32
  0
VERTEX
  8
0
  5
4D0
 10
119.079
 20
158.311
 30
0.000000
  70
    32
  0
VERTEX
  8
0
  5
4D1
 10
119.164
 20
158.466
 30
0.000000
  70
    32
  0
VERTEX
  8
0
  5
4D2
 10
119.245
 20
158.624
 30
0.000000
  70
    32
  0
VERTEX
  8
0
  5
4D3
 10
119.324
 20
158.784
 30
0.000000
  70
    32
  0
VERTEX
  8
0
  5
4D4
 10
119.401
 20
158.948
 30
0.000000
  70
    32
  0
VERTEX
  8
0
  5
4D5
 10
119.474
 20
159.114
 30
0.000000
  70
    32
  0
VERTEX
  8
0
  5
4D6
 10
119.545
 20
159.283
 30
0.000000
  70
    32
  0
VERTEX
  8
0
  5
4D7
 10
119.613
 20
159.454
 30
0.000000
  70
    32
  0
VERTEX
  8
0
  5
4D8
 10
119.678
 20
159.628
 30
0.000000
  70
    32
  0
VERTEX
  8
0
  5
4D9
 10
119.740
 20
159.803
 30
0.000000
  70
    32
  0
VERTEX
  8
0
  5
4DA
 10
119.800
 20
159.982
 30
0.000000
  70
    32
  0
VERTEX
  8
0
  5
4DB
 10
119.856
 20
160.162
 30
0.000000
  70
    32
  0
VERTEX
  8
0
  5
4DC
 10
119.909
 20
160.344
 30
0.000000
  70
    32
  0
VERTEX
  8
0
  5
4DD
 10
119.959
 20
160.528
 30
0.000000
  70
    32
  0
VERTEX
  8
0
  5
4DE
 10
120.006
 20
160.714
 30
0.000000
  70
    32
  0
VERTEX
  8
0
  5
4DF
 10
120.050
 20
160.901
 30
0.000000
  70
    32
  0
VERTEX
  8
0
  5
4E0
 10
120.091
 20
161.090
 30
0.000000
  70
    32
  0
VERTEX
  8
0
  5
4E1
 10
120.128
 20
161.280
 30
0.000000
  70
    32
  0
VERTEX
  8
0
  5
4E2
 10
120.163
 20
161.472
 30
0.000000
  70
    32
  0
VERTEX
  8
0
  5
4E3
 10
120.194
 20
161.665
 30
0.000000
  70
    32
  0
VERTEX
  8
0
  5
4E4
 10
120.222
 20
161.859
 30
0.000000
  70
    32
  0
VERTEX
  8
0
  5
4E5
 10
120.247
 20
162.053
 30
0.000000
  70
    32
  0
VERTEX
  8
0
  5
4E6
 10
120.268
 20
162.249
 30
0.000000
  70
    32
  0
VERTEX
  8
0
  5
4E7
 10
120.286
 20
162.445
 30
0.000000
  70
    32
  0
VERTEX
  8
0
  5
4E8
 10
120.301
 20
162.642
 30
0.000000
  70
    32
  0
VERTEX
  8
0
  5
4E9
 10
120.313
 20
162.840
 30
0.000000
  70
    32
  0
VERTEX
  8
0
  5
4EA
 10
120.321
 20
163.038
 30
0.000000
  70
    32
  0
VERTEX
  8
0
  5
4EB
 10
120.326
 20
163.236
 30
0.000000
  70
    32
  0
VERTEX
  8
0
  5
4EC
 10
120.328
 20
163.434
 30
0.000000
  70
    32
  0
SEQEND
  8
0
  5
4ED
  0
LINE
  5
273
  8
0
 10
129.8276356417775
 20
139.64653978110911
 30
0.0
 11
129.8276356417775
 21
163.43390062308151
 31
0.0
  0
LINE
  5
274
  8
0
 10
118.3276356417775
 20
150.6552240484074
 30
0.0
 11
118.3276356417775
 21
147.64662964343171
 31
0.0
  0
LINE
  5
275
  8
0
 10
111.3276356417775
 20
150.6552240484074
 30
0.0
 11
111.3276356417775
 21
147.64662964343171
 31
0.0
  0
LINE
  5
276
  8
0
 10
120.3276356417775
 20
163.43390062308151
 30
0.0
 11
129.8276356417775
 21
163.43390062308151
 31
0.0
  0
LINE
  5
277
  8
0
 10
99.827635641777533
 20
163.43390062308151
 30
0.0
 11
99.827635641777533
 21
139.64653978110911
 31
0.0
  0
TEXT
  5
359
  8
0
 62
     3
 10
0.0
 20
0.0
 30
0.0
 40
10.0
  1
L6-AJL3030N
  7
STANDARD1
  0
ENDSEC
  0
EOF
