  0
SECTION
  2
HEADER
  9
$ACADVER
  1
AC1009
  9
$INSBASE
 10
0.0
 20
0.0
 30
0.0
  9
$EXTMIN
 10
0.0
 20
-2.960436562073669
 30
0.0
  9
$EXTMAX
 10
274.2910937529237
 20
218.33194334278701
 30
0.0
  9
$LIMMIN
 10
0.0
 20
0.0
  9
$LIMMAX
 10
375.0
 20
270.0
  9
$ORTHOMODE
 70
     1
  9
$REGENMODE
 70
     1
  9
$FILLMODE
 70
     1
  9
$QTEXTMODE
 70
     0
  9
$MIRRTEXT
 70
     0
  9
$DRAGMODE
 70
     2
  9
$LTSCALE
 40
10.0
  9
$OSMODE
 70
  3071
  9
$ATTMODE
 70
     1
  9
$TEXTSIZE
 40
4.000000000000048
  9
$TRACEWID
 40
0.05
  9
$TEXTSTYLE
  7
STANDARD
  9
$CLAYER
  8
0
  9
$CELTYPE
  6
BYLAYER
  9
$CECOLOR
 62
   256
  9
$DIMSCALE
 40
1.0
  9
$DIMASZ
 40
3.0
  9
$DIMEXO
 40
2.0
  9
$DIMDLI
 40
0.38
  9
$DIMRND
 40
0.0
  9
$DIMDLE
 40
0.0
  9
$DIMEXE
 40
2.0
  9
$DIMTP
 40
0.0
  9
$DIMTM
 40
0.0
  9
$DIMTXT
 40
3.0
  9
$DIMCEN
 40
0.0
  9
$DIMTSZ
 40
0.0
  9
$DIMTOL
 70
     0
  9
$DIMLIM
 70
     0
  9
$DIMTIH
 70
     0
  9
$DIMTOH
 70
     0
  9
$DIMSE1
 70
     0
  9
$DIMSE2
 70
     0
  9
$DIMTAD
 70
     1
  9
$DIMZIN
 70
     0
  9
$DIMBLK
  1

  9
$DIMASO
 70
     0
  9
$DIMSHO
 70
     0
  9
$DIMPOST
  1

  9
$DIMAPOST
  1

  9
$DIMALT
 70
     0
  9
$DIMALTD
 70
     2
  9
$DIMALTF
 40
25.399999999999999
  9
$DIMLFAC
 40
1.0
  9
$DIMTOFL
 70
     1
  9
$DIMTVP
 40
1.6000000000000001
  9
$DIMTIX
 70
     1
  9
$DIMSOXD
 70
     0
  9
$DIMSAH
 70
     0
  9
$DIMBLK1
  1

  9
$DIMBLK2
  1

  9
$DIMSTYLE
  2
STANDARD
  9
$DIMCLRD
 70
     0
  9
$DIMCLRE
 70
     0
  9
$DIMCLRT
 70
     0
  9
$DIMTFAC
 40
1.0
  9
$DIMGAP
 40
0.09
  9
$LUNITS
 70
     2
  9
$LUPREC
 70
     4
  9
$SKETCHINC
 40
0.1
  9
$FILLETRAD
 40
0.75
  9
$AUNITS
 70
     0
  9
$AUPREC
 70
     4
  9
$MENU
  1
E:\r13\win\SUPPORT\ACAD
  9
$ELEVATION
 40
0.0
  9
$PELEVATION
 40
0.0
  9
$THICKNESS
 40
0.0
  9
$LIMCHECK
 70
     0
  9
$BLIPMODE
 70
     0
  9
$CHAMFERA
 40
0.0
  9
$CHAMFERB
 40
0.0
  9
$SKPOLY
 70
     0
  9
$TDCREATE
 40
2449840.6534490739
  9
$TDUPDATE
 40
2456597.5614564121
  9
$TDINDWG
 40
0.0185225
  9
$TDUSRTIMER
 40
0.0185225
  9
$USRTIMER
 70
     1
  9
$ANGBASE
 50
0.0
  9
$ANGDIR
 70
     0
  9
$PDMODE
 70
    35
  9
$PDSIZE
 40
0.0
  9
$PLINEWID
 40
0.0
  9
$COORDS
 70
     1
  9
$SPLFRAME
 70
     0
  9
$SPLINETYPE
 70
     6
  9
$SPLINESEGS
 70
     8
  9
$ATTDIA
 70
     0
  9
$ATTREQ
 70
     1
  9
$HANDLING
 70
     1
  9
$HANDSEED
  5
8B4
  9
$SURFTAB1
 70
     6
  9
$SURFTAB2
 70
     6
  9
$SURFTYPE
 70
     6
  9
$SURFU
 70
     6
  9
$SURFV
 70
     6
  9
$UCSNAME
  2

  9
$UCSORG
 10
0.0
 20
0.0
 30
0.0
  9
$UCSXDIR
 10
1.0
 20
0.0
 30
0.0
  9
$UCSYDIR
 10
0.0
 20
1.0
 30
0.0
  9
$PUCSNAME
  2

  9
$PUCSORG
 10
0.0
 20
0.0
 30
0.0
  9
$PUCSXDIR
 10
1.0
 20
0.0
 30
0.0
  9
$PUCSYDIR
 10
0.0
 20
1.0
 30
0.0
  9
$USERI1
 70
     0
  9
$USERI2
 70
     1
  9
$USERI3
 70
     1
  9
$USERI4
 70
     0
  9
$USERI5
 70
     0
  9
$USERR1
 40
0.0
  9
$USERR2
 40
0.0
  9
$USERR3
 40
0.0
  9
$USERR4
 40
0.0
  9
$USERR5
 40
0.0
  9
$WORLDVIEW
 70
     1
  9
$SHADEDGE
 70
     3
  9
$SHADEDIF
 70
    70
  9
$TILEMODE
 70
     1
  9
$MAXACTVP
 70
    16
  9
$PLIMCHECK
 70
     0
  9
$PEXTMIN
 10
1.0000000000000000E+020
 20
1.0000000000000000E+020
 30
1.0000000000000000E+020
  9
$PEXTMAX
 10
-1.0000000000000000E+020
 20
-1.0000000000000000E+020
 30
-1.0000000000000000E+020
  9
$PLIMMIN
 10
0.0
 20
0.0
  9
$PLIMMAX
 10
12.0
 20
9.0
  9
$UNITMODE
 70
     0
  9
$VISRETAIN
 70
     0
  9
$PLINEGEN
 70
     0
  9
$PSLTSCALE
 70
     0
  0
ENDSEC
  0
SECTION
  2
TABLES
  0
TABLE
  2
VPORT
 70
     1
  0
VPORT
  2
*ACTIVE
 70
     0
 10
0.0
 20
0.0
 11
1.0
 21
1.0
 12
187.49427839065231
 22
162.8616388594717
 13
0.0
 23
0.0
 14
10.0
 24
10.0
 15
10.0
 25
10.0
 16
0.0
 26
0.0
 36
1.0
 17
0.0
 27
0.0
 37
0.0
 40
334.81001162774987
 41
1.9089595375722539
 42
50.0
 43
0.0
 44
0.0
 50
0.0
 51
0.0
 71
     0
 72
   500
 73
     1
 74
     0
 75
     0
 76
     0
 77
     0
 78
     2
  0
ENDTAB
  0
TABLE
  2
LTYPE
 70
     3
  0
LTYPE
  2
CONTINUOUS
 70
     0
  3
Solid Line
 72
    65
 73
     0
 40
0.0
  0
LTYPE
  2
CENTER
 70
     0
  3
____ _ ____ _ ____ _ ____ _ ____ _ ____ _ ____
 72
    65
 73
     4
 40
2.0
 49
1.25
 49
-0.25
 49
0.25
 49
-0.25
  0
LTYPE
  2
PHANTOM2
 70
     0
  3
___ _ _ ___ _ _ ___ _ _ ___ _ _
 72
    65
 73
     6
 40
1.25
 49
0.625
 49
-0.125
 49
0.125
 49
-0.125
 49
0.125
 49
-0.125
  0
ENDTAB
  0
TABLE
  2
LAYER
 70
     5
  0
LAYER
  2
0
 70
     0
 62
     7
  6
CONTINUOUS
  0
LAYER
  2
1
 70
     0
 62
     1
  6
CENTER
  0
LAYER
  2
3
 70
     0
 62
     3
  6
CONTINUOUS
  0
LAYER
  2
ITEM_HILFE
 70
     0
 62
     3
  6
CONTINUOUS
  0
LAYER
  2
10
 70
     0
 62
     7
  6
CONTINUOUS
  0
ENDTAB
  0
TABLE
  2
STYLE
 70
     3
  0
STYLE
  2
STANDARD
 70
     0
 40
0.0
 41
1.0
 50
0.0
 71
     0
 42
4.000000000000048
  3
TXT
  4
BIGFONT
  0
STYLE
  2
EAITTSTIL
 70
     0
 40
0.0
 41
0.8
 50
0.0
 71
     0
 42
2.0
  3
SIMPLEX.SHX
  4

  0
STYLE
  2
STANDARD1
 70
     0
 40
0.0
 41
1.0
 50
0.0
 71
     0
 42
3.0
  3
txt
  4

  0
ENDTAB
  0
TABLE
  2
VIEW
 70
     1
  0
VIEW
  2
ALL
 70
     0
 40
270.0
 10
220.99159663865549
 20
135.0
 41
0.0
 11
0.0
 21
0.0
 31
1.0
 12
0.0
 22
0.0
 32
0.0
 42
0.0
 43
0.0
 44
0.0
 50
0.0
 71
     0
  0
ENDTAB
  0
TABLE
  2
UCS
 70
     0
  0
ENDTAB
  0
TABLE
  2
APPID
 70
     4
  0
APPID
  2
ACAD
 70
     0
  0
APPID
  2
GENIUS_GENOREF_13
 70
     0
  0
APPID
  2
ACAD_MLEADERVER
 70
     0
  0
APPID
  2
ACAD_NAV_VCDISPLAY
 70
     0
  0
ENDTAB
  0
TABLE
  2
DIMSTYLE
 70
     1
  0
DIMSTYLE
  2
STANDARD
 70
     0
  3

  4

  5

  6

  7

 40
1.0
 41
0.18
 42
0.0625
 43
0.38
 44
0.18
 45
0.0
 46
0.0
 47
0.0
 48
0.0
140
0.18
141
0.09
142
0.0
143
25.399999999999999
144
1.0
145
0.0
146
1.0
147
0.09
 71
     0
 72
     0
 73
     1
 74
     1
 75
     0
 76
     0
 77
     0
 78
     0
170
     0
171
     2
172
     0
173
     0
174
     0
175
     0
176
     0
177
     0
178
     0
  0
ENDTAB
  0
ENDSEC
  0
SECTION
  2
BLOCKS
  0
BLOCK
  8
0
  2
$MODEL_SPACE
 70
     0
 10
0.0
 20
0.0
 30
0.0
  3
$MODEL_SPACE
  1

  0
ENDBLK
  5
171
  8
0
  0
BLOCK
 67
     1
  8
0
  2
$PAPER_SPACE
 70
     0
 10
0.0
 20
0.0
 30
0.0
  3
$PAPER_SPACE
  1

  0
ENDBLK
  5
16F
 67
     1
  8
0
  0
BLOCK
  8
0
  2
EAITMERK
 70
     2
 10
0.0
 20
0.0
 30
0.0
  3
EAITMERK
  1

  0
ATTDEF
  5
182
  8
ITEM_HILFE
 10
0.8310912943111077
 20
-26.762904636920432
 30
0.0
 40
2.0
  1

 41
0.8
  7
EAITTSTIL
  3
nicht mehr benutzt
  2
EAITHAUPTMENUE
 70
     1
  0
ATTDEF
  5
183
  8
ITEM_HILFE
 10
0.8310912943111077
 20
-23.762904636920432
 30
0.0
 40
2.0
  1
1
 41
0.8
  7
EAITTSTIL
  3
Massstabfaktor
  2
EAITMASSTABSFAKTOR
 70
     1
  0
ATTDEF
  5
184
  8
ITEM_HILFE
 10
0.8310912943111077
 20
-20.762904636920432
 30
0.0
 40
2.0
  1
0
 41
0.8
  7
EAITTSTIL
  3
Letzte Position
  2
EAITLETZTE-POSITION
 70
     1
  0
ATTDEF
  5
185
  8
ITEM_HILFE
 10
0.8310912943111077
 20
-17.762904636920432
 30
0.0
 40
2.0
  1
0
 41
0.8
  7
EAITTSTIL
  3
Bem. Nachkomma
  2
EAITBEM_NACHKOMMA
 70
     1
  0
ATTDEF
  5
186
  8
ITEM_HILFE
 10
0.8310912943111077
 20
-14.76290463692043
 30
0.0
 40
2.0
  1
0
 41
0.8
  7
EAITTSTIL
  3
Pos. neu sort. 0/1
  2
EAITPOSORT
 70
     1
  0
ATTDEF
  5
187
  8
ITEM_HILFE
 10
0.8310912943111077
 20
-11.76290463692043
 30
0.0
 40
2.0
  1
0
 41
0.8
  7
EAITTSTIL
  3
ML3-Stueckliste 0/1
  2
EAITML3
 70
     1
  0
ATTDEF
  5
188
  8
ITEM_HILFE
 10
0.8310912943111077
 20
-8.7629046369204335
 30
0.0
 40
2.0
  1

 41
0.8
  7
EAITTSTIL
  3
Merker-7
  2
EAITMERKER-7
 70
     1
  0
ATTDEF
  5
189
  8
ITEM_HILFE
 10
0.8310912943111077
 20
-5.7629046369204318
 30
0.0
 40
2.0
  1

 41
0.8
  7
EAITTSTIL
  3
Merker-8
  2
EAITMERKER-8
 70
     1
  0
ATTDEF
  5
18A
  8
ITEM_HILFE
 10
0.8310912943111077
 20
-2.7629046369204331
 30
0.0
 40
2.0
  1

 41
0.8
  7
EAITTSTIL
  3
Merker-9
  2
EAITMERKER-9
 70
     1
  0
ENDBLK
  5
18C
  8
0
  0
ENDSEC
  0
SECTION
  2
ENTITIES
  0
INSERT
  5
23F
  8
0
 66
     1
  2
EAITMERK
 10
399.21696054140648
 20
7.0456671178270653
 30
0.0
  0
ATTRIB
  5
240
  8
ITEM_HILFE
 10
400.04805183571762
 20
-19.717237519093359
 30
0.0
 40
2.0
  1

 41
0.8
  7
EAITTSTIL
  2
EAITHAUPTMENUE
 70
     1
  0
ATTRIB
  5
241
  8
ITEM_HILFE
 10
400.04805183571762
 20
-16.717237519093359
 30
0.0
 40
2.0
  1
1
 41
0.8
  7
EAITTSTIL
  2
EAITMASSTABSFAKTOR
 70
     1
  0
ATTRIB
  5
242
  8
ITEM_HILFE
 10
400.04805183571762
 20
-13.71723751909337
 30
0.0
 40
2.0
  1
0
 41
0.8
  7
EAITTSTIL
  2
EAITLETZTE-POSITION
 70
     1
  0
ATTRIB
  5
243
  8
ITEM_HILFE
 10
400.04805183571762
 20
-10.717237519093359
 30
0.0
 40
2.0
  1
0
 41
0.8
  7
EAITTSTIL
  2
EAITBEM_NACHKOMMA
 70
     1
  0
ATTRIB
  5
244
  8
ITEM_HILFE
 10
400.04805183571762
 20
-7.7172375190933638
 30
0.0
 40
2.0
  1
0
 41
0.8
  7
EAITTSTIL
  2
EAITPOSORT
 70
     1
  0
ATTRIB
  5
245
  8
ITEM_HILFE
 10
400.04805183571762
 20
-4.7172375190933638
 30
0.0
 40
2.0
  1
0
 41
0.8
  7
EAITTSTIL
  2
EAITML3
 70
     1
  0
ATTRIB
  5
246
  8
ITEM_HILFE
 10
400.04805183571762
 20
-1.717237519093368
 30
0.0
 40
2.0
  1

 41
0.8
  7
EAITTSTIL
  2
EAITMERKER-7
 70
     1
  0
ATTRIB
  5
247
  8
ITEM_HILFE
 10
400.04805183571762
 20
1.282762480906632
 30
0.0
 40
2.0
  1

 41
0.8
  7
EAITTSTIL
  2
EAITMERKER-8
 70
     1
  0
ATTRIB
  5
248
  8
ITEM_HILFE
 10
400.04805183571762
 20
4.2827624809066309
 30
0.0
 40
2.0
  1

 41
0.8
  7
EAITTSTIL
  2
EAITMERKER-9
 70
     1
  0
SEQEND
  5
249
  8
0
  0
LINE
  5
24A
  8
1
 10
190.67309384979831
 20
116.61250053609911
 30
0.0
 11
190.67309384979831
 21
152.46880805648891
 31
0.0
  0
LINE
  5
24B
  8
1
 10
170.67309240522641
 20
136.61212111265431
 30
0.0
 11
206.073486122389
 21
136.61212111265431
 31
0.0
  0
LINE
  5
24C
  8
0
 10
175.67309384979831
 20
89.89229888252143
 30
0.0
 11
175.67309384979831
 21
59.89229888252143
 31
0.0
  0
LINE
  5
24D
  8
0
 10
175.67309384979831
 20
89.89229888252143
 30
0.0
 11
205.67309384979831
 21
89.89229888252143
 31
0.0
  0
LINE
  5
24E
  8
0
 10
175.67309384979831
 20
59.89229888252143
 30
0.0
 11
205.67309384979831
 21
59.89229888252143
 31
0.0
  0
LINE
  5
24F
  8
0
 10
187.67309384979831
 20
89.89229888252143
 30
0.0
 11
187.67309384979831
 21
59.89229888252143
 31
0.0
  0
LINE
  5
250
  8
0
 10
193.67309384979831
 20
89.89229888252143
 30
0.0
 11
193.67309384979831
 21
59.89229888252143
 31
0.0
  0
LINE
  5
251
  8
0
 10
205.67309384979831
 20
89.89229888252143
 30
0.0
 11
205.67309384979831
 21
59.89229888252143
 31
0.0
  0
LINE
  5
252
  8
0
 10
239.2910937529237
 20
121.6125005360993
 30
0.0
 11
269.29109375292359
 21
121.6125005360993
 31
0.0
  0
LINE
  5
253
  8
0
 10
239.2910937529237
 20
121.6125005360993
 30
0.0
 11
239.2910937529237
 21
151.6125005360993
 31
0.0
  0
LINE
  5
254
  8
0
 10
269.29109375292359
 20
121.6125005360993
 30
0.0
 11
269.29109375292359
 21
151.6125005360993
 31
0.0
  0
LINE
  5
255
  8
0
 10
239.2910937529237
 20
151.6125005360993
 30
0.0
 11
269.29109375292359
 21
151.6125005360993
 31
0.0
  0
LINE
  5
256
  8
0
 10
239.2910937529237
 20
130.6125005360993
 30
0.0
 11
269.29109375292359
 21
130.6125005360993
 31
0.0
  0
CIRCLE
  5
257
  8
0
 10
190.6727129817811
 20
136.61212111265411
 30
0.0
 40
2.5
  0
CIRCLE
  5
25F
  8
0
 10
190.67309384979831
 20
74.89229888252143
 30
0.0
 40
2.75
  0
LINE
  5
261
  8
1
 10
190.67309384979831
 20
54.89229888252143
 30
0.0
 11
190.67309384979831
 21
94.89229888252143
 31
0.0
  0
LINE
  5
262
  8
1
 10
170.67309384979819
 20
74.89229888252143
 30
0.0
 11
210.67309384979831
 21
74.89229888252143
 31
0.0
  0
LINE
  5
263
  8
1
 10
173.01605097049239
 20
118.95545765679159
 30
0.0
 11
198.60124760998821
 21
144.5406542963041
 31
0.0
  0
CIRCLE
  5
269
  8
0
 10
254.29109375292359
 20
136.61212111265431
 30
0.0
 40
2.75
  0
CIRCLE
  5
26A
  8
0
 10
254.29109375292359
 20
145.39774024462579
 30
0.0
 40
2.749999999998209
  0
POLYLINE
  5
26C
  8
0
 10
243.39109375292358
 20
141.00512039037031
 30
0.0
 66
     1
 70
     8
  0
VERTEX
  8
0
  5
4A4
 10
243.391
 20
141.005
 30
0.000000
  70
    32
  0
VERTEX
  8
0
  5
4A5
 10
243.394
 20
140.922
 30
0.000000
  70
    32
  0
VERTEX
  8
0
  5
4A6
 10
243.403
 20
140.839
 30
0.000000
  70
    32
  0
VERTEX
  8
0
  5
4A7
 10
243.417
 20
140.756
 30
0.000000
  70
    32
  0
VERTEX
  8
0
  5
4A8
 10
243.437
 20
140.674
 30
0.000000
  70
    32
  0
VERTEX
  8
0
  5
4A9
 10
243.463
 20
140.593
 30
0.000000
  70
    32
  0
VERTEX
  8
0
  5
4AA
 10
243.494
 20
140.512
 30
0.000000
  70
    32
  0
VERTEX
  8
0
  5
4AB
 10
243.531
 20
140.433
 30
0.000000
  70
    32
  0
VERTEX
  8
0
  5
4AC
 10
243.574
 20
140.356
 30
0.000000
  70
    32
  0
VERTEX
  8
0
  5
4AD
 10
243.622
 20
140.280
 30
0.000000
  70
    32
  0
VERTEX
  8
0
  5
4AE
 10
243.674
 20
140.205
 30
0.000000
  70
    32
  0
VERTEX
  8
0
  5
4AF
 10
243.733
 20
140.133
 30
0.000000
  70
    32
  0
VERTEX
  8
0
  5
4B0
 10
243.796
 20
140.062
 30
0.000000
  70
    32
  0
VERTEX
  8
0
  5
4B1
 10
243.863
 20
139.994
 30
0.000000
  70
    32
  0
VERTEX
  8
0
  5
4B2
 10
243.936
 20
139.929
 30
0.000000
  70
    32
  0
VERTEX
  8
0
  5
4B3
 10
244.013
 20
139.865
 30
0.000000
  70
    32
  0
VERTEX
  8
0
  5
4B4
 10
244.094
 20
139.805
 30
0.000000
  70
    32
  0
VERTEX
  8
0
  5
4B5
 10
244.179
 20
139.748
 30
0.000000
  70
    32
  0
VERTEX
  8
0
  5
4B6
 10
244.269
 20
139.693
 30
0.000000
  70
    32
  0
VERTEX
  8
0
  5
4B7
 10
244.361
 20
139.642
 30
0.000000
  70
    32
  0
VERTEX
  8
0
  5
4B8
 10
244.458
 20
139.594
 30
0.000000
  70
    32
  0
VERTEX
  8
0
  5
4B9
 10
244.557
 20
139.550
 30
0.000000
  70
    32
  0
VERTEX
  8
0
  5
4BA
 10
244.660
 20
139.508
 30
0.000000
  70
    32
  0
VERTEX
  8
0
  5
4BB
 10
244.765
 20
139.471
 30
0.000000
  70
    32
  0
VERTEX
  8
0
  5
4BC
 10
244.873
 20
139.437
 30
0.000000
  70
    32
  0
VERTEX
  8
0
  5
4BD
 10
244.983
 20
139.407
 30
0.000000
  70
    32
  0
VERTEX
  8
0
  5
4BE
 10
245.094
 20
139.381
 30
0.000000
  70
    32
  0
VERTEX
  8
0
  5
4BF
 10
245.208
 20
139.359
 30
0.000000
  70
    32
  0
VERTEX
  8
0
  5
4C0
 10
245.323
 20
139.341
 30
0.000000
  70
    32
  0
VERTEX
  8
0
  5
4C1
 10
245.439
 20
139.326
 30
0.000000
  70
    32
  0
VERTEX
  8
0
  5
4C2
 10
245.556
 20
139.316
 30
0.000000
  70
    32
  0
VERTEX
  8
0
  5
4C3
 10
245.673
 20
139.310
 30
0.000000
  70
    32
  0
VERTEX
  8
0
  5
4C4
 10
245.791
 20
139.308
 30
0.000000
  70
    32
  0
VERTEX
  8
0
  5
4C5
 10
245.909
 20
139.310
 30
0.000000
  70
    32
  0
VERTEX
  8
0
  5
4C6
 10
246.026
 20
139.316
 30
0.000000
  70
    32
  0
VERTEX
  8
0
  5
4C7
 10
246.143
 20
139.326
 30
0.000000
  70
    32
  0
VERTEX
  8
0
  5
4C8
 10
246.259
 20
139.341
 30
0.000000
  70
    32
  0
VERTEX
  8
0
  5
4C9
 10
246.374
 20
139.359
 30
0.000000
  70
    32
  0
VERTEX
  8
0
  5
4CA
 10
246.488
 20
139.381
 30
0.000000
  70
    32
  0
VERTEX
  8
0
  5
4CB
 10
246.600
 20
139.407
 30
0.000000
  70
    32
  0
VERTEX
  8
0
  5
4CC
 10
246.710
 20
139.437
 30
0.000000
  70
    32
  0
VERTEX
  8
0
  5
4CD
 10
246.817
 20
139.471
 30
0.000000
  70
    32
  0
VERTEX
  8
0
  5
4CE
 10
246.922
 20
139.508
 30
0.000000
  70
    32
  0
VERTEX
  8
0
  5
4CF
 10
247.025
 20
139.550
 30
0.000000
  70
    32
  0
VERTEX
  8
0
  5
4D0
 10
247.124
 20
139.594
 30
0.000000
  70
    32
  0
VERTEX
  8
0
  5
4D1
 10
247.221
 20
139.642
 30
0.000000
  70
    32
  0
VERTEX
  8
0
  5
4D2
 10
247.314
 20
139.693
 30
0.000000
  70
    32
  0
VERTEX
  8
0
  5
4D3
 10
247.403
 20
139.748
 30
0.000000
  70
    32
  0
VERTEX
  8
0
  5
4D4
 10
247.488
 20
139.805
 30
0.000000
  70
    32
  0
VERTEX
  8
0
  5
4D5
 10
247.569
 20
139.865
 30
0.000000
  70
    32
  0
VERTEX
  8
0
  5
4D6
 10
247.646
 20
139.929
 30
0.000000
  70
    32
  0
VERTEX
  8
0
  5
4D7
 10
247.719
 20
139.994
 30
0.000000
  70
    32
  0
VERTEX
  8
0
  5
4D8
 10
247.787
 20
140.062
 30
0.000000
  70
    32
  0
VERTEX
  8
0
  5
4D9
 10
247.850
 20
140.133
 30
0.000000
  70
    32
  0
VERTEX
  8
0
  5
4DA
 10
247.908
 20
140.205
 30
0.000000
  70
    32
  0
VERTEX
  8
0
  5
4DB
 10
247.961
 20
140.280
 30
0.000000
  70
    32
  0
VERTEX
  8
0
  5
4DC
 10
248.008
 20
140.356
 30
0.000000
  70
    32
  0
VERTEX
  8
0
  5
4DD
 10
248.051
 20
140.433
 30
0.000000
  70
    32
  0
VERTEX
  8
0
  5
4DE
 10
248.088
 20
140.512
 30
0.000000
  70
    32
  0
VERTEX
  8
0
  5
4DF
 10
248.119
 20
140.593
 30
0.000000
  70
    32
  0
VERTEX
  8
0
  5
4E0
 10
248.145
 20
140.674
 30
0.000000
  70
    32
  0
VERTEX
  8
0
  5
4E1
 10
248.165
 20
140.756
 30
0.000000
  70
    32
  0
VERTEX
  8
0
  5
4E2
 10
248.180
 20
140.839
 30
0.000000
  70
    32
  0
VERTEX
  8
0
  5
4E3
 10
248.188
 20
140.922
 30
0.000000
  70
    32
  0
VERTEX
  8
0
  5
4E4
 10
248.191
 20
141.005
 30
0.000000
  70
    32
  0
VERTEX
  8
0
  5
4E5
 10
248.188
 20
141.088
 30
0.000000
  70
    32
  0
VERTEX
  8
0
  5
4E6
 10
248.180
 20
141.171
 30
0.000000
  70
    32
  0
VERTEX
  8
0
  5
4E7
 10
248.165
 20
141.254
 30
0.000000
  70
    32
  0
VERTEX
  8
0
  5
4E8
 10
248.145
 20
141.336
 30
0.000000
  70
    32
  0
VERTEX
  8
0
  5
4E9
 10
248.119
 20
141.417
 30
0.000000
  70
    32
  0
VERTEX
  8
0
  5
4EA
 10
248.088
 20
141.498
 30
0.000000
  70
    32
  0
VERTEX
  8
0
  5
4EB
 10
248.051
 20
141.577
 30
0.000000
  70
    32
  0
VERTEX
  8
0
  5
4EC
 10
248.008
 20
141.655
 30
0.000000
  70
    32
  0
VERTEX
  8
0
  5
4ED
 10
247.961
 20
141.731
 30
0.000000
  70
    32
  0
VERTEX
  8
0
  5
4EE
 10
247.908
 20
141.805
 30
0.000000
  70
    32
  0
VERTEX
  8
0
  5
4EF
 10
247.850
 20
141.878
 30
0.000000
  70
    32
  0
VERTEX
  8
0
  5
4F0
 10
247.787
 20
141.948
 30
0.000000
  70
    32
  0
VERTEX
  8
0
  5
4F1
 10
247.719
 20
142.016
 30
0.000000
  70
    32
  0
VERTEX
  8
0
  5
4F2
 10
247.646
 20
142.082
 30
0.000000
  70
    32
  0
VERTEX
  8
0
  5
4F3
 10
247.569
 20
142.145
 30
0.000000
  70
    32
  0
VERTEX
  8
0
  5
4F4
 10
247.488
 20
142.205
 30
0.000000
  70
    32
  0
VERTEX
  8
0
  5
4F5
 10
247.403
 20
142.263
 30
0.000000
  70
    32
  0
VERTEX
  8
0
  5
4F6
 10
247.314
 20
142.317
 30
0.000000
  70
    32
  0
VERTEX
  8
0
  5
4F7
 10
247.221
 20
142.368
 30
0.000000
  70
    32
  0
VERTEX
  8
0
  5
4F8
 10
247.124
 20
142.416
 30
0.000000
  70
    32
  0
VERTEX
  8
0
  5
4F9
 10
247.025
 20
142.461
 30
0.000000
  70
    32
  0
VERTEX
  8
0
  5
4FA
 10
246.922
 20
142.502
 30
0.000000
  70
    32
  0
VERTEX
  8
0
  5
4FB
 10
246.817
 20
142.539
 30
0.000000
  70
    32
  0
VERTEX
  8
0
  5
4FC
 10
246.710
 20
142.573
 30
0.000000
  70
    32
  0
VERTEX
  8
0
  5
4FD
 10
246.600
 20
142.603
 30
0.000000
  70
    32
  0
VERTEX
  8
0
  5
4FE
 10
246.488
 20
142.629
 30
0.000000
  70
    32
  0
VERTEX
  8
0
  5
4FF
 10
246.374
 20
142.651
 30
0.000000
  70
    32
  0
VERTEX
  8
0
  5
500
 10
246.259
 20
142.670
 30
0.000000
  70
    32
  0
VERTEX
  8
0
  5
501
 10
246.143
 20
142.684
 30
0.000000
  70
    32
  0
VERTEX
  8
0
  5
502
 10
246.026
 20
142.694
 30
0.000000
  70
    32
  0
VERTEX
  8
0
  5
503
 10
245.909
 20
142.700
 30
0.000000
  70
    32
  0
VERTEX
  8
0
  5
504
 10
245.791
 20
142.702
 30
0.000000
  70
    32
  0
VERTEX
  8
0
  5
505
 10
245.673
 20
142.700
 30
0.000000
  70
    32
  0
VERTEX
  8
0
  5
506
 10
245.556
 20
142.694
 30
0.000000
  70
    32
  0
VERTEX
  8
0
  5
507
 10
245.439
 20
142.684
 30
0.000000
  70
    32
  0
VERTEX
  8
0
  5
508
 10
245.323
 20
142.670
 30
0.000000
  70
    32
  0
VERTEX
  8
0
  5
509
 10
245.208
 20
142.651
 30
0.000000
  70
    32
  0
VERTEX
  8
0
  5
50A
 10
245.094
 20
142.629
 30
0.000000
  70
    32
  0
VERTEX
  8
0
  5
50B
 10
244.983
 20
142.603
 30
0.000000
  70
    32
  0
VERTEX
  8
0
  5
50C
 10
244.873
 20
142.573
 30
0.000000
  70
    32
  0
VERTEX
  8
0
  5
50D
 10
244.765
 20
142.539
 30
0.000000
  70
    32
  0
VERTEX
  8
0
  5
50E
 10
244.660
 20
142.502
 30
0.000000
  70
    32
  0
VERTEX
  8
0
  5
50F
 10
244.557
 20
142.461
 30
0.000000
  70
    32
  0
VERTEX
  8
0
  5
510
 10
244.458
 20
142.416
 30
0.000000
  70
    32
  0
VERTEX
  8
0
  5
511
 10
244.361
 20
142.368
 30
0.000000
  70
    32
  0
VERTEX
  8
0
  5
512
 10
244.269
 20
142.317
 30
0.000000
  70
    32
  0
VERTEX
  8
0
  5
513
 10
244.179
 20
142.263
 30
0.000000
  70
    32
  0
VERTEX
  8
0
  5
514
 10
244.094
 20
142.205
 30
0.000000
  70
    32
  0
VERTEX
  8
0
  5
515
 10
244.013
 20
142.145
 30
0.000000
  70
    32
  0
VERTEX
  8
0
  5
516
 10
243.936
 20
142.082
 30
0.000000
  70
    32
  0
VERTEX
  8
0
  5
517
 10
243.863
 20
142.016
 30
0.000000
  70
    32
  0
VERTEX
  8
0
  5
518
 10
243.796
 20
141.948
 30
0.000000
  70
    32
  0
VERTEX
  8
0
  5
519
 10
243.733
 20
141.878
 30
0.000000
  70
    32
  0
VERTEX
  8
0
  5
51A
 10
243.674
 20
141.805
 30
0.000000
  70
    32
  0
VERTEX
  8
0
  5
51B
 10
243.622
 20
141.731
 30
0.000000
  70
    32
  0
VERTEX
  8
0
  5
51C
 10
243.574
 20
141.655
 30
0.000000
  70
    32
  0
VERTEX
  8
0
  5
51D
 10
243.531
 20
141.577
 30
0.000000
  70
    32
  0
VERTEX
  8
0
  5
51E
 10
243.494
 20
141.498
 30
0.000000
  70
    32
  0
VERTEX
  8
0
  5
51F
 10
243.463
 20
141.417
 30
0.000000
  70
    32
  0
VERTEX
  8
0
  5
520
 10
243.437
 20
141.336
 30
0.000000
  70
    32
  0
VERTEX
  8
0
  5
521
 10
243.417
 20
141.254
 30
0.000000
  70
    32
  0
VERTEX
  8
0
  5
522
 10
243.403
 20
141.171
 30
0.000000
  70
    32
  0
VERTEX
  8
0
  5
523
 10
243.394
 20
141.088
 30
0.000000
  70
    32
  0
VERTEX
  8
0
  5
524
 10
243.391
 20
141.005
 30
0.000000
  70
    32
  0
SEQEND
  8
0
  5
525
  0
POLYLINE
  5
26E
  8
0
 10
260.39109375292361
 20
141.00512039037031
 30
0.0
 66
     1
 70
     8
  0
VERTEX
  8
0
  5
526
 10
260.391
 20
141.005
 30
0.000000
  70
    32
  0
VERTEX
  8
0
  5
527
 10
260.394
 20
140.922
 30
0.000000
  70
    32
  0
VERTEX
  8
0
  5
528
 10
260.403
 20
140.839
 30
0.000000
  70
    32
  0
VERTEX
  8
0
  5
529
 10
260.417
 20
140.756
 30
0.000000
  70
    32
  0
VERTEX
  8
0
  5
52A
 10
260.437
 20
140.674
 30
0.000000
  70
    32
  0
VERTEX
  8
0
  5
52B
 10
260.463
 20
140.593
 30
0.000000
  70
    32
  0
VERTEX
  8
0
  5
52C
 10
260.494
 20
140.512
 30
0.000000
  70
    32
  0
VERTEX
  8
0
  5
52D
 10
260.531
 20
140.433
 30
0.000000
  70
    32
  0
VERTEX
  8
0
  5
52E
 10
260.574
 20
140.356
 30
0.000000
  70
    32
  0
VERTEX
  8
0
  5
52F
 10
260.622
 20
140.280
 30
0.000000
  70
    32
  0
VERTEX
  8
0
  5
530
 10
260.674
 20
140.205
 30
0.000000
  70
    32
  0
VERTEX
  8
0
  5
531
 10
260.733
 20
140.133
 30
0.000000
  70
    32
  0
VERTEX
  8
0
  5
532
 10
260.796
 20
140.062
 30
0.000000
  70
    32
  0
VERTEX
  8
0
  5
533
 10
260.863
 20
139.994
 30
0.000000
  70
    32
  0
VERTEX
  8
0
  5
534
 10
260.936
 20
139.929
 30
0.000000
  70
    32
  0
VERTEX
  8
0
  5
535
 10
261.013
 20
139.865
 30
0.000000
  70
    32
  0
VERTEX
  8
0
  5
536
 10
261.094
 20
139.805
 30
0.000000
  70
    32
  0
VERTEX
  8
0
  5
537
 10
261.179
 20
139.748
 30
0.000000
  70
    32
  0
VERTEX
  8
0
  5
538
 10
261.269
 20
139.693
 30
0.000000
  70
    32
  0
VERTEX
  8
0
  5
539
 10
261.361
 20
139.642
 30
0.000000
  70
    32
  0
VERTEX
  8
0
  5
53A
 10
261.458
 20
139.594
 30
0.000000
  70
    32
  0
VERTEX
  8
0
  5
53B
 10
261.557
 20
139.550
 30
0.000000
  70
    32
  0
VERTEX
  8
0
  5
53C
 10
261.660
 20
139.508
 30
0.000000
  70
    32
  0
VERTEX
  8
0
  5
53D
 10
261.765
 20
139.471
 30
0.000000
  70
    32
  0
VERTEX
  8
0
  5
53E
 10
261.873
 20
139.437
 30
0.000000
  70
    32
  0
VERTEX
  8
0
  5
53F
 10
261.983
 20
139.407
 30
0.000000
  70
    32
  0
VERTEX
  8
0
  5
540
 10
262.094
 20
139.381
 30
0.000000
  70
    32
  0
VERTEX
  8
0
  5
541
 10
262.208
 20
139.359
 30
0.000000
  70
    32
  0
VERTEX
  8
0
  5
542
 10
262.323
 20
139.341
 30
0.000000
  70
    32
  0
VERTEX
  8
0
  5
543
 10
262.439
 20
139.326
 30
0.000000
  70
    32
  0
VERTEX
  8
0
  5
544
 10
262.556
 20
139.316
 30
0.000000
  70
    32
  0
VERTEX
  8
0
  5
545
 10
262.673
 20
139.310
 30
0.000000
  70
    32
  0
VERTEX
  8
0
  5
546
 10
262.791
 20
139.308
 30
0.000000
  70
    32
  0
VERTEX
  8
0
  5
547
 10
262.909
 20
139.310
 30
0.000000
  70
    32
  0
VERTEX
  8
0
  5
548
 10
263.026
 20
139.316
 30
0.000000
  70
    32
  0
VERTEX
  8
0
  5
549
 10
263.143
 20
139.326
 30
0.000000
  70
    32
  0
VERTEX
  8
0
  5
54A
 10
263.259
 20
139.341
 30
0.000000
  70
    32
  0
VERTEX
  8
0
  5
54B
 10
263.374
 20
139.359
 30
0.000000
  70
    32
  0
VERTEX
  8
0
  5
54C
 10
263.488
 20
139.381
 30
0.000000
  70
    32
  0
VERTEX
  8
0
  5
54D
 10
263.600
 20
139.407
 30
0.000000
  70
    32
  0
VERTEX
  8
0
  5
54E
 10
263.710
 20
139.437
 30
0.000000
  70
    32
  0
VERTEX
  8
0
  5
54F
 10
263.817
 20
139.471
 30
0.000000
  70
    32
  0
VERTEX
  8
0
  5
550
 10
263.922
 20
139.508
 30
0.000000
  70
    32
  0
VERTEX
  8
0
  5
551
 10
264.025
 20
139.550
 30
0.000000
  70
    32
  0
VERTEX
  8
0
  5
552
 10
264.124
 20
139.594
 30
0.000000
  70
    32
  0
VERTEX
  8
0
  5
553
 10
264.221
 20
139.642
 30
0.000000
  70
    32
  0
VERTEX
  8
0
  5
554
 10
264.314
 20
139.693
 30
0.000000
  70
    32
  0
VERTEX
  8
0
  5
555
 10
264.403
 20
139.748
 30
0.000000
  70
    32
  0
VERTEX
  8
0
  5
556
 10
264.488
 20
139.805
 30
0.000000
  70
    32
  0
VERTEX
  8
0
  5
557
 10
264.569
 20
139.865
 30
0.000000
  70
    32
  0
VERTEX
  8
0
  5
558
 10
264.646
 20
139.929
 30
0.000000
  70
    32
  0
VERTEX
  8
0
  5
559
 10
264.719
 20
139.994
 30
0.000000
  70
    32
  0
VERTEX
  8
0
  5
55A
 10
264.787
 20
140.062
 30
0.000000
  70
    32
  0
VERTEX
  8
0
  5
55B
 10
264.850
 20
140.133
 30
0.000000
  70
    32
  0
VERTEX
  8
0
  5
55C
 10
264.908
 20
140.205
 30
0.000000
  70
    32
  0
VERTEX
  8
0
  5
55D
 10
264.961
 20
140.280
 30
0.000000
  70
    32
  0
VERTEX
  8
0
  5
55E
 10
265.008
 20
140.356
 30
0.000000
  70
    32
  0
VERTEX
  8
0
  5
55F
 10
265.051
 20
140.433
 30
0.000000
  70
    32
  0
VERTEX
  8
0
  5
560
 10
265.088
 20
140.512
 30
0.000000
  70
    32
  0
VERTEX
  8
0
  5
561
 10
265.119
 20
140.593
 30
0.000000
  70
    32
  0
VERTEX
  8
0
  5
562
 10
265.145
 20
140.674
 30
0.000000
  70
    32
  0
VERTEX
  8
0
  5
563
 10
265.165
 20
140.756
 30
0.000000
  70
    32
  0
VERTEX
  8
0
  5
564
 10
265.180
 20
140.839
 30
0.000000
  70
    32
  0
VERTEX
  8
0
  5
565
 10
265.188
 20
140.922
 30
0.000000
  70
    32
  0
VERTEX
  8
0
  5
566
 10
265.191
 20
141.005
 30
0.000000
  70
    32
  0
VERTEX
  8
0
  5
567
 10
265.188
 20
141.088
 30
0.000000
  70
    32
  0
VERTEX
  8
0
  5
568
 10
265.180
 20
141.171
 30
0.000000
  70
    32
  0
VERTEX
  8
0
  5
569
 10
265.165
 20
141.254
 30
0.000000
  70
    32
  0
VERTEX
  8
0
  5
56A
 10
265.145
 20
141.336
 30
0.000000
  70
    32
  0
VERTEX
  8
0
  5
56B
 10
265.119
 20
141.417
 30
0.000000
  70
    32
  0
VERTEX
  8
0
  5
56C
 10
265.088
 20
141.498
 30
0.000000
  70
    32
  0
VERTEX
  8
0
  5
56D
 10
265.051
 20
141.577
 30
0.000000
  70
    32
  0
VERTEX
  8
0
  5
56E
 10
265.008
 20
141.655
 30
0.000000
  70
    32
  0
VERTEX
  8
0
  5
56F
 10
264.961
 20
141.731
 30
0.000000
  70
    32
  0
VERTEX
  8
0
  5
570
 10
264.908
 20
141.805
 30
0.000000
  70
    32
  0
VERTEX
  8
0
  5
571
 10
264.850
 20
141.878
 30
0.000000
  70
    32
  0
VERTEX
  8
0
  5
572
 10
264.787
 20
141.948
 30
0.000000
  70
    32
  0
VERTEX
  8
0
  5
573
 10
264.719
 20
142.016
 30
0.000000
  70
    32
  0
VERTEX
  8
0
  5
574
 10
264.646
 20
142.082
 30
0.000000
  70
    32
  0
VERTEX
  8
0
  5
575
 10
264.569
 20
142.145
 30
0.000000
  70
    32
  0
VERTEX
  8
0
  5
576
 10
264.488
 20
142.205
 30
0.000000
  70
    32
  0
VERTEX
  8
0
  5
577
 10
264.403
 20
142.263
 30
0.000000
  70
    32
  0
VERTEX
  8
0
  5
578
 10
264.314
 20
142.317
 30
0.000000
  70
    32
  0
VERTEX
  8
0
  5
579
 10
264.221
 20
142.368
 30
0.000000
  70
    32
  0
VERTEX
  8
0
  5
57A
 10
264.124
 20
142.416
 30
0.000000
  70
    32
  0
VERTEX
  8
0
  5
57B
 10
264.025
 20
142.461
 30
0.000000
  70
    32
  0
VERTEX
  8
0
  5
57C
 10
263.922
 20
142.502
 30
0.000000
  70
    32
  0
VERTEX
  8
0
  5
57D
 10
263.817
 20
142.539
 30
0.000000
  70
    32
  0
VERTEX
  8
0
  5
57E
 10
263.710
 20
142.573
 30
0.000000
  70
    32
  0
VERTEX
  8
0
  5
57F
 10
263.600
 20
142.603
 30
0.000000
  70
    32
  0
VERTEX
  8
0
  5
580
 10
263.488
 20
142.629
 30
0.000000
  70
    32
  0
VERTEX
  8
0
  5
581
 10
263.374
 20
142.651
 30
0.000000
  70
    32
  0
VERTEX
  8
0
  5
582
 10
263.259
 20
142.670
 30
0.000000
  70
    32
  0
VERTEX
  8
0
  5
583
 10
263.143
 20
142.684
 30
0.000000
  70
    32
  0
VERTEX
  8
0
  5
584
 10
263.026
 20
142.694
 30
0.000000
  70
    32
  0
VERTEX
  8
0
  5
585
 10
262.909
 20
142.700
 30
0.000000
  70
    32
  0
VERTEX
  8
0
  5
586
 10
262.791
 20
142.702
 30
0.000000
  70
    32
  0
VERTEX
  8
0
  5
587
 10
262.673
 20
142.700
 30
0.000000
  70
    32
  0
VERTEX
  8
0
  5
588
 10
262.556
 20
142.694
 30
0.000000
  70
    32
  0
VERTEX
  8
0
  5
589
 10
262.439
 20
142.684
 30
0.000000
  70
    32
  0
VERTEX
  8
0
  5
58A
 10
262.323
 20
142.670
 30
0.000000
  70
    32
  0
VERTEX
  8
0
  5
58B
 10
262.208
 20
142.651
 30
0.000000
  70
    32
  0
VERTEX
  8
0
  5
58C
 10
262.094
 20
142.629
 30
0.000000
  70
    32
  0
VERTEX
  8
0
  5
58D
 10
261.983
 20
142.603
 30
0.000000
  70
    32
  0
VERTEX
  8
0
  5
58E
 10
261.873
 20
142.573
 30
0.000000
  70
    32
  0
VERTEX
  8
0
  5
58F
 10
261.765
 20
142.539
 30
0.000000
  70
    32
  0
VERTEX
  8
0
  5
590
 10
261.660
 20
142.502
 30
0.000000
  70
    32
  0
VERTEX
  8
0
  5
591
 10
261.557
 20
142.461
 30
0.000000
  70
    32
  0
VERTEX
  8
0
  5
592
 10
261.458
 20
142.416
 30
0.000000
  70
    32
  0
VERTEX
  8
0
  5
593
 10
261.361
 20
142.368
 30
0.000000
  70
    32
  0
VERTEX
  8
0
  5
594
 10
261.269
 20
142.317
 30
0.000000
  70
    32
  0
VERTEX
  8
0
  5
595
 10
261.179
 20
142.263
 30
0.000000
  70
    32
  0
VERTEX
  8
0
  5
596
 10
261.094
 20
142.205
 30
0.000000
  70
    32
  0
VERTEX
  8
0
  5
597
 10
261.013
 20
142.145
 30
0.000000
  70
    32
  0
VERTEX
  8
0
  5
598
 10
260.936
 20
142.082
 30
0.000000
  70
    32
  0
VERTEX
  8
0
  5
599
 10
260.863
 20
142.016
 30
0.000000
  70
    32
  0
VERTEX
  8
0
  5
59A
 10
260.796
 20
141.948
 30
0.000000
  70
    32
  0
VERTEX
  8
0
  5
59B
 10
260.733
 20
141.878
 30
0.000000
  70
    32
  0
VERTEX
  8
0
  5
59C
 10
260.674
 20
141.805
 30
0.000000
  70
    32
  0
VERTEX
  8
0
  5
59D
 10
260.622
 20
141.731
 30
0.000000
  70
    32
  0
VERTEX
  8
0
  5
59E
 10
260.574
 20
141.655
 30
0.000000
  70
    32
  0
VERTEX
  8
0
  5
59F
 10
260.531
 20
141.577
 30
0.000000
  70
    32
  0
VERTEX
  8
0
  5
5A0
 10
260.494
 20
141.498
 30
0.000000
  70
    32
  0
VERTEX
  8
0
  5
5A1
 10
260.463
 20
141.417
 30
0.000000
  70
    32
  0
VERTEX
  8
0
  5
5A2
 10
260.437
 20
141.336
 30
0.000000
  70
    32
  0
VERTEX
  8
0
  5
5A3
 10
260.417
 20
141.254
 30
0.000000
  70
    32
  0
VERTEX
  8
0
  5
5A4
 10
260.403
 20
141.171
 30
0.000000
  70
    32
  0
VERTEX
  8
0
  5
5A5
 10
260.394
 20
141.088
 30
0.000000
  70
    32
  0
VERTEX
  8
0
  5
5A6
 10
260.391
 20
141.005
 30
0.000000
  70
    32
  0
SEQEND
  8
0
  5
5A7
  0
LINE
  5
26F
  8
1
 10
254.29109375292359
 20
156.6125005360993
 30
0.0
 11
254.29109375292359
 21
116.6125005360993
 31
0.0
  0
LINE
  5
270
  8
1
 10
234.29109375292359
 20
136.61209249820399
 30
0.0
 11
274.2910937529237
 21
136.61251800073859
 31
0.0
  0
LINE
  5
271
  8
1
 10
241.3959735600319
 20
141.00512039037031
 30
0.0
 11
250.34945312890241
 21
141.00512039037031
 31
0.0
  0
LINE
  5
272
  8
1
 10
258.39597356003202
 20
141.00512039037031
 30
0.0
 11
267.34945312890238
 21
141.00512039037031
 31
0.0
  0
LINE
  5
273
  8
1
 10
245.79109375292359
 20
144.56578083677789
 30
0.0
 11
245.79109375292359
 21
137.95479090255969
 31
0.0
  0
LINE
  5
274
  8
1
 10
262.79109375292359
 20
144.56578083677789
 30
0.0
 11
262.79109375292359
 21
137.95479090255969
 31
0.0
  0
LINE
  5
275
  8
1
 10
250.25424397813899
 20
145.39774024462579
 30
0.0
 11
258.40203893325929
 21
145.39774024462579
 31
0.0
  0
LINE
  5
276
  8
0
 10
187.57271298178119
 20
123.8121211126527
 30
0.0
 11
187.57271298178119
 21
122.61250127339621
 31
0.0
  0
ARC
  5
277
  8
0
 10
186.57271298178119
 20
122.61250127339621
 30
0.0
 40
1.0
 50
269.99999484829038
 51
0.0
  0
LINE
  5
278
  8
0
 10
186.57271289186701
 20
121.6125012733963
 30
0.0
 11
178.7066102353146
 21
121.6125019806713
 31
0.0
  0
ARC
  5
279
  8
0
 10
178.6729044976978
 20
124.61231262857081
 30
0.0
 40
2.9999999999999409
 50
179.35625428582341
 51
270.64374571417551
  0
LINE
  5
27A
  8
0
 10
175.67309384979831
 20
124.6460183661877
 30
0.0
 11
175.67309314252341
 21
132.51212102273971
 31
0.0
  0
ARC
  5
27B
  8
0
 10
176.67309314252341
 20
132.512121112654
 30
0.0
 40
1.0000000000000031
 50
90.0
 51
180.000005151708
  0
LINE
  5
27C
  8
0
 10
176.67309314252341
 20
133.512121112654
 30
0.0
 11
177.87271298177981
 21
133.512121112654
 31
0.0
  0
ARC
  5
27D
  8
0
 10
177.87271298176529
 20
132.71212111267101
 30
0.0
 40
0.7999999999830436
 50
359.99999999895579
 51
89.999999998954536
  0
LINE
  5
27E
  8
0
 10
178.6727129817483
 20
132.7121211126564
 30
0.0
 11
178.67271298174819
 21
131.3121211126564
 31
0.0
  0
ARC
  5
27F
  8
0
 10
178.37271298174821
 20
131.3121211126564
 30
0.0
 40
0.2999999999999261
 50
270.00000000000648
 51
0.0000000000054451
  0
LINE
  5
280
  8
0
 10
178.37271298174821
 20
131.0121211126565
 30
0.0
 11
177.47271298174809
 21
131.01212111265639
 31
0.0
  0
ARC
  5
281
  8
0
 10
177.47271298174809
 20
130.7121211126564
 30
0.0
 40
0.2999999999999829
 50
90.000000000006509
 51
180.0000000000054
  0
LINE
  5
282
  8
0
 10
177.17271298174819
 20
130.7121211126564
 30
0.0
 11
177.17271298174811
 21
129.46212111262921
 31
0.0
  0
ARC
  5
283
  8
0
 10
178.17271298174811
 20
129.46212111262921
 30
0.0
 40
1.000000000000028
 50
179.99999999999841
 51
269.99999999999682
  0
LINE
  5
284
  8
0
 10
178.17271298174811
 20
128.46212111262909
 30
0.0
 11
179.86585873223379
 21
128.46212111262901
 31
0.0
  0
ARC
  5
285
  8
0
 10
179.8658587322341
 20
131.46212111262901
 30
0.0
 40
3.000000000000028
 50
269.99999999999682
 51
314.99999999999591
  0
LINE
  5
286
  8
0
 10
181.98717907579359
 20
129.3408007690692
 30
0.0
 11
184.54403332530779
 21
131.89765501858329
 31
0.0
  0
ARC
  5
287
  8
0
 10
182.42271298174819
 20
134.0189753621429
 30
0.0
 40
2.9999999999999432
 50
315.00000000000023
 51
359.99999999999841
  0
LINE
  5
288
  8
0
 10
185.42271298174819
 20
134.01897536214281
 30
0.0
 11
185.4227129817485
 21
139.2052668631658
 31
0.0
  0
ARC
  5
289
  8
0
 10
182.42271298174859
 20
139.20526686316609
 30
0.0
 40
2.9999999999999138
 50
359.99999999999352
 51
44.99999999999438
  0
LINE
  5
28A
  8
0
 10
184.54403332530839
 20
141.32658720672541
 30
0.0
 11
181.9871790757943
 21
143.88344145623969
 31
0.0
  0
ARC
  5
28B
  8
0
 10
179.8658587322345
 20
141.76212111268029
 30
0.0
 40
2.9999999999998632
 50
44.999999999995943
 51
89.999999999996746
  0
LINE
  5
28C
  8
0
 10
179.8658587322347
 20
144.76212111268009
 30
0.0
 11
178.1727129817487
 21
144.76212111268021
 31
0.0
  0
ARC
  5
28D
  8
0
 10
178.1727129817489
 20
143.76212111268029
 30
0.0
 40
0.9999999999999715
 50
90.0
 51
180.00000000000159
  0
LINE
  5
28E
  8
0
 10
177.1727129817489
 20
143.76212111268029
 30
0.0
 11
177.17271298174859
 21
142.51212111265301
 31
0.0
  0
ARC
  5
28F
  8
0
 10
177.47271298174871
 20
142.51212111265301
 30
0.0
 40
0.3000000000000966
 50
180.0
 51
270.00000000000648
  0
LINE
  5
290
  8
0
 10
177.47271298174871
 20
142.21212111265291
 30
0.0
 11
178.37271298174849
 21
142.21212111265299
 31
0.0
  0
ARC
  5
291
  8
0
 10
178.37271298174869
 20
141.9121211126529
 30
0.0
 40
0.3000000000000966
 50
0.0000000000162844
 51
90.000000000016286
  0
LINE
  5
292
  8
0
 10
178.6727129817487
 20
141.9121211126529
 30
0.0
 11
178.6727129817798
 21
140.51212111265389
 31
0.0
  0
ARC
  5
293
  8
0
 10
177.87271298177981
 20
140.51212111265389
 30
0.0
 40
0.799999999999983
 50
269.99999999999682
 51
359.99999999999801
  0
LINE
  5
294
  8
0
 10
177.87271298177981
 20
139.7121211126539
 30
0.0
 11
176.67309240522641
 21
139.7121211126539
 31
0.0
  0
ARC
  5
295
  8
0
 10
176.67309240522641
 20
140.7121211126539
 30
0.0
 40
1.0
 50
180.000005151708
 51
270.0
  0
LINE
  5
296
  8
0
 10
175.67309240522641
 20
140.71212102273961
 30
0.0
 11
175.67309169793421
 21
148.5784153750372
 31
0.0
  0
ARC
  5
297
  8
0
 10
178.67290234583379
 20
148.61212111265399
 30
0.0
 40
2.9999999999999689
 50
90.0
 51
180.64374571417551
  0
LINE
  5
298
  8
0
 10
178.67290234583379
 20
151.61212111265399
 30
0.0
 11
183.21607229464729
 21
151.61212111265411
 31
0.0
  0
ARC
  5
299
  8
0
 10
183.2160722946472
 20
148.61212111265411
 30
0.0
 40
2.9999999999999711
 50
45.000000000014168
 51
89.999999999996746
  0
LINE
  5
29A
  8
0
 10
185.3373926382063
 20
150.73344145621431
 30
0.0
 11
204.7940333253452
 21
131.276800769088
 31
0.0
  0
ARC
  5
29B
  8
0
 10
202.67271298178611
 20
129.15548042552791
 30
0.0
 40
2.9999999999999432
 50
0.0000000000336375
 51
45.00000000001436
  0
LINE
  5
29C
  8
0
 10
205.67271298178619
 20
129.15548042552959
 30
0.0
 11
205.67271298178909
 21
124.6123104767083
 31
0.0
  0
ARC
  5
29D
  8
0
 10
202.67271298178909
 20
124.6123104767064
 30
0.0
 40
3.0
 50
269.35625428582449
 51
0.0000000000368944
  0
LINE
  5
29E
  8
0
 10
202.63900724417221
 20
121.6124998288068
 30
0.0
 11
194.772712891867
 21
121.61250053609911
 31
0.0
  0
ARC
  5
29F
  8
0
 10
194.7727129817813
 20
122.61250053609911
 30
0.0
 40
1.0000000000000031
 50
180.0
 51
269.99999484829038
  0
LINE
  5
2A0
  8
0
 10
193.7727129817813
 20
122.61250053609911
 30
0.0
 11
193.7727129817813
 21
123.8121211126527
 31
0.0
  0
ARC
  5
2A1
  8
0
 10
194.57271298178119
 20
123.8121211126527
 30
0.0
 40
0.799999999999983
 50
90.000000000003254
 51
180.00000000000199
  0
LINE
  5
2A2
  8
0
 10
194.57271298178119
 20
124.6121211126527
 30
0.0
 11
195.9727129817779
 21
124.6121211126196
 31
0.0
  0
ARC
  5
2A3
  8
0
 10
195.9727129817779
 20
124.31212111261949
 30
0.0
 40
0.3000000000000398
 50
359.99999999999449
 51
89.999999999993491
  0
LINE
  5
2A4
  8
0
 10
196.27271298177789
 20
124.31212111261949
 30
0.0
 11
196.27271298177789
 21
123.4121211126195
 31
0.0
  0
ARC
  5
2A5
  8
0
 10
196.57271298177781
 20
123.4121211126195
 30
0.0
 40
0.3000000000000114
 50
180.0000000000054
 51
270.00000000000978
  0
LINE
  5
2A6
  8
0
 10
196.5727129817779
 20
123.1121211126195
 30
0.0
 11
197.82271298180521
 21
123.1121211126195
 31
0.0
  0
ARC
  5
2A7
  8
0
 10
197.82271298180521
 20
124.1121211126196
 30
0.0
 40
1.0
 50
270.0
 51
0.0
  0
LINE
  5
2A8
  8
0
 10
198.82271298180521
 20
124.1121211126196
 30
0.0
 11
198.82271298180521
 21
125.8052668631054
 31
0.0
  0
ARC
  5
2A9
  8
0
 10
195.82271298180521
 20
125.8052668631055
 30
0.0
 40
2.9999999999999711
 50
359.99999999999937
 51
44.999999999999559
  0
LINE
  5
2AA
  8
0
 10
197.9440333253649
 20
127.9265872066651
 30
0.0
 11
195.38717907585081
 21
130.48344145617921
 31
0.0
  0
ARC
  5
2AB
  8
0
 10
193.26585873229109
 20
128.3621211126196
 30
0.0
 40
2.999999999999984
 50
44.99999999999978
 51
90.0
  0
LINE
  5
2AC
  8
0
 10
193.26585873229109
 20
131.3621211126196
 30
0.0
 11
188.0795672312681
 21
131.36212111261929
 31
0.0
  0
ARC
  5
2AD
  8
0
 10
188.0795672312679
 20
128.36212111261941
 30
0.0
 40
2.9999999999999138
 50
89.999999999996746
 51
134.9999999999952
  0
LINE
  5
2AE
  8
0
 10
185.95824688770861
 20
130.48344145617921
 30
0.0
 11
183.40139263819441
 21
127.926587206665
 31
0.0
  0
ARC
  5
2AF
  8
0
 10
185.52271298175401
 20
125.8052668631054
 30
0.0
 40
2.9999999999999032
 50
135.0000000000002
 51
180.0
  0
LINE
  5
2B0
  8
0
 10
182.5227129817541
 20
125.8052668631054
 30
0.0
 11
182.5227129817541
 21
124.1121211126196
 31
0.0
  0
ARC
  5
2B1
  8
0
 10
183.5227129817541
 20
124.1121211126196
 30
0.0
 40
1.0
 50
180.0
 51
270.0
  0
LINE
  5
2B2
  8
0
 10
183.5227129817541
 20
123.1121211126195
 30
0.0
 11
184.77271298178141
 21
123.1121211126195
 31
0.0
  0
ARC
  5
2B3
  8
0
 10
184.77271298178141
 20
123.4121211126195
 30
0.0
 40
0.2999999999999829
 50
269.99999999999352
 51
359.99999999999449
  0
LINE
  5
2B4
  8
0
 10
185.07271298178139
 20
123.4121211126195
 30
0.0
 11
185.07271298178139
 21
124.31212111261949
 31
0.0
  0
ARC
  5
2B5
  8
0
 10
185.3727129817814
 20
124.31212111261949
 30
0.0
 40
0.2999999999999829
 50
90.000000000006509
 51
180.0000000000054
  0
LINE
  5
2B6
  8
0
 10
185.3727129817814
 20
124.6121211126195
 30
0.0
 11
186.77271298178141
 21
124.6121211126196
 31
0.0
  0
ARC
  5
2B7
  8
0
 10
186.77271298179789
 20
123.81212111263621
 30
0.0
 40
0.7999999999833563
 50
0.0000000011806219
 51
90.000000001178975
  0
ARC
  5
2B8
  8
0
 10
198.92271298174839
 20
134.00355066027441
 30
0.0
 40
3.0000000000000551
 50
179.99999999999889
 51
224.9185807213203
  0
LINE
  5
2B9
  8
0
 10
195.92271298174839
 20
134.00355066027441
 30
0.0
 11
195.9227129817487
 21
136.1125872067019
 31
0.0
  0
ARC
  5
2BA
  8
0
 10
196.4227129817487
 20
136.11258720670179
 30
0.0
 40
0.5
 50
45.00000000021511
 51
179.99999999998701
  0
LINE
  5
2BB
  8
0
 10
196.7762663723407
 20
136.4661405972964
 30
0.0
 11
203.9267324664429
 21
129.3156745032486
 31
0.0
  0
ARC
  5
2BC
  8
0
 10
203.5731790758509
 20
128.96212111265399
 30
0.0
 40
0.499999999999984
 50
270.00000000012051
 51
45.00000000021511
  0
LINE
  5
2BD
  8
0
 10
203.5731790758521
 20
128.46212111265399
 30
0.0
 11
201.4569298559131
 21
128.46212111264941
 31
0.0
  0
ARC
  5
2BE
  8
0
 10
201.45692985590671
 20
131.46212111264941
 30
0.0
 40
3.000000000000028
 50
224.9185807213218
 51
270.00000000012369
  0
LINE
  5
2BF
  8
0
 10
199.3325971858263
 20
129.34381737927461
 30
0.0
 11
196.7983803116681
 21
131.88524692689961
 31
0.0
  0
LINE
  5
2C0
  8
0
 10
178.6727129817541
 20
123.1121211126524
 30
0.0
 11
180.722712981754
 21
123.1121211126524
 31
0.0
  0
ARC
  5
2C1
  8
0
 10
180.722712981754
 20
123.4121211126524
 30
0.0
 40
0.3000000000000114
 50
269.99999999999352
 51
359.99999999999449
  0
LINE
  5
2C2
  8
0
 10
181.0227129817541
 20
123.4121211126524
 30
0.0
 11
181.02271298175421
 21
126.6621211126477
 31
0.0
  0
ARC
  5
2C3
  8
0
 10
180.72271298175411
 20
126.6621211126477
 30
0.0
 40
0.3000000000000114
 50
0.0
 51
89.999999999869729
  0
LINE
  5
2C4
  8
0
 10
180.7227129817548
 20
126.96212111264769
 30
0.0
 11
177.47271298175471
 21
126.9621211126551
 31
0.0
  0
ARC
  5
2C5
  8
0
 10
177.472712981754
 20
126.6621211126551
 30
0.0
 40
0.2999999999999261
 50
89.999999999876238
 51
180.0000000000054
  0
LINE
  5
2C6
  8
0
 10
177.1727129817541
 20
126.6621211126551
 30
0.0
 11
177.1727129817541
 21
124.6121211126524
 31
0.0
  0
ARC
  5
2C7
  8
0
 10
178.6727129817541
 20
124.6121211126524
 30
0.0
 40
1.500000000000028
 50
180.00000000000111
 51
270.0
  0
ARC
  5
2C8
  8
0
 10
202.6727129817892
 20
124.6121211126523
 30
0.0
 40
1.5
 50
270.0
 51
0.0
  0
LINE
  5
2C9
  8
0
 10
204.1727129817892
 20
124.6121211126523
 30
0.0
 11
204.17271298178909
 21
126.6621211126548
 31
0.0
  0
ARC
  5
2CA
  8
0
 10
203.87271298178919
 20
126.6621211126547
 30
0.0
 40
0.2999999999999829
 50
0.0000000000054451
 51
90.000000000136794
  0
LINE
  5
2CB
  8
0
 10
203.87271298178851
 20
126.9621211126547
 30
0.0
 11
200.6227129818044
 21
126.96212111264769
 31
0.0
  0
ARC
  5
2CC
  8
0
 10
200.62271298180511
 20
126.6621211126476
 30
0.0
 40
0.3000000000000966
 50
90.000000000123748
 51
179.99999999999449
  0
LINE
  5
2CD
  8
0
 10
200.3227129818049
 20
126.6621211126476
 30
0.0
 11
200.32271298180501
 21
123.4121211126522
 31
0.0
  0
ARC
  5
2CE
  8
0
 10
200.62271298180511
 20
123.4121211126523
 30
0.0
 40
0.3000000000000398
 50
180.0000000000054
 51
270.00000000000648
  0
LINE
  5
2CF
  8
0
 10
200.62271298180511
 20
123.1121211126523
 30
0.0
 11
202.6727129817892
 21
123.1121211126523
 31
0.0
  0
LINE
  5
2D0
  8
0
 10
188.06414252940141
 20
141.86212111262131
 30
0.0
 11
190.1731790758291
 21
141.86212111262159
 31
0.0
  0
ARC
  5
2D1
  8
0
 10
190.17317907582901
 20
142.36212111262159
 30
0.0
 40
0.5000000000000285
 50
270.00000000000978
 51
44.999999999786759
  0
LINE
  5
2D2
  8
0
 10
190.5267324664236
 20
142.71567450321359
 30
0.0
 11
183.3762663723756
 21
149.8661405973159
 31
0.0
  0
ARC
  5
2D3
  8
0
 10
183.02271298178101
 20
149.51258720672391
 30
0.0
 40
0.499999999999984
 50
44.999999999786759
 51
179.9999999998762
  0
LINE
  5
2D4
  8
0
 10
182.52271298178101
 20
149.51258720672499
 30
0.0
 11
182.52271298177641
 21
147.39633798678599
 31
0.0
  0
ARC
  5
2D5
  8
0
 10
185.52271298177649
 20
147.39633798677951
 30
0.0
 40
3.0000000000000848
 50
179.99999999987671
 51
225.08141927867879
  0
LINE
  5
2D6
  8
0
 10
183.40440924840161
 20
145.27200531669919
 30
0.0
 11
185.94583879602661
 21
142.73778844254079
 31
0.0
  0
ARC
  5
2D7
  8
0
 10
188.06414252940129
 20
144.86212111262131
 30
0.0
 40
3.0000000000000151
 50
225.08141927868331
 51
270.0000000000033
  0
ARC
  5
2D8
  8
0
 10
177.4727129817793
 20
146.5621211126778
 30
0.0
 40
0.2999999999999545
 50
179.99999999999449
 51
269.99999999999352
  0
LINE
  5
2D9
  8
0
 10
177.17271298177931
 20
146.5621211126778
 30
0.0
 11
177.17271298177931
 21
148.61212111266209
 31
0.0
  0
ARC
  5
2DA
  8
0
 10
178.67271298177931
 20
148.61212111266209
 30
0.0
 40
1.5
 50
90.0
 51
180.0
  0
LINE
  5
2DB
  8
0
 10
178.67271298177931
 20
150.11212111266209
 30
0.0
 11
180.7227129817818
 21
150.11212111266201
 31
0.0
  0
ARC
  5
2DC
  8
0
 10
180.7227129817818
 20
149.812121112662
 30
0.0
 40
0.2999999999999829
 50
359.99999999988057
 51
90.000000000006509
  0
LINE
  5
2DD
  8
0
 10
181.02271298178169
 20
149.8121211126614
 30
0.0
 11
181.0227129817747
 21
146.5621211126772
 31
0.0
  0
ARC
  5
2DE
  8
0
 10
180.72271298177461
 20
146.56212111267789
 30
0.0
 40
0.3000000000000682
 50
270.0
 51
359.99999999987517
  0
LINE
  5
2DF
  8
0
 10
180.72271298177461
 20
146.26212111267779
 30
0.0
 11
177.4727129817793
 21
146.26212111267779
 31
0.0
  0
POLYLINE
  5
2E1
  8
3
 10
242.79109375292359
 20
141.00512039037031
 30
0.0
 66
     1
 70
     8
  0
VERTEX
  8
3
  5
5A8
 10
242.791
 20
141.005
 30
0.000000
  70
    32
  0
VERTEX
  8
3
  5
5A9
 10
242.795
 20
140.901
 30
0.000000
  70
    32
  0
VERTEX
  8
3
  5
5AA
 10
242.806
 20
140.797
 30
0.000000
  70
    32
  0
VERTEX
  8
3
  5
5AB
 10
242.824
 20
140.694
 30
0.000000
  70
    32
  0
VERTEX
  8
3
  5
5AC
 10
242.849
 20
140.591
 30
0.000000
  70
    32
  0
VERTEX
  8
3
  5
5AD
 10
242.881
 20
140.490
 30
0.000000
  70
    32
  0
VERTEX
  8
3
  5
5AE
 10
242.920
 20
140.389
 30
0.000000
  70
    32
  0
VERTEX
  8
3
  5
5AF
 10
242.966
 20
140.290
 30
0.000000
  70
    32
  0
VERTEX
  8
3
  5
5B0
 10
243.019
 20
140.193
 30
0.000000
  70
    32
  0
VERTEX
  8
3
  5
5B1
 10
243.079
 20
140.098
 30
0.000000
  70
    32
  0
VERTEX
  8
3
  5
5B2
 10
243.145
 20
140.005
 30
0.000000
  70
    32
  0
VERTEX
  8
3
  5
5B3
 10
243.218
 20
139.915
 30
0.000000
  70
    32
  0
VERTEX
  8
3
  5
5B4
 10
243.297
 20
139.827
 30
0.000000
  70
    32
  0
VERTEX
  8
3
  5
5B5
 10
243.381
 20
139.741
 30
0.000000
  70
    32
  0
VERTEX
  8
3
  5
5B6
 10
243.472
 20
139.659
 30
0.000000
  70
    32
  0
VERTEX
  8
3
  5
5B7
 10
243.568
 20
139.581
 30
0.000000
  70
    32
  0
VERTEX
  8
3
  5
5B8
 10
243.670
 20
139.505
 30
0.000000
  70
    32
  0
VERTEX
  8
3
  5
5B9
 10
243.776
 20
139.433
 30
0.000000
  70
    32
  0
VERTEX
  8
3
  5
5BA
 10
243.888
 20
139.365
 30
0.000000
  70
    32
  0
VERTEX
  8
3
  5
5BB
 10
244.004
 20
139.301
 30
0.000000
  70
    32
  0
VERTEX
  8
3
  5
5BC
 10
244.124
 20
139.241
 30
0.000000
  70
    32
  0
VERTEX
  8
3
  5
5BD
 10
244.249
 20
139.186
 30
0.000000
  70
    32
  0
VERTEX
  8
3
  5
5BE
 10
244.377
 20
139.134
 30
0.000000
  70
    32
  0
VERTEX
  8
3
  5
5BF
 10
244.508
 20
139.087
 30
0.000000
  70
    32
  0
VERTEX
  8
3
  5
5C0
 10
244.643
 20
139.045
 30
0.000000
  70
    32
  0
VERTEX
  8
3
  5
5C1
 10
244.780
 20
139.008
 30
0.000000
  70
    32
  0
VERTEX
  8
3
  5
5C2
 10
244.920
 20
138.975
 30
0.000000
  70
    32
  0
VERTEX
  8
3
  5
5C3
 10
245.062
 20
138.947
 30
0.000000
  70
    32
  0
VERTEX
  8
3
  5
5C4
 10
245.206
 20
138.925
 30
0.000000
  70
    32
  0
VERTEX
  8
3
  5
5C5
 10
245.351
 20
138.907
 30
0.000000
  70
    32
  0
VERTEX
  8
3
  5
5C6
 10
245.497
 20
138.894
 30
0.000000
  70
    32
  0
VERTEX
  8
3
  5
5C7
 10
245.644
 20
138.886
 30
0.000000
  70
    32
  0
VERTEX
  8
3
  5
5C8
 10
245.791
 20
138.884
 30
0.000000
  70
    32
  0
VERTEX
  8
3
  5
5C9
 10
245.938
 20
138.886
 30
0.000000
  70
    32
  0
VERTEX
  8
3
  5
5CA
 10
246.085
 20
138.894
 30
0.000000
  70
    32
  0
VERTEX
  8
3
  5
5CB
 10
246.231
 20
138.907
 30
0.000000
  70
    32
  0
VERTEX
  8
3
  5
5CC
 10
246.376
 20
138.925
 30
0.000000
  70
    32
  0
VERTEX
  8
3
  5
5CD
 10
246.520
 20
138.947
 30
0.000000
  70
    32
  0
VERTEX
  8
3
  5
5CE
 10
246.662
 20
138.975
 30
0.000000
  70
    32
  0
VERTEX
  8
3
  5
5CF
 10
246.802
 20
139.008
 30
0.000000
  70
    32
  0
VERTEX
  8
3
  5
5D0
 10
246.939
 20
139.045
 30
0.000000
  70
    32
  0
VERTEX
  8
3
  5
5D1
 10
247.074
 20
139.087
 30
0.000000
  70
    32
  0
VERTEX
  8
3
  5
5D2
 10
247.205
 20
139.134
 30
0.000000
  70
    32
  0
VERTEX
  8
3
  5
5D3
 10
247.333
 20
139.186
 30
0.000000
  70
    32
  0
VERTEX
  8
3
  5
5D4
 10
247.458
 20
139.241
 30
0.000000
  70
    32
  0
VERTEX
  8
3
  5
5D5
 10
247.578
 20
139.301
 30
0.000000
  70
    32
  0
VERTEX
  8
3
  5
5D6
 10
247.694
 20
139.365
 30
0.000000
  70
    32
  0
VERTEX
  8
3
  5
5D7
 10
247.806
 20
139.433
 30
0.000000
  70
    32
  0
VERTEX
  8
3
  5
5D8
 10
247.912
 20
139.505
 30
0.000000
  70
    32
  0
VERTEX
  8
3
  5
5D9
 10
248.014
 20
139.581
 30
0.000000
  70
    32
  0
VERTEX
  8
3
  5
5DA
 10
248.110
 20
139.659
 30
0.000000
  70
    32
  0
VERTEX
  8
3
  5
5DB
 10
248.201
 20
139.741
 30
0.000000
  70
    32
  0
VERTEX
  8
3
  5
5DC
 10
248.286
 20
139.827
 30
0.000000
  70
    32
  0
VERTEX
  8
3
  5
5DD
 10
248.364
 20
139.915
 30
0.000000
  70
    32
  0
VERTEX
  8
3
  5
5DE
 10
248.437
 20
140.005
 30
0.000000
  70
    32
  0
VERTEX
  8
3
  5
5DF
 10
248.503
 20
140.098
 30
0.000000
  70
    32
  0
VERTEX
  8
3
  5
5E0
 10
248.563
 20
140.193
 30
0.000000
  70
    32
  0
VERTEX
  8
3
  5
5E1
 10
248.616
 20
140.290
 30
0.000000
  70
    32
  0
VERTEX
  8
3
  5
5E2
 10
248.662
 20
140.389
 30
0.000000
  70
    32
  0
VERTEX
  8
3
  5
5E3
 10
248.701
 20
140.490
 30
0.000000
  70
    32
  0
VERTEX
  8
3
  5
5E4
 10
248.733
 20
140.591
 30
0.000000
  70
    32
  0
VERTEX
  8
3
  5
5E5
 10
248.759
 20
140.694
 30
0.000000
  70
    32
  0
VERTEX
  8
3
  5
5E6
 10
248.777
 20
140.797
 30
0.000000
  70
    32
  0
VERTEX
  8
3
  5
5E7
 10
248.787
 20
140.901
 30
0.000000
  70
    32
  0
VERTEX
  8
3
  5
5E8
 10
248.791
 20
141.005
 30
0.000000
  70
    32
  0
VERTEX
  8
3
  5
5E9
 10
248.787
 20
141.109
 30
0.000000
  70
    32
  0
VERTEX
  8
3
  5
5EA
 10
248.777
 20
141.213
 30
0.000000
  70
    32
  0
VERTEX
  8
3
  5
5EB
 10
248.759
 20
141.316
 30
0.000000
  70
    32
  0
VERTEX
  8
3
  5
5EC
 10
248.733
 20
141.419
 30
0.000000
  70
    32
  0
VERTEX
  8
3
  5
5ED
 10
248.701
 20
141.521
 30
0.000000
  70
    32
  0
VERTEX
  8
3
  5
5EE
 10
248.662
 20
141.621
 30
0.000000
  70
    32
  0
VERTEX
  8
3
  5
5EF
 10
248.616
 20
141.720
 30
0.000000
  70
    32
  0
VERTEX
  8
3
  5
5F0
 10
248.563
 20
141.817
 30
0.000000
  70
    32
  0
VERTEX
  8
3
  5
5F1
 10
248.503
 20
141.912
 30
0.000000
  70
    32
  0
VERTEX
  8
3
  5
5F2
 10
248.437
 20
142.005
 30
0.000000
  70
    32
  0
VERTEX
  8
3
  5
5F3
 10
248.364
 20
142.096
 30
0.000000
  70
    32
  0
VERTEX
  8
3
  5
5F4
 10
248.286
 20
142.184
 30
0.000000
  70
    32
  0
VERTEX
  8
3
  5
5F5
 10
248.201
 20
142.269
 30
0.000000
  70
    32
  0
VERTEX
  8
3
  5
5F6
 10
248.110
 20
142.351
 30
0.000000
  70
    32
  0
VERTEX
  8
3
  5
5F7
 10
248.014
 20
142.430
 30
0.000000
  70
    32
  0
VERTEX
  8
3
  5
5F8
 10
247.912
 20
142.505
 30
0.000000
  70
    32
  0
VERTEX
  8
3
  5
5F9
 10
247.806
 20
142.577
 30
0.000000
  70
    32
  0
VERTEX
  8
3
  5
5FA
 10
247.694
 20
142.645
 30
0.000000
  70
    32
  0
VERTEX
  8
3
  5
5FB
 10
247.578
 20
142.709
 30
0.000000
  70
    32
  0
VERTEX
  8
3
  5
5FC
 10
247.458
 20
142.769
 30
0.000000
  70
    32
  0
VERTEX
  8
3
  5
5FD
 10
247.333
 20
142.825
 30
0.000000
  70
    32
  0
VERTEX
  8
3
  5
5FE
 10
247.205
 20
142.876
 30
0.000000
  70
    32
  0
VERTEX
  8
3
  5
5FF
 10
247.074
 20
142.923
 30
0.000000
  70
    32
  0
VERTEX
  8
3
  5
600
 10
246.939
 20
142.965
 30
0.000000
  70
    32
  0
VERTEX
  8
3
  5
601
 10
246.802
 20
143.002
 30
0.000000
  70
    32
  0
VERTEX
  8
3
  5
602
 10
246.662
 20
143.035
 30
0.000000
  70
    32
  0
VERTEX
  8
3
  5
603
 10
246.520
 20
143.063
 30
0.000000
  70
    32
  0
VERTEX
  8
3
  5
604
 10
246.376
 20
143.086
 30
0.000000
  70
    32
  0
VERTEX
  8
3
  5
605
 10
246.231
 20
143.103
 30
0.000000
  70
    32
  0
VERTEX
  8
3
  5
606
 10
246.085
 20
143.116
 30
0.000000
  70
    32
  0
VERTEX
  8
3
  5
607
 10
245.938
 20
143.124
 30
0.000000
  70
    32
  0
VERTEX
  8
3
  5
608
 10
245.791
 20
143.126
 30
0.000000
  70
    32
  0
VERTEX
  8
3
  5
609
 10
245.644
 20
143.124
 30
0.000000
  70
    32
  0
VERTEX
  8
3
  5
60A
 10
245.497
 20
143.116
 30
0.000000
  70
    32
  0
VERTEX
  8
3
  5
60B
 10
245.351
 20
143.103
 30
0.000000
  70
    32
  0
VERTEX
  8
3
  5
60C
 10
245.206
 20
143.086
 30
0.000000
  70
    32
  0
VERTEX
  8
3
  5
60D
 10
245.062
 20
143.063
 30
0.000000
  70
    32
  0
VERTEX
  8
3
  5
60E
 10
244.920
 20
143.035
 30
0.000000
  70
    32
  0
VERTEX
  8
3
  5
60F
 10
244.780
 20
143.002
 30
0.000000
  70
    32
  0
VERTEX
  8
3
  5
610
 10
244.643
 20
142.965
 30
0.000000
  70
    32
  0
VERTEX
  8
3
  5
611
 10
244.508
 20
142.923
 30
0.000000
  70
    32
  0
VERTEX
  8
3
  5
612
 10
244.377
 20
142.876
 30
0.000000
  70
    32
  0
VERTEX
  8
3
  5
613
 10
244.249
 20
142.825
 30
0.000000
  70
    32
  0
VERTEX
  8
3
  5
614
 10
244.124
 20
142.769
 30
0.000000
  70
    32
  0
VERTEX
  8
3
  5
615
 10
244.004
 20
142.709
 30
0.000000
  70
    32
  0
VERTEX
  8
3
  5
616
 10
243.888
 20
142.645
 30
0.000000
  70
    32
  0
VERTEX
  8
3
  5
617
 10
243.776
 20
142.577
 30
0.000000
  70
    32
  0
VERTEX
  8
3
  5
618
 10
243.670
 20
142.505
 30
0.000000
  70
    32
  0
VERTEX
  8
3
  5
619
 10
243.568
 20
142.430
 30
0.000000
  70
    32
  0
VERTEX
  8
3
  5
61A
 10
243.472
 20
142.351
 30
0.000000
  70
    32
  0
VERTEX
  8
3
  5
61B
 10
243.381
 20
142.269
 30
0.000000
  70
    32
  0
VERTEX
  8
3
  5
61C
 10
243.297
 20
142.184
 30
0.000000
  70
    32
  0
VERTEX
  8
3
  5
61D
 10
243.218
 20
142.096
 30
0.000000
  70
    32
  0
VERTEX
  8
3
  5
61E
 10
243.145
 20
142.005
 30
0.000000
  70
    32
  0
VERTEX
  8
3
  5
61F
 10
243.079
 20
141.912
 30
0.000000
  70
    32
  0
VERTEX
  8
3
  5
620
 10
243.019
 20
141.817
 30
0.000000
  70
    32
  0
VERTEX
  8
3
  5
621
 10
242.966
 20
141.720
 30
0.000000
  70
    32
  0
VERTEX
  8
3
  5
622
 10
242.920
 20
141.621
 30
0.000000
  70
    32
  0
VERTEX
  8
3
  5
623
 10
242.881
 20
141.521
 30
0.000000
  70
    32
  0
VERTEX
  8
3
  5
624
 10
242.849
 20
141.419
 30
0.000000
  70
    32
  0
VERTEX
  8
3
  5
625
 10
242.824
 20
141.316
 30
0.000000
  70
    32
  0
VERTEX
  8
3
  5
626
 10
242.806
 20
141.213
 30
0.000000
  70
    32
  0
VERTEX
  8
3
  5
627
 10
242.795
 20
141.109
 30
0.000000
  70
    32
  0
VERTEX
  8
3
  5
628
 10
242.791
 20
141.005
 30
0.000000
  70
    32
  0
SEQEND
  8
3
  5
629
  0
POLYLINE
  5
2E2
  8
3
 10
259.79109375292359
 20
141.00512039037031
 30
0.0
 66
     1
 70
     8
  0
VERTEX
  8
3
  5
62A
 10
259.791
 20
141.005
 30
0.000000
  70
    32
  0
VERTEX
  8
3
  5
62B
 10
259.795
 20
140.901
 30
0.000000
  70
    32
  0
VERTEX
  8
3
  5
62C
 10
259.806
 20
140.797
 30
0.000000
  70
    32
  0
VERTEX
  8
3
  5
62D
 10
259.824
 20
140.694
 30
0.000000
  70
    32
  0
VERTEX
  8
3
  5
62E
 10
259.849
 20
140.591
 30
0.000000
  70
    32
  0
VERTEX
  8
3
  5
62F
 10
259.881
 20
140.490
 30
0.000000
  70
    32
  0
VERTEX
  8
3
  5
630
 10
259.920
 20
140.389
 30
0.000000
  70
    32
  0
VERTEX
  8
3
  5
631
 10
259.966
 20
140.290
 30
0.000000
  70
    32
  0
VERTEX
  8
3
  5
632
 10
260.019
 20
140.193
 30
0.000000
  70
    32
  0
VERTEX
  8
3
  5
633
 10
260.079
 20
140.098
 30
0.000000
  70
    32
  0
VERTEX
  8
3
  5
634
 10
260.145
 20
140.005
 30
0.000000
  70
    32
  0
VERTEX
  8
3
  5
635
 10
260.218
 20
139.915
 30
0.000000
  70
    32
  0
VERTEX
  8
3
  5
636
 10
260.297
 20
139.827
 30
0.000000
  70
    32
  0
VERTEX
  8
3
  5
637
 10
260.381
 20
139.741
 30
0.000000
  70
    32
  0
VERTEX
  8
3
  5
638
 10
260.472
 20
139.659
 30
0.000000
  70
    32
  0
VERTEX
  8
3
  5
639
 10
260.568
 20
139.581
 30
0.000000
  70
    32
  0
VERTEX
  8
3
  5
63A
 10
260.670
 20
139.505
 30
0.000000
  70
    32
  0
VERTEX
  8
3
  5
63B
 10
260.776
 20
139.433
 30
0.000000
  70
    32
  0
VERTEX
  8
3
  5
63C
 10
260.888
 20
139.365
 30
0.000000
  70
    32
  0
VERTEX
  8
3
  5
63D
 10
261.004
 20
139.301
 30
0.000000
  70
    32
  0
VERTEX
  8
3
  5
63E
 10
261.124
 20
139.241
 30
0.000000
  70
    32
  0
VERTEX
  8
3
  5
63F
 10
261.249
 20
139.186
 30
0.000000
  70
    32
  0
VERTEX
  8
3
  5
640
 10
261.377
 20
139.134
 30
0.000000
  70
    32
  0
VERTEX
  8
3
  5
641
 10
261.508
 20
139.087
 30
0.000000
  70
    32
  0
VERTEX
  8
3
  5
642
 10
261.643
 20
139.045
 30
0.000000
  70
    32
  0
VERTEX
  8
3
  5
643
 10
261.780
 20
139.008
 30
0.000000
  70
    32
  0
VERTEX
  8
3
  5
644
 10
261.920
 20
138.975
 30
0.000000
  70
    32
  0
VERTEX
  8
3
  5
645
 10
262.062
 20
138.947
 30
0.000000
  70
    32
  0
VERTEX
  8
3
  5
646
 10
262.206
 20
138.925
 30
0.000000
  70
    32
  0
VERTEX
  8
3
  5
647
 10
262.351
 20
138.907
 30
0.000000
  70
    32
  0
VERTEX
  8
3
  5
648
 10
262.497
 20
138.894
 30
0.000000
  70
    32
  0
VERTEX
  8
3
  5
649
 10
262.644
 20
138.886
 30
0.000000
  70
    32
  0
VERTEX
  8
3
  5
64A
 10
262.791
 20
138.884
 30
0.000000
  70
    32
  0
VERTEX
  8
3
  5
64B
 10
262.938
 20
138.886
 30
0.000000
  70
    32
  0
VERTEX
  8
3
  5
64C
 10
263.085
 20
138.894
 30
0.000000
  70
    32
  0
VERTEX
  8
3
  5
64D
 10
263.231
 20
138.907
 30
0.000000
  70
    32
  0
VERTEX
  8
3
  5
64E
 10
263.376
 20
138.925
 30
0.000000
  70
    32
  0
VERTEX
  8
3
  5
64F
 10
263.520
 20
138.947
 30
0.000000
  70
    32
  0
VERTEX
  8
3
  5
650
 10
263.662
 20
138.975
 30
0.000000
  70
    32
  0
VERTEX
  8
3
  5
651
 10
263.802
 20
139.008
 30
0.000000
  70
    32
  0
VERTEX
  8
3
  5
652
 10
263.939
 20
139.045
 30
0.000000
  70
    32
  0
VERTEX
  8
3
  5
653
 10
264.074
 20
139.087
 30
0.000000
  70
    32
  0
VERTEX
  8
3
  5
654
 10
264.205
 20
139.134
 30
0.000000
  70
    32
  0
VERTEX
  8
3
  5
655
 10
264.333
 20
139.186
 30
0.000000
  70
    32
  0
VERTEX
  8
3
  5
656
 10
264.458
 20
139.241
 30
0.000000
  70
    32
  0
VERTEX
  8
3
  5
657
 10
264.578
 20
139.301
 30
0.000000
  70
    32
  0
VERTEX
  8
3
  5
658
 10
264.694
 20
139.365
 30
0.000000
  70
    32
  0
VERTEX
  8
3
  5
659
 10
264.806
 20
139.433
 30
0.000000
  70
    32
  0
VERTEX
  8
3
  5
65A
 10
264.912
 20
139.505
 30
0.000000
  70
    32
  0
VERTEX
  8
3
  5
65B
 10
265.014
 20
139.581
 30
0.000000
  70
    32
  0
VERTEX
  8
3
  5
65C
 10
265.110
 20
139.659
 30
0.000000
  70
    32
  0
VERTEX
  8
3
  5
65D
 10
265.201
 20
139.741
 30
0.000000
  70
    32
  0
VERTEX
  8
3
  5
65E
 10
265.286
 20
139.827
 30
0.000000
  70
    32
  0
VERTEX
  8
3
  5
65F
 10
265.364
 20
139.915
 30
0.000000
  70
    32
  0
VERTEX
  8
3
  5
660
 10
265.437
 20
140.005
 30
0.000000
  70
    32
  0
VERTEX
  8
3
  5
661
 10
265.503
 20
140.098
 30
0.000000
  70
    32
  0
VERTEX
  8
3
  5
662
 10
265.563
 20
140.193
 30
0.000000
  70
    32
  0
VERTEX
  8
3
  5
663
 10
265.616
 20
140.290
 30
0.000000
  70
    32
  0
VERTEX
  8
3
  5
664
 10
265.662
 20
140.389
 30
0.000000
  70
    32
  0
VERTEX
  8
3
  5
665
 10
265.701
 20
140.490
 30
0.000000
  70
    32
  0
VERTEX
  8
3
  5
666
 10
265.733
 20
140.591
 30
0.000000
  70
    32
  0
VERTEX
  8
3
  5
667
 10
265.759
 20
140.694
 30
0.000000
  70
    32
  0
VERTEX
  8
3
  5
668
 10
265.777
 20
140.797
 30
0.000000
  70
    32
  0
VERTEX
  8
3
  5
669
 10
265.787
 20
140.901
 30
0.000000
  70
    32
  0
VERTEX
  8
3
  5
66A
 10
265.791
 20
141.005
 30
0.000000
  70
    32
  0
VERTEX
  8
3
  5
66B
 10
265.787
 20
141.109
 30
0.000000
  70
    32
  0
VERTEX
  8
3
  5
66C
 10
265.777
 20
141.213
 30
0.000000
  70
    32
  0
VERTEX
  8
3
  5
66D
 10
265.759
 20
141.316
 30
0.000000
  70
    32
  0
VERTEX
  8
3
  5
66E
 10
265.733
 20
141.419
 30
0.000000
  70
    32
  0
VERTEX
  8
3
  5
66F
 10
265.701
 20
141.521
 30
0.000000
  70
    32
  0
VERTEX
  8
3
  5
670
 10
265.662
 20
141.621
 30
0.000000
  70
    32
  0
VERTEX
  8
3
  5
671
 10
265.616
 20
141.720
 30
0.000000
  70
    32
  0
VERTEX
  8
3
  5
672
 10
265.563
 20
141.817
 30
0.000000
  70
    32
  0
VERTEX
  8
3
  5
673
 10
265.503
 20
141.912
 30
0.000000
  70
    32
  0
VERTEX
  8
3
  5
674
 10
265.437
 20
142.005
 30
0.000000
  70
    32
  0
VERTEX
  8
3
  5
675
 10
265.364
 20
142.096
 30
0.000000
  70
    32
  0
VERTEX
  8
3
  5
676
 10
265.286
 20
142.184
 30
0.000000
  70
    32
  0
VERTEX
  8
3
  5
677
 10
265.201
 20
142.269
 30
0.000000
  70
    32
  0
VERTEX
  8
3
  5
678
 10
265.110
 20
142.351
 30
0.000000
  70
    32
  0
VERTEX
  8
3
  5
679
 10
265.014
 20
142.430
 30
0.000000
  70
    32
  0
VERTEX
  8
3
  5
67A
 10
264.912
 20
142.505
 30
0.000000
  70
    32
  0
VERTEX
  8
3
  5
67B
 10
264.806
 20
142.577
 30
0.000000
  70
    32
  0
VERTEX
  8
3
  5
67C
 10
264.694
 20
142.645
 30
0.000000
  70
    32
  0
VERTEX
  8
3
  5
67D
 10
264.578
 20
142.709
 30
0.000000
  70
    32
  0
VERTEX
  8
3
  5
67E
 10
264.458
 20
142.769
 30
0.000000
  70
    32
  0
VERTEX
  8
3
  5
67F
 10
264.333
 20
142.825
 30
0.000000
  70
    32
  0
VERTEX
  8
3
  5
680
 10
264.205
 20
142.876
 30
0.000000
  70
    32
  0
VERTEX
  8
3
  5
681
 10
264.074
 20
142.923
 30
0.000000
  70
    32
  0
VERTEX
  8
3
  5
682
 10
263.939
 20
142.965
 30
0.000000
  70
    32
  0
VERTEX
  8
3
  5
683
 10
263.802
 20
143.002
 30
0.000000
  70
    32
  0
VERTEX
  8
3
  5
684
 10
263.662
 20
143.035
 30
0.000000
  70
    32
  0
VERTEX
  8
3
  5
685
 10
263.520
 20
143.063
 30
0.000000
  70
    32
  0
VERTEX
  8
3
  5
686
 10
263.376
 20
143.086
 30
0.000000
  70
    32
  0
VERTEX
  8
3
  5
687
 10
263.231
 20
143.103
 30
0.000000
  70
    32
  0
VERTEX
  8
3
  5
688
 10
263.085
 20
143.116
 30
0.000000
  70
    32
  0
VERTEX
  8
3
  5
689
 10
262.938
 20
143.124
 30
0.000000
  70
    32
  0
VERTEX
  8
3
  5
68A
 10
262.791
 20
143.126
 30
0.000000
  70
    32
  0
VERTEX
  8
3
  5
68B
 10
262.644
 20
143.124
 30
0.000000
  70
    32
  0
VERTEX
  8
3
  5
68C
 10
262.497
 20
143.116
 30
0.000000
  70
    32
  0
VERTEX
  8
3
  5
68D
 10
262.351
 20
143.103
 30
0.000000
  70
    32
  0
VERTEX
  8
3
  5
68E
 10
262.206
 20
143.086
 30
0.000000
  70
    32
  0
VERTEX
  8
3
  5
68F
 10
262.062
 20
143.063
 30
0.000000
  70
    32
  0
VERTEX
  8
3
  5
690
 10
261.920
 20
143.035
 30
0.000000
  70
    32
  0
VERTEX
  8
3
  5
691
 10
261.780
 20
143.002
 30
0.000000
  70
    32
  0
VERTEX
  8
3
  5
692
 10
261.643
 20
142.965
 30
0.000000
  70
    32
  0
VERTEX
  8
3
  5
693
 10
261.508
 20
142.923
 30
0.000000
  70
    32
  0
VERTEX
  8
3
  5
694
 10
261.377
 20
142.876
 30
0.000000
  70
    32
  0
VERTEX
  8
3
  5
695
 10
261.249
 20
142.825
 30
0.000000
  70
    32
  0
VERTEX
  8
3
  5
696
 10
261.124
 20
142.769
 30
0.000000
  70
    32
  0
VERTEX
  8
3
  5
697
 10
261.004
 20
142.709
 30
0.000000
  70
    32
  0
VERTEX
  8
3
  5
698
 10
260.888
 20
142.645
 30
0.000000
  70
    32
  0
VERTEX
  8
3
  5
699
 10
260.776
 20
142.577
 30
0.000000
  70
    32
  0
VERTEX
  8
3
  5
69A
 10
260.670
 20
142.505
 30
0.000000
  70
    32
  0
VERTEX
  8
3
  5
69B
 10
260.568
 20
142.430
 30
0.000000
  70
    32
  0
VERTEX
  8
3
  5
69C
 10
260.472
 20
142.351
 30
0.000000
  70
    32
  0
VERTEX
  8
3
  5
69D
 10
260.381
 20
142.269
 30
0.000000
  70
    32
  0
VERTEX
  8
3
  5
69E
 10
260.297
 20
142.184
 30
0.000000
  70
    32
  0
VERTEX
  8
3
  5
69F
 10
260.218
 20
142.096
 30
0.000000
  70
    32
  0
VERTEX
  8
3
  5
6A0
 10
260.145
 20
142.005
 30
0.000000
  70
    32
  0
VERTEX
  8
3
  5
6A1
 10
260.079
 20
141.912
 30
0.000000
  70
    32
  0
VERTEX
  8
3
  5
6A2
 10
260.019
 20
141.817
 30
0.000000
  70
    32
  0
VERTEX
  8
3
  5
6A3
 10
259.966
 20
141.720
 30
0.000000
  70
    32
  0
VERTEX
  8
3
  5
6A4
 10
259.920
 20
141.621
 30
0.000000
  70
    32
  0
VERTEX
  8
3
  5
6A5
 10
259.881
 20
141.521
 30
0.000000
  70
    32
  0
VERTEX
  8
3
  5
6A6
 10
259.849
 20
141.419
 30
0.000000
  70
    32
  0
VERTEX
  8
3
  5
6A7
 10
259.824
 20
141.316
 30
0.000000
  70
    32
  0
VERTEX
  8
3
  5
6A8
 10
259.806
 20
141.213
 30
0.000000
  70
    32
  0
VERTEX
  8
3
  5
6A9
 10
259.795
 20
141.109
 30
0.000000
  70
    32
  0
VERTEX
  8
3
  5
6AA
 10
259.791
 20
141.005
 30
0.000000
  70
    32
  0
SEQEND
  8
3
  5
6AB
  0
LINE
  5
2F3
  8
1
 10
210.67310124370539
 20
198.3319433427871
 30
0.0
 11
170.67310124370539
 21
198.3319433427871
 31
0.0
  0
CIRCLE
  5
2F4
  8
0
 10
199.45834095223191
 20
198.33194334278701
 30
0.0
 40
2.749999999998209
  0
LINE
  5
2F5
  8
0
 10
175.67310124370539
 20
183.3319433427871
 30
0.0
 11
205.6731012437055
 21
183.3319433427871
 31
0.0
  0
LINE
  5
2F6
  8
0
 10
175.67310124370539
 20
213.3319433427871
 30
0.0
 11
205.6731012437055
 21
213.3319433427871
 31
0.0
  0
LINE
  5
2F7
  8
1
 10
190.67269320581019
 20
218.33194334278701
 30
0.0
 11
190.6731187083447
 21
178.3319433427871
 31
0.0
  0
LINE
  5
2F8
  8
0
 10
184.67310124370539
 20
213.3319433427871
 30
0.0
 11
184.67310124370539
 21
183.3319433427871
 31
0.0
  0
LINE
  5
2F9
  8
0
 10
175.67310124370539
 20
213.3319433427871
 30
0.0
 11
175.67310124370539
 21
183.3319433427871
 31
0.0
  0
POLYLINE
  5
2FA
  8
3
 10
195.06572109797651
 20
209.8319433427871
 30
0.0
 66
     1
 70
     8
  0
VERTEX
  8
3
  5
6AC
 10
195.066
 20
209.832
 30
0.000000
  70
    32
  0
VERTEX
  8
3
  5
6AD
 10
194.962
 20
209.828
 30
0.000000
  70
    32
  0
VERTEX
  8
3
  5
6AE
 10
194.858
 20
209.817
 30
0.000000
  70
    32
  0
VERTEX
  8
3
  5
6AF
 10
194.754
 20
209.799
 30
0.000000
  70
    32
  0
VERTEX
  8
3
  5
6B0
 10
194.652
 20
209.774
 30
0.000000
  70
    32
  0
VERTEX
  8
3
  5
6B1
 10
194.550
 20
209.742
 30
0.000000
  70
    32
  0
VERTEX
  8
3
  5
6B2
 10
194.450
 20
209.703
 30
0.000000
  70
    32
  0
VERTEX
  8
3
  5
6B3
 10
194.351
 20
209.657
 30
0.000000
  70
    32
  0
VERTEX
  8
3
  5
6B4
 10
194.254
 20
209.604
 30
0.000000
  70
    32
  0
VERTEX
  8
3
  5
6B5
 10
194.159
 20
209.544
 30
0.000000
  70
    32
  0
VERTEX
  8
3
  5
6B6
 10
194.066
 20
209.478
 30
0.000000
  70
    32
  0
VERTEX
  8
3
  5
6B7
 10
193.975
 20
209.405
 30
0.000000
  70
    32
  0
VERTEX
  8
3
  5
6B8
 10
193.887
 20
209.326
 30
0.000000
  70
    32
  0
VERTEX
  8
3
  5
6B9
 10
193.802
 20
209.242
 30
0.000000
  70
    32
  0
VERTEX
  8
3
  5
6BA
 10
193.720
 20
209.151
 30
0.000000
  70
    32
  0
VERTEX
  8
3
  5
6BB
 10
193.641
 20
209.055
 30
0.000000
  70
    32
  0
VERTEX
  8
3
  5
6BC
 10
193.566
 20
208.953
 30
0.000000
  70
    32
  0
VERTEX
  8
3
  5
6BD
 10
193.494
 20
208.847
 30
0.000000
  70
    32
  0
VERTEX
  8
3
  5
6BE
 10
193.426
 20
208.735
 30
0.000000
  70
    32
  0
VERTEX
  8
3
  5
6BF
 10
193.362
 20
208.619
 30
0.000000
  70
    32
  0
VERTEX
  8
3
  5
6C0
 10
193.302
 20
208.499
 30
0.000000
  70
    32
  0
VERTEX
  8
3
  5
6C1
 10
193.246
 20
208.374
 30
0.000000
  70
    32
  0
VERTEX
  8
3
  5
6C2
 10
193.195
 20
208.246
 30
0.000000
  70
    32
  0
VERTEX
  8
3
  5
6C3
 10
193.148
 20
208.115
 30
0.000000
  70
    32
  0
VERTEX
  8
3
  5
6C4
 10
193.106
 20
207.980
 30
0.000000
  70
    32
  0
VERTEX
  8
3
  5
6C5
 10
193.068
 20
207.843
 30
0.000000
  70
    32
  0
VERTEX
  8
3
  5
6C6
 10
193.036
 20
207.703
 30
0.000000
  70
    32
  0
VERTEX
  8
3
  5
6C7
 10
193.008
 20
207.561
 30
0.000000
  70
    32
  0
VERTEX
  8
3
  5
6C8
 10
192.985
 20
207.417
 30
0.000000
  70
    32
  0
VERTEX
  8
3
  5
6C9
 10
192.967
 20
207.272
 30
0.000000
  70
    32
  0
VERTEX
  8
3
  5
6CA
 10
192.955
 20
207.126
 30
0.000000
  70
    32
  0
VERTEX
  8
3
  5
6CB
 10
192.947
 20
206.979
 30
0.000000
  70
    32
  0
VERTEX
  8
3
  5
6CC
 10
192.944
 20
206.832
 30
0.000000
  70
    32
  0
VERTEX
  8
3
  5
6CD
 10
192.947
 20
206.685
 30
0.000000
  70
    32
  0
VERTEX
  8
3
  5
6CE
 10
192.955
 20
206.538
 30
0.000000
  70
    32
  0
VERTEX
  8
3
  5
6CF
 10
192.967
 20
206.392
 30
0.000000
  70
    32
  0
VERTEX
  8
3
  5
6D0
 10
192.985
 20
206.247
 30
0.000000
  70
    32
  0
VERTEX
  8
3
  5
6D1
 10
193.008
 20
206.103
 30
0.000000
  70
    32
  0
VERTEX
  8
3
  5
6D2
 10
193.036
 20
205.961
 30
0.000000
  70
    32
  0
VERTEX
  8
3
  5
6D3
 10
193.068
 20
205.821
 30
0.000000
  70
    32
  0
VERTEX
  8
3
  5
6D4
 10
193.106
 20
205.684
 30
0.000000
  70
    32
  0
VERTEX
  8
3
  5
6D5
 10
193.148
 20
205.549
 30
0.000000
  70
    32
  0
VERTEX
  8
3
  5
6D6
 10
193.195
 20
205.418
 30
0.000000
  70
    32
  0
VERTEX
  8
3
  5
6D7
 10
193.246
 20
205.290
 30
0.000000
  70
    32
  0
VERTEX
  8
3
  5
6D8
 10
193.302
 20
205.165
 30
0.000000
  70
    32
  0
VERTEX
  8
3
  5
6D9
 10
193.362
 20
205.045
 30
0.000000
  70
    32
  0
VERTEX
  8
3
  5
6DA
 10
193.426
 20
204.929
 30
0.000000
  70
    32
  0
VERTEX
  8
3
  5
6DB
 10
193.494
 20
204.817
 30
0.000000
  70
    32
  0
VERTEX
  8
3
  5
6DC
 10
193.566
 20
204.711
 30
0.000000
  70
    32
  0
VERTEX
  8
3
  5
6DD
 10
193.641
 20
204.609
 30
0.000000
  70
    32
  0
VERTEX
  8
3
  5
6DE
 10
193.720
 20
204.513
 30
0.000000
  70
    32
  0
VERTEX
  8
3
  5
6DF
 10
193.802
 20
204.422
 30
0.000000
  70
    32
  0
VERTEX
  8
3
  5
6E0
 10
193.887
 20
204.338
 30
0.000000
  70
    32
  0
VERTEX
  8
3
  5
6E1
 10
193.975
 20
204.259
 30
0.000000
  70
    32
  0
VERTEX
  8
3
  5
6E2
 10
194.066
 20
204.186
 30
0.000000
  70
    32
  0
VERTEX
  8
3
  5
6E3
 10
194.159
 20
204.120
 30
0.000000
  70
    32
  0
VERTEX
  8
3
  5
6E4
 10
194.254
 20
204.060
 30
0.000000
  70
    32
  0
VERTEX
  8
3
  5
6E5
 10
194.351
 20
204.007
 30
0.000000
  70
    32
  0
VERTEX
  8
3
  5
6E6
 10
194.450
 20
203.961
 30
0.000000
  70
    32
  0
VERTEX
  8
3
  5
6E7
 10
194.550
 20
203.922
 30
0.000000
  70
    32
  0
VERTEX
  8
3
  5
6E8
 10
194.652
 20
203.890
 30
0.000000
  70
    32
  0
VERTEX
  8
3
  5
6E9
 10
194.754
 20
203.864
 30
0.000000
  70
    32
  0
VERTEX
  8
3
  5
6EA
 10
194.858
 20
203.846
 30
0.000000
  70
    32
  0
VERTEX
  8
3
  5
6EB
 10
194.962
 20
203.836
 30
0.000000
  70
    32
  0
VERTEX
  8
3
  5
6EC
 10
195.066
 20
203.832
 30
0.000000
  70
    32
  0
VERTEX
  8
3
  5
6ED
 10
195.170
 20
203.836
 30
0.000000
  70
    32
  0
VERTEX
  8
3
  5
6EE
 10
195.274
 20
203.846
 30
0.000000
  70
    32
  0
VERTEX
  8
3
  5
6EF
 10
195.377
 20
203.864
 30
0.000000
  70
    32
  0
VERTEX
  8
3
  5
6F0
 10
195.480
 20
203.890
 30
0.000000
  70
    32
  0
VERTEX
  8
3
  5
6F1
 10
195.581
 20
203.922
 30
0.000000
  70
    32
  0
VERTEX
  8
3
  5
6F2
 10
195.682
 20
203.961
 30
0.000000
  70
    32
  0
VERTEX
  8
3
  5
6F3
 10
195.780
 20
204.007
 30
0.000000
  70
    32
  0
VERTEX
  8
3
  5
6F4
 10
195.878
 20
204.060
 30
0.000000
  70
    32
  0
VERTEX
  8
3
  5
6F5
 10
195.973
 20
204.120
 30
0.000000
  70
    32
  0
VERTEX
  8
3
  5
6F6
 10
196.066
 20
204.186
 30
0.000000
  70
    32
  0
VERTEX
  8
3
  5
6F7
 10
196.156
 20
204.259
 30
0.000000
  70
    32
  0
VERTEX
  8
3
  5
6F8
 10
196.244
 20
204.338
 30
0.000000
  70
    32
  0
VERTEX
  8
3
  5
6F9
 10
196.329
 20
204.422
 30
0.000000
  70
    32
  0
VERTEX
  8
3
  5
6FA
 10
196.411
 20
204.513
 30
0.000000
  70
    32
  0
VERTEX
  8
3
  5
6FB
 10
196.490
 20
204.609
 30
0.000000
  70
    32
  0
VERTEX
  8
3
  5
6FC
 10
196.566
 20
204.711
 30
0.000000
  70
    32
  0
VERTEX
  8
3
  5
6FD
 10
196.638
 20
204.817
 30
0.000000
  70
    32
  0
VERTEX
  8
3
  5
6FE
 10
196.706
 20
204.929
 30
0.000000
  70
    32
  0
VERTEX
  8
3
  5
6FF
 10
196.770
 20
205.045
 30
0.000000
  70
    32
  0
VERTEX
  8
3
  5
700
 10
196.830
 20
205.165
 30
0.000000
  70
    32
  0
VERTEX
  8
3
  5
701
 10
196.885
 20
205.290
 30
0.000000
  70
    32
  0
VERTEX
  8
3
  5
702
 10
196.937
 20
205.418
 30
0.000000
  70
    32
  0
VERTEX
  8
3
  5
703
 10
196.983
 20
205.549
 30
0.000000
  70
    32
  0
VERTEX
  8
3
  5
704
 10
197.026
 20
205.684
 30
0.000000
  70
    32
  0
VERTEX
  8
3
  5
705
 10
197.063
 20
205.821
 30
0.000000
  70
    32
  0
VERTEX
  8
3
  5
706
 10
197.096
 20
205.961
 30
0.000000
  70
    32
  0
VERTEX
  8
3
  5
707
 10
197.123
 20
206.103
 30
0.000000
  70
    32
  0
VERTEX
  8
3
  5
708
 10
197.146
 20
206.247
 30
0.000000
  70
    32
  0
VERTEX
  8
3
  5
709
 10
197.164
 20
206.392
 30
0.000000
  70
    32
  0
VERTEX
  8
3
  5
70A
 10
197.177
 20
206.538
 30
0.000000
  70
    32
  0
VERTEX
  8
3
  5
70B
 10
197.184
 20
206.685
 30
0.000000
  70
    32
  0
VERTEX
  8
3
  5
70C
 10
197.187
 20
206.832
 30
0.000000
  70
    32
  0
VERTEX
  8
3
  5
70D
 10
197.184
 20
206.979
 30
0.000000
  70
    32
  0
VERTEX
  8
3
  5
70E
 10
197.177
 20
207.126
 30
0.000000
  70
    32
  0
VERTEX
  8
3
  5
70F
 10
197.164
 20
207.272
 30
0.000000
  70
    32
  0
VERTEX
  8
3
  5
710
 10
197.146
 20
207.417
 30
0.000000
  70
    32
  0
VERTEX
  8
3
  5
711
 10
197.123
 20
207.561
 30
0.000000
  70
    32
  0
VERTEX
  8
3
  5
712
 10
197.096
 20
207.703
 30
0.000000
  70
    32
  0
VERTEX
  8
3
  5
713
 10
197.063
 20
207.843
 30
0.000000
  70
    32
  0
VERTEX
  8
3
  5
714
 10
197.026
 20
207.980
 30
0.000000
  70
    32
  0
VERTEX
  8
3
  5
715
 10
196.983
 20
208.115
 30
0.000000
  70
    32
  0
VERTEX
  8
3
  5
716
 10
196.937
 20
208.246
 30
0.000000
  70
    32
  0
VERTEX
  8
3
  5
717
 10
196.885
 20
208.374
 30
0.000000
  70
    32
  0
VERTEX
  8
3
  5
718
 10
196.830
 20
208.499
 30
0.000000
  70
    32
  0
VERTEX
  8
3
  5
719
 10
196.770
 20
208.619
 30
0.000000
  70
    32
  0
VERTEX
  8
3
  5
71A
 10
196.706
 20
208.735
 30
0.000000
  70
    32
  0
VERTEX
  8
3
  5
71B
 10
196.638
 20
208.847
 30
0.000000
  70
    32
  0
VERTEX
  8
3
  5
71C
 10
196.566
 20
208.953
 30
0.000000
  70
    32
  0
VERTEX
  8
3
  5
71D
 10
196.490
 20
209.055
 30
0.000000
  70
    32
  0
VERTEX
  8
3
  5
71E
 10
196.411
 20
209.151
 30
0.000000
  70
    32
  0
VERTEX
  8
3
  5
71F
 10
196.329
 20
209.242
 30
0.000000
  70
    32
  0
VERTEX
  8
3
  5
720
 10
196.244
 20
209.326
 30
0.000000
  70
    32
  0
VERTEX
  8
3
  5
721
 10
196.156
 20
209.405
 30
0.000000
  70
    32
  0
VERTEX
  8
3
  5
722
 10
196.066
 20
209.478
 30
0.000000
  70
    32
  0
VERTEX
  8
3
  5
723
 10
195.973
 20
209.544
 30
0.000000
  70
    32
  0
VERTEX
  8
3
  5
724
 10
195.878
 20
209.604
 30
0.000000
  70
    32
  0
VERTEX
  8
3
  5
725
 10
195.780
 20
209.657
 30
0.000000
  70
    32
  0
VERTEX
  8
3
  5
726
 10
195.682
 20
209.703
 30
0.000000
  70
    32
  0
VERTEX
  8
3
  5
727
 10
195.581
 20
209.742
 30
0.000000
  70
    32
  0
VERTEX
  8
3
  5
728
 10
195.480
 20
209.774
 30
0.000000
  70
    32
  0
VERTEX
  8
3
  5
729
 10
195.377
 20
209.799
 30
0.000000
  70
    32
  0
VERTEX
  8
3
  5
72A
 10
195.274
 20
209.817
 30
0.000000
  70
    32
  0
VERTEX
  8
3
  5
72B
 10
195.170
 20
209.828
 30
0.000000
  70
    32
  0
VERTEX
  8
3
  5
72C
 10
195.066
 20
209.832
 30
0.000000
  70
    32
  0
SEQEND
  8
3
  5
72D
  0
LINE
  5
2FB
  8
1
 10
195.06572109797651
 20
211.22706353567881
 30
0.0
 11
195.06572109797651
 21
202.2735839668083
 31
0.0
  0
CIRCLE
  5
2FC
  8
0
 10
190.67272182026039
 20
198.33194334278701
 30
0.0
 40
2.75
  0
LINE
  5
2FD
  8
1
 10
198.62638154438409
 20
206.8319433427871
 30
0.0
 11
192.01539161016589
 21
206.8319433427871
 31
0.0
  0
POLYLINE
  5
2FE
  8
0
 10
195.06572109797651
 20
209.2319433427871
 30
0.0
 66
     1
 70
     8
  0
VERTEX
  8
0
  5
72E
 10
195.066
 20
209.232
 30
0.000000
  70
    32
  0
VERTEX
  8
0
  5
72F
 10
194.982
 20
209.229
 30
0.000000
  70
    32
  0
VERTEX
  8
0
  5
730
 10
194.899
 20
209.220
 30
0.000000
  70
    32
  0
VERTEX
  8
0
  5
731
 10
194.817
 20
209.206
 30
0.000000
  70
    32
  0
VERTEX
  8
0
  5
732
 10
194.735
 20
209.186
 30
0.000000
  70
    32
  0
VERTEX
  8
0
  5
733
 10
194.653
 20
209.160
 30
0.000000
  70
    32
  0
VERTEX
  8
0
  5
734
 10
194.573
 20
209.129
 30
0.000000
  70
    32
  0
VERTEX
  8
0
  5
735
 10
194.494
 20
209.092
 30
0.000000
  70
    32
  0
VERTEX
  8
0
  5
736
 10
194.416
 20
209.049
 30
0.000000
  70
    32
  0
VERTEX
  8
0
  5
737
 10
194.340
 20
209.002
 30
0.000000
  70
    32
  0
VERTEX
  8
0
  5
738
 10
194.266
 20
208.949
 30
0.000000
  70
    32
  0
VERTEX
  8
0
  5
739
 10
194.193
 20
208.890
 30
0.000000
  70
    32
  0
VERTEX
  8
0
  5
73A
 10
194.123
 20
208.827
 30
0.000000
  70
    32
  0
VERTEX
  8
0
  5
73B
 10
194.055
 20
208.760
 30
0.000000
  70
    32
  0
VERTEX
  8
0
  5
73C
 10
193.989
 20
208.687
 30
0.000000
  70
    32
  0
VERTEX
  8
0
  5
73D
 10
193.926
 20
208.610
 30
0.000000
  70
    32
  0
VERTEX
  8
0
  5
73E
 10
193.866
 20
208.529
 30
0.000000
  70
    32
  0
VERTEX
  8
0
  5
73F
 10
193.808
 20
208.444
 30
0.000000
  70
    32
  0
VERTEX
  8
0
  5
740
 10
193.754
 20
208.354
 30
0.000000
  70
    32
  0
VERTEX
  8
0
  5
741
 10
193.703
 20
208.262
 30
0.000000
  70
    32
  0
VERTEX
  8
0
  5
742
 10
193.655
 20
208.165
 30
0.000000
  70
    32
  0
VERTEX
  8
0
  5
743
 10
193.610
 20
208.066
 30
0.000000
  70
    32
  0
VERTEX
  8
0
  5
744
 10
193.569
 20
207.963
 30
0.000000
  70
    32
  0
VERTEX
  8
0
  5
745
 10
193.532
 20
207.858
 30
0.000000
  70
    32
  0
VERTEX
  8
0
  5
746
 10
193.498
 20
207.750
 30
0.000000
  70
    32
  0
VERTEX
  8
0
  5
747
 10
193.468
 20
207.640
 30
0.000000
  70
    32
  0
VERTEX
  8
0
  5
748
 10
193.442
 20
207.529
 30
0.000000
  70
    32
  0
VERTEX
  8
0
  5
749
 10
193.420
 20
207.415
 30
0.000000
  70
    32
  0
VERTEX
  8
0
  5
74A
 10
193.401
 20
207.300
 30
0.000000
  70
    32
  0
VERTEX
  8
0
  5
74B
 10
193.387
 20
207.184
 30
0.000000
  70
    32
  0
VERTEX
  8
0
  5
74C
 10
193.377
 20
207.067
 30
0.000000
  70
    32
  0
VERTEX
  8
0
  5
74D
 10
193.371
 20
206.950
 30
0.000000
  70
    32
  0
VERTEX
  8
0
  5
74E
 10
193.369
 20
206.832
 30
0.000000
  70
    32
  0
VERTEX
  8
0
  5
74F
 10
193.371
 20
206.714
 30
0.000000
  70
    32
  0
VERTEX
  8
0
  5
750
 10
193.377
 20
206.597
 30
0.000000
  70
    32
  0
VERTEX
  8
0
  5
751
 10
193.387
 20
206.480
 30
0.000000
  70
    32
  0
VERTEX
  8
0
  5
752
 10
193.401
 20
206.364
 30
0.000000
  70
    32
  0
VERTEX
  8
0
  5
753
 10
193.420
 20
206.249
 30
0.000000
  70
    32
  0
VERTEX
  8
0
  5
754
 10
193.442
 20
206.135
 30
0.000000
  70
    32
  0
VERTEX
  8
0
  5
755
 10
193.468
 20
206.023
 30
0.000000
  70
    32
  0
VERTEX
  8
0
  5
756
 10
193.498
 20
205.914
 30
0.000000
  70
    32
  0
VERTEX
  8
0
  5
757
 10
193.532
 20
205.806
 30
0.000000
  70
    32
  0
VERTEX
  8
0
  5
758
 10
193.569
 20
205.701
 30
0.000000
  70
    32
  0
VERTEX
  8
0
  5
759
 10
193.610
 20
205.598
 30
0.000000
  70
    32
  0
VERTEX
  8
0
  5
75A
 10
193.655
 20
205.499
 30
0.000000
  70
    32
  0
VERTEX
  8
0
  5
75B
 10
193.703
 20
205.402
 30
0.000000
  70
    32
  0
VERTEX
  8
0
  5
75C
 10
193.754
 20
205.309
 30
0.000000
  70
    32
  0
VERTEX
  8
0
  5
75D
 10
193.808
 20
205.220
 30
0.000000
  70
    32
  0
VERTEX
  8
0
  5
75E
 10
193.866
 20
205.135
 30
0.000000
  70
    32
  0
VERTEX
  8
0
  5
75F
 10
193.926
 20
205.054
 30
0.000000
  70
    32
  0
VERTEX
  8
0
  5
760
 10
193.989
 20
204.977
 30
0.000000
  70
    32
  0
VERTEX
  8
0
  5
761
 10
194.055
 20
204.904
 30
0.000000
  70
    32
  0
VERTEX
  8
0
  5
762
 10
194.123
 20
204.836
 30
0.000000
  70
    32
  0
VERTEX
  8
0
  5
763
 10
194.193
 20
204.773
 30
0.000000
  70
    32
  0
VERTEX
  8
0
  5
764
 10
194.266
 20
204.715
 30
0.000000
  70
    32
  0
VERTEX
  8
0
  5
765
 10
194.340
 20
204.662
 30
0.000000
  70
    32
  0
VERTEX
  8
0
  5
766
 10
194.416
 20
204.615
 30
0.000000
  70
    32
  0
VERTEX
  8
0
  5
767
 10
194.494
 20
204.572
 30
0.000000
  70
    32
  0
VERTEX
  8
0
  5
768
 10
194.573
 20
204.535
 30
0.000000
  70
    32
  0
VERTEX
  8
0
  5
769
 10
194.653
 20
204.504
 30
0.000000
  70
    32
  0
VERTEX
  8
0
  5
76A
 10
194.735
 20
204.478
 30
0.000000
  70
    32
  0
VERTEX
  8
0
  5
76B
 10
194.817
 20
204.458
 30
0.000000
  70
    32
  0
VERTEX
  8
0
  5
76C
 10
194.899
 20
204.443
 30
0.000000
  70
    32
  0
VERTEX
  8
0
  5
76D
 10
194.982
 20
204.435
 30
0.000000
  70
    32
  0
VERTEX
  8
0
  5
76E
 10
195.066
 20
204.432
 30
0.000000
  70
    32
  0
VERTEX
  8
0
  5
76F
 10
195.149
 20
204.435
 30
0.000000
  70
    32
  0
VERTEX
  8
0
  5
770
 10
195.232
 20
204.443
 30
0.000000
  70
    32
  0
VERTEX
  8
0
  5
771
 10
195.315
 20
204.458
 30
0.000000
  70
    32
  0
VERTEX
  8
0
  5
772
 10
195.397
 20
204.478
 30
0.000000
  70
    32
  0
VERTEX
  8
0
  5
773
 10
195.478
 20
204.504
 30
0.000000
  70
    32
  0
VERTEX
  8
0
  5
774
 10
195.558
 20
204.535
 30
0.000000
  70
    32
  0
VERTEX
  8
0
  5
775
 10
195.637
 20
204.572
 30
0.000000
  70
    32
  0
VERTEX
  8
0
  5
776
 10
195.715
 20
204.615
 30
0.000000
  70
    32
  0
VERTEX
  8
0
  5
777
 10
195.791
 20
204.662
 30
0.000000
  70
    32
  0
VERTEX
  8
0
  5
778
 10
195.866
 20
204.715
 30
0.000000
  70
    32
  0
VERTEX
  8
0
  5
779
 10
195.938
 20
204.773
 30
0.000000
  70
    32
  0
VERTEX
  8
0
  5
77A
 10
196.009
 20
204.836
 30
0.000000
  70
    32
  0
VERTEX
  8
0
  5
77B
 10
196.077
 20
204.904
 30
0.000000
  70
    32
  0
VERTEX
  8
0
  5
77C
 10
196.142
 20
204.977
 30
0.000000
  70
    32
  0
VERTEX
  8
0
  5
77D
 10
196.205
 20
205.054
 30
0.000000
  70
    32
  0
VERTEX
  8
0
  5
77E
 10
196.266
 20
205.135
 30
0.000000
  70
    32
  0
VERTEX
  8
0
  5
77F
 10
196.323
 20
205.220
 30
0.000000
  70
    32
  0
VERTEX
  8
0
  5
780
 10
196.378
 20
205.309
 30
0.000000
  70
    32
  0
VERTEX
  8
0
  5
781
 10
196.429
 20
205.402
 30
0.000000
  70
    32
  0
VERTEX
  8
0
  5
782
 10
196.477
 20
205.499
 30
0.000000
  70
    32
  0
VERTEX
  8
0
  5
783
 10
196.521
 20
205.598
 30
0.000000
  70
    32
  0
VERTEX
  8
0
  5
784
 10
196.562
 20
205.701
 30
0.000000
  70
    32
  0
VERTEX
  8
0
  5
785
 10
196.600
 20
205.806
 30
0.000000
  70
    32
  0
VERTEX
  8
0
  5
786
 10
196.634
 20
205.914
 30
0.000000
  70
    32
  0
VERTEX
  8
0
  5
787
 10
196.664
 20
206.023
 30
0.000000
  70
    32
  0
VERTEX
  8
0
  5
788
 10
196.690
 20
206.135
 30
0.000000
  70
    32
  0
VERTEX
  8
0
  5
789
 10
196.712
 20
206.249
 30
0.000000
  70
    32
  0
VERTEX
  8
0
  5
78A
 10
196.730
 20
206.364
 30
0.000000
  70
    32
  0
VERTEX
  8
0
  5
78B
 10
196.744
 20
206.480
 30
0.000000
  70
    32
  0
VERTEX
  8
0
  5
78C
 10
196.755
 20
206.597
 30
0.000000
  70
    32
  0
VERTEX
  8
0
  5
78D
 10
196.761
 20
206.714
 30
0.000000
  70
    32
  0
VERTEX
  8
0
  5
78E
 10
196.763
 20
206.832
 30
0.000000
  70
    32
  0
VERTEX
  8
0
  5
78F
 10
196.761
 20
206.950
 30
0.000000
  70
    32
  0
VERTEX
  8
0
  5
790
 10
196.755
 20
207.067
 30
0.000000
  70
    32
  0
VERTEX
  8
0
  5
791
 10
196.744
 20
207.184
 30
0.000000
  70
    32
  0
VERTEX
  8
0
  5
792
 10
196.730
 20
207.300
 30
0.000000
  70
    32
  0
VERTEX
  8
0
  5
793
 10
196.712
 20
207.415
 30
0.000000
  70
    32
  0
VERTEX
  8
0
  5
794
 10
196.690
 20
207.529
 30
0.000000
  70
    32
  0
VERTEX
  8
0
  5
795
 10
196.664
 20
207.640
 30
0.000000
  70
    32
  0
VERTEX
  8
0
  5
796
 10
196.634
 20
207.750
 30
0.000000
  70
    32
  0
VERTEX
  8
0
  5
797
 10
196.600
 20
207.858
 30
0.000000
  70
    32
  0
VERTEX
  8
0
  5
798
 10
196.562
 20
207.963
 30
0.000000
  70
    32
  0
VERTEX
  8
0
  5
799
 10
196.521
 20
208.066
 30
0.000000
  70
    32
  0
VERTEX
  8
0
  5
79A
 10
196.477
 20
208.165
 30
0.000000
  70
    32
  0
VERTEX
  8
0
  5
79B
 10
196.429
 20
208.262
 30
0.000000
  70
    32
  0
VERTEX
  8
0
  5
79C
 10
196.378
 20
208.354
 30
0.000000
  70
    32
  0
VERTEX
  8
0
  5
79D
 10
196.323
 20
208.444
 30
0.000000
  70
    32
  0
VERTEX
  8
0
  5
79E
 10
196.266
 20
208.529
 30
0.000000
  70
    32
  0
VERTEX
  8
0
  5
79F
 10
196.205
 20
208.610
 30
0.000000
  70
    32
  0
VERTEX
  8
0
  5
7A0
 10
196.142
 20
208.687
 30
0.000000
  70
    32
  0
VERTEX
  8
0
  5
7A1
 10
196.077
 20
208.760
 30
0.000000
  70
    32
  0
VERTEX
  8
0
  5
7A2
 10
196.009
 20
208.827
 30
0.000000
  70
    32
  0
VERTEX
  8
0
  5
7A3
 10
195.938
 20
208.890
 30
0.000000
  70
    32
  0
VERTEX
  8
0
  5
7A4
 10
195.866
 20
208.949
 30
0.000000
  70
    32
  0
VERTEX
  8
0
  5
7A5
 10
195.791
 20
209.002
 30
0.000000
  70
    32
  0
VERTEX
  8
0
  5
7A6
 10
195.715
 20
209.049
 30
0.000000
  70
    32
  0
VERTEX
  8
0
  5
7A7
 10
195.637
 20
209.092
 30
0.000000
  70
    32
  0
VERTEX
  8
0
  5
7A8
 10
195.558
 20
209.129
 30
0.000000
  70
    32
  0
VERTEX
  8
0
  5
7A9
 10
195.478
 20
209.160
 30
0.000000
  70
    32
  0
VERTEX
  8
0
  5
7AA
 10
195.397
 20
209.186
 30
0.000000
  70
    32
  0
VERTEX
  8
0
  5
7AB
 10
195.315
 20
209.206
 30
0.000000
  70
    32
  0
VERTEX
  8
0
  5
7AC
 10
195.232
 20
209.220
 30
0.000000
  70
    32
  0
VERTEX
  8
0
  5
7AD
 10
195.149
 20
209.229
 30
0.000000
  70
    32
  0
VERTEX
  8
0
  5
7AE
 10
195.066
 20
209.232
 30
0.000000
  70
    32
  0
SEQEND
  8
0
  5
7AF
  0
POLYLINE
  5
2FF
  8
3
 10
195.06572109797651
 20
192.8319433427871
 30
0.0
 66
     1
 70
     8
  0
VERTEX
  8
3
  5
7B0
 10
195.066
 20
192.832
 30
0.000000
  70
    32
  0
VERTEX
  8
3
  5
7B1
 10
194.962
 20
192.828
 30
0.000000
  70
    32
  0
VERTEX
  8
3
  5
7B2
 10
194.858
 20
192.817
 30
0.000000
  70
    32
  0
VERTEX
  8
3
  5
7B3
 10
194.754
 20
192.799
 30
0.000000
  70
    32
  0
VERTEX
  8
3
  5
7B4
 10
194.652
 20
192.774
 30
0.000000
  70
    32
  0
VERTEX
  8
3
  5
7B5
 10
194.550
 20
192.742
 30
0.000000
  70
    32
  0
VERTEX
  8
3
  5
7B6
 10
194.450
 20
192.703
 30
0.000000
  70
    32
  0
VERTEX
  8
3
  5
7B7
 10
194.351
 20
192.657
 30
0.000000
  70
    32
  0
VERTEX
  8
3
  5
7B8
 10
194.254
 20
192.604
 30
0.000000
  70
    32
  0
VERTEX
  8
3
  5
7B9
 10
194.159
 20
192.544
 30
0.000000
  70
    32
  0
VERTEX
  8
3
  5
7BA
 10
194.066
 20
192.478
 30
0.000000
  70
    32
  0
VERTEX
  8
3
  5
7BB
 10
193.975
 20
192.405
 30
0.000000
  70
    32
  0
VERTEX
  8
3
  5
7BC
 10
193.887
 20
192.326
 30
0.000000
  70
    32
  0
VERTEX
  8
3
  5
7BD
 10
193.802
 20
192.242
 30
0.000000
  70
    32
  0
VERTEX
  8
3
  5
7BE
 10
193.720
 20
192.151
 30
0.000000
  70
    32
  0
VERTEX
  8
3
  5
7BF
 10
193.641
 20
192.055
 30
0.000000
  70
    32
  0
VERTEX
  8
3
  5
7C0
 10
193.566
 20
191.953
 30
0.000000
  70
    32
  0
VERTEX
  8
3
  5
7C1
 10
193.494
 20
191.847
 30
0.000000
  70
    32
  0
VERTEX
  8
3
  5
7C2
 10
193.426
 20
191.735
 30
0.000000
  70
    32
  0
VERTEX
  8
3
  5
7C3
 10
193.362
 20
191.619
 30
0.000000
  70
    32
  0
VERTEX
  8
3
  5
7C4
 10
193.302
 20
191.499
 30
0.000000
  70
    32
  0
VERTEX
  8
3
  5
7C5
 10
193.246
 20
191.374
 30
0.000000
  70
    32
  0
VERTEX
  8
3
  5
7C6
 10
193.195
 20
191.246
 30
0.000000
  70
    32
  0
VERTEX
  8
3
  5
7C7
 10
193.148
 20
191.115
 30
0.000000
  70
    32
  0
VERTEX
  8
3
  5
7C8
 10
193.106
 20
190.980
 30
0.000000
  70
    32
  0
VERTEX
  8
3
  5
7C9
 10
193.068
 20
190.843
 30
0.000000
  70
    32
  0
VERTEX
  8
3
  5
7CA
 10
193.036
 20
190.703
 30
0.000000
  70
    32
  0
VERTEX
  8
3
  5
7CB
 10
193.008
 20
190.561
 30
0.000000
  70
    32
  0
VERTEX
  8
3
  5
7CC
 10
192.985
 20
190.417
 30
0.000000
  70
    32
  0
VERTEX
  8
3
  5
7CD
 10
192.967
 20
190.272
 30
0.000000
  70
    32
  0
VERTEX
  8
3
  5
7CE
 10
192.955
 20
190.126
 30
0.000000
  70
    32
  0
VERTEX
  8
3
  5
7CF
 10
192.947
 20
189.979
 30
0.000000
  70
    32
  0
VERTEX
  8
3
  5
7D0
 10
192.944
 20
189.832
 30
0.000000
  70
    32
  0
VERTEX
  8
3
  5
7D1
 10
192.947
 20
189.685
 30
0.000000
  70
    32
  0
VERTEX
  8
3
  5
7D2
 10
192.955
 20
189.538
 30
0.000000
  70
    32
  0
VERTEX
  8
3
  5
7D3
 10
192.967
 20
189.392
 30
0.000000
  70
    32
  0
VERTEX
  8
3
  5
7D4
 10
192.985
 20
189.247
 30
0.000000
  70
    32
  0
VERTEX
  8
3
  5
7D5
 10
193.008
 20
189.103
 30
0.000000
  70
    32
  0
VERTEX
  8
3
  5
7D6
 10
193.036
 20
188.961
 30
0.000000
  70
    32
  0
VERTEX
  8
3
  5
7D7
 10
193.068
 20
188.821
 30
0.000000
  70
    32
  0
VERTEX
  8
3
  5
7D8
 10
193.106
 20
188.684
 30
0.000000
  70
    32
  0
VERTEX
  8
3
  5
7D9
 10
193.148
 20
188.549
 30
0.000000
  70
    32
  0
VERTEX
  8
3
  5
7DA
 10
193.195
 20
188.418
 30
0.000000
  70
    32
  0
VERTEX
  8
3
  5
7DB
 10
193.246
 20
188.290
 30
0.000000
  70
    32
  0
VERTEX
  8
3
  5
7DC
 10
193.302
 20
188.165
 30
0.000000
  70
    32
  0
VERTEX
  8
3
  5
7DD
 10
193.362
 20
188.045
 30
0.000000
  70
    32
  0
VERTEX
  8
3
  5
7DE
 10
193.426
 20
187.929
 30
0.000000
  70
    32
  0
VERTEX
  8
3
  5
7DF
 10
193.494
 20
187.817
 30
0.000000
  70
    32
  0
VERTEX
  8
3
  5
7E0
 10
193.566
 20
187.711
 30
0.000000
  70
    32
  0
VERTEX
  8
3
  5
7E1
 10
193.641
 20
187.609
 30
0.000000
  70
    32
  0
VERTEX
  8
3
  5
7E2
 10
193.720
 20
187.513
 30
0.000000
  70
    32
  0
VERTEX
  8
3
  5
7E3
 10
193.802
 20
187.422
 30
0.000000
  70
    32
  0
VERTEX
  8
3
  5
7E4
 10
193.887
 20
187.338
 30
0.000000
  70
    32
  0
VERTEX
  8
3
  5
7E5
 10
193.975
 20
187.259
 30
0.000000
  70
    32
  0
VERTEX
  8
3
  5
7E6
 10
194.066
 20
187.186
 30
0.000000
  70
    32
  0
VERTEX
  8
3
  5
7E7
 10
194.159
 20
187.120
 30
0.000000
  70
    32
  0
VERTEX
  8
3
  5
7E8
 10
194.254
 20
187.060
 30
0.000000
  70
    32
  0
VERTEX
  8
3
  5
7E9
 10
194.351
 20
187.007
 30
0.000000
  70
    32
  0
VERTEX
  8
3
  5
7EA
 10
194.450
 20
186.961
 30
0.000000
  70
    32
  0
VERTEX
  8
3
  5
7EB
 10
194.550
 20
186.922
 30
0.000000
  70
    32
  0
VERTEX
  8
3
  5
7EC
 10
194.652
 20
186.890
 30
0.000000
  70
    32
  0
VERTEX
  8
3
  5
7ED
 10
194.754
 20
186.864
 30
0.000000
  70
    32
  0
VERTEX
  8
3
  5
7EE
 10
194.858
 20
186.846
 30
0.000000
  70
    32
  0
VERTEX
  8
3
  5
7EF
 10
194.962
 20
186.836
 30
0.000000
  70
    32
  0
VERTEX
  8
3
  5
7F0
 10
195.066
 20
186.832
 30
0.000000
  70
    32
  0
VERTEX
  8
3
  5
7F1
 10
195.170
 20
186.836
 30
0.000000
  70
    32
  0
VERTEX
  8
3
  5
7F2
 10
195.274
 20
186.846
 30
0.000000
  70
    32
  0
VERTEX
  8
3
  5
7F3
 10
195.377
 20
186.864
 30
0.000000
  70
    32
  0
VERTEX
  8
3
  5
7F4
 10
195.480
 20
186.890
 30
0.000000
  70
    32
  0
VERTEX
  8
3
  5
7F5
 10
195.581
 20
186.922
 30
0.000000
  70
    32
  0
VERTEX
  8
3
  5
7F6
 10
195.682
 20
186.961
 30
0.000000
  70
    32
  0
VERTEX
  8
3
  5
7F7
 10
195.780
 20
187.007
 30
0.000000
  70
    32
  0
VERTEX
  8
3
  5
7F8
 10
195.878
 20
187.060
 30
0.000000
  70
    32
  0
VERTEX
  8
3
  5
7F9
 10
195.973
 20
187.120
 30
0.000000
  70
    32
  0
VERTEX
  8
3
  5
7FA
 10
196.066
 20
187.186
 30
0.000000
  70
    32
  0
VERTEX
  8
3
  5
7FB
 10
196.156
 20
187.259
 30
0.000000
  70
    32
  0
VERTEX
  8
3
  5
7FC
 10
196.244
 20
187.338
 30
0.000000
  70
    32
  0
VERTEX
  8
3
  5
7FD
 10
196.329
 20
187.422
 30
0.000000
  70
    32
  0
VERTEX
  8
3
  5
7FE
 10
196.411
 20
187.513
 30
0.000000
  70
    32
  0
VERTEX
  8
3
  5
7FF
 10
196.490
 20
187.609
 30
0.000000
  70
    32
  0
VERTEX
  8
3
  5
800
 10
196.566
 20
187.711
 30
0.000000
  70
    32
  0
VERTEX
  8
3
  5
801
 10
196.638
 20
187.817
 30
0.000000
  70
    32
  0
VERTEX
  8
3
  5
802
 10
196.706
 20
187.929
 30
0.000000
  70
    32
  0
VERTEX
  8
3
  5
803
 10
196.770
 20
188.045
 30
0.000000
  70
    32
  0
VERTEX
  8
3
  5
804
 10
196.830
 20
188.165
 30
0.000000
  70
    32
  0
VERTEX
  8
3
  5
805
 10
196.885
 20
188.290
 30
0.000000
  70
    32
  0
VERTEX
  8
3
  5
806
 10
196.937
 20
188.418
 30
0.000000
  70
    32
  0
VERTEX
  8
3
  5
807
 10
196.983
 20
188.549
 30
0.000000
  70
    32
  0
VERTEX
  8
3
  5
808
 10
197.026
 20
188.684
 30
0.000000
  70
    32
  0
VERTEX
  8
3
  5
809
 10
197.063
 20
188.821
 30
0.000000
  70
    32
  0
VERTEX
  8
3
  5
80A
 10
197.096
 20
188.961
 30
0.000000
  70
    32
  0
VERTEX
  8
3
  5
80B
 10
197.123
 20
189.103
 30
0.000000
  70
    32
  0
VERTEX
  8
3
  5
80C
 10
197.146
 20
189.247
 30
0.000000
  70
    32
  0
VERTEX
  8
3
  5
80D
 10
197.164
 20
189.392
 30
0.000000
  70
    32
  0
VERTEX
  8
3
  5
80E
 10
197.177
 20
189.538
 30
0.000000
  70
    32
  0
VERTEX
  8
3
  5
80F
 10
197.184
 20
189.685
 30
0.000000
  70
    32
  0
VERTEX
  8
3
  5
810
 10
197.187
 20
189.832
 30
0.000000
  70
    32
  0
VERTEX
  8
3
  5
811
 10
197.184
 20
189.979
 30
0.000000
  70
    32
  0
VERTEX
  8
3
  5
812
 10
197.177
 20
190.126
 30
0.000000
  70
    32
  0
VERTEX
  8
3
  5
813
 10
197.164
 20
190.272
 30
0.000000
  70
    32
  0
VERTEX
  8
3
  5
814
 10
197.146
 20
190.417
 30
0.000000
  70
    32
  0
VERTEX
  8
3
  5
815
 10
197.123
 20
190.561
 30
0.000000
  70
    32
  0
VERTEX
  8
3
  5
816
 10
197.096
 20
190.703
 30
0.000000
  70
    32
  0
VERTEX
  8
3
  5
817
 10
197.063
 20
190.843
 30
0.000000
  70
    32
  0
VERTEX
  8
3
  5
818
 10
197.026
 20
190.980
 30
0.000000
  70
    32
  0
VERTEX
  8
3
  5
819
 10
196.983
 20
191.115
 30
0.000000
  70
    32
  0
VERTEX
  8
3
  5
81A
 10
196.937
 20
191.246
 30
0.000000
  70
    32
  0
VERTEX
  8
3
  5
81B
 10
196.885
 20
191.374
 30
0.000000
  70
    32
  0
VERTEX
  8
3
  5
81C
 10
196.830
 20
191.499
 30
0.000000
  70
    32
  0
VERTEX
  8
3
  5
81D
 10
196.770
 20
191.619
 30
0.000000
  70
    32
  0
VERTEX
  8
3
  5
81E
 10
196.706
 20
191.735
 30
0.000000
  70
    32
  0
VERTEX
  8
3
  5
81F
 10
196.638
 20
191.847
 30
0.000000
  70
    32
  0
VERTEX
  8
3
  5
820
 10
196.566
 20
191.953
 30
0.000000
  70
    32
  0
VERTEX
  8
3
  5
821
 10
196.490
 20
192.055
 30
0.000000
  70
    32
  0
VERTEX
  8
3
  5
822
 10
196.411
 20
192.151
 30
0.000000
  70
    32
  0
VERTEX
  8
3
  5
823
 10
196.329
 20
192.242
 30
0.000000
  70
    32
  0
VERTEX
  8
3
  5
824
 10
196.244
 20
192.326
 30
0.000000
  70
    32
  0
VERTEX
  8
3
  5
825
 10
196.156
 20
192.405
 30
0.000000
  70
    32
  0
VERTEX
  8
3
  5
826
 10
196.066
 20
192.478
 30
0.000000
  70
    32
  0
VERTEX
  8
3
  5
827
 10
195.973
 20
192.544
 30
0.000000
  70
    32
  0
VERTEX
  8
3
  5
828
 10
195.878
 20
192.604
 30
0.000000
  70
    32
  0
VERTEX
  8
3
  5
829
 10
195.780
 20
192.657
 30
0.000000
  70
    32
  0
VERTEX
  8
3
  5
82A
 10
195.682
 20
192.703
 30
0.000000
  70
    32
  0
VERTEX
  8
3
  5
82B
 10
195.581
 20
192.742
 30
0.000000
  70
    32
  0
VERTEX
  8
3
  5
82C
 10
195.480
 20
192.774
 30
0.000000
  70
    32
  0
VERTEX
  8
3
  5
82D
 10
195.377
 20
192.799
 30
0.000000
  70
    32
  0
VERTEX
  8
3
  5
82E
 10
195.274
 20
192.817
 30
0.000000
  70
    32
  0
VERTEX
  8
3
  5
82F
 10
195.170
 20
192.828
 30
0.000000
  70
    32
  0
VERTEX
  8
3
  5
830
 10
195.066
 20
192.832
 30
0.000000
  70
    32
  0
SEQEND
  8
3
  5
831
  0
LINE
  5
300
  8
1
 10
195.06572109797651
 20
194.2270635356787
 30
0.0
 11
195.06572109797651
 21
185.27358396680839
 31
0.0
  0
LINE
  5
301
  8
1
 10
198.62638154438409
 20
189.8319433427871
 30
0.0
 11
192.01539161016589
 21
189.8319433427871
 31
0.0
  0
POLYLINE
  5
302
  8
0
 10
195.06572109797651
 20
192.2319433427871
 30
0.0
 66
     1
 70
     8
  0
VERTEX
  8
0
  5
832
 10
195.066
 20
192.232
 30
0.000000
  70
    32
  0
VERTEX
  8
0
  5
833
 10
194.982
 20
192.229
 30
0.000000
  70
    32
  0
VERTEX
  8
0
  5
834
 10
194.899
 20
192.220
 30
0.000000
  70
    32
  0
VERTEX
  8
0
  5
835
 10
194.817
 20
192.206
 30
0.000000
  70
    32
  0
VERTEX
  8
0
  5
836
 10
194.735
 20
192.186
 30
0.000000
  70
    32
  0
VERTEX
  8
0
  5
837
 10
194.653
 20
192.160
 30
0.000000
  70
    32
  0
VERTEX
  8
0
  5
838
 10
194.573
 20
192.129
 30
0.000000
  70
    32
  0
VERTEX
  8
0
  5
839
 10
194.494
 20
192.092
 30
0.000000
  70
    32
  0
VERTEX
  8
0
  5
83A
 10
194.416
 20
192.049
 30
0.000000
  70
    32
  0
VERTEX
  8
0
  5
83B
 10
194.340
 20
192.002
 30
0.000000
  70
    32
  0
VERTEX
  8
0
  5
83C
 10
194.266
 20
191.949
 30
0.000000
  70
    32
  0
VERTEX
  8
0
  5
83D
 10
194.193
 20
191.890
 30
0.000000
  70
    32
  0
VERTEX
  8
0
  5
83E
 10
194.123
 20
191.827
 30
0.000000
  70
    32
  0
VERTEX
  8
0
  5
83F
 10
194.055
 20
191.760
 30
0.000000
  70
    32
  0
VERTEX
  8
0
  5
840
 10
193.989
 20
191.687
 30
0.000000
  70
    32
  0
VERTEX
  8
0
  5
841
 10
193.926
 20
191.610
 30
0.000000
  70
    32
  0
VERTEX
  8
0
  5
842
 10
193.866
 20
191.529
 30
0.000000
  70
    32
  0
VERTEX
  8
0
  5
843
 10
193.808
 20
191.444
 30
0.000000
  70
    32
  0
VERTEX
  8
0
  5
844
 10
193.754
 20
191.354
 30
0.000000
  70
    32
  0
VERTEX
  8
0
  5
845
 10
193.703
 20
191.262
 30
0.000000
  70
    32
  0
VERTEX
  8
0
  5
846
 10
193.655
 20
191.165
 30
0.000000
  70
    32
  0
VERTEX
  8
0
  5
847
 10
193.610
 20
191.066
 30
0.000000
  70
    32
  0
VERTEX
  8
0
  5
848
 10
193.569
 20
190.963
 30
0.000000
  70
    32
  0
VERTEX
  8
0
  5
849
 10
193.532
 20
190.858
 30
0.000000
  70
    32
  0
VERTEX
  8
0
  5
84A
 10
193.498
 20
190.750
 30
0.000000
  70
    32
  0
VERTEX
  8
0
  5
84B
 10
193.468
 20
190.640
 30
0.000000
  70
    32
  0
VERTEX
  8
0
  5
84C
 10
193.442
 20
190.529
 30
0.000000
  70
    32
  0
VERTEX
  8
0
  5
84D
 10
193.420
 20
190.415
 30
0.000000
  70
    32
  0
VERTEX
  8
0
  5
84E
 10
193.401
 20
190.300
 30
0.000000
  70
    32
  0
VERTEX
  8
0
  5
84F
 10
193.387
 20
190.184
 30
0.000000
  70
    32
  0
VERTEX
  8
0
  5
850
 10
193.377
 20
190.067
 30
0.000000
  70
    32
  0
VERTEX
  8
0
  5
851
 10
193.371
 20
189.950
 30
0.000000
  70
    32
  0
VERTEX
  8
0
  5
852
 10
193.369
 20
189.832
 30
0.000000
  70
    32
  0
VERTEX
  8
0
  5
853
 10
193.371
 20
189.714
 30
0.000000
  70
    32
  0
VERTEX
  8
0
  5
854
 10
193.377
 20
189.597
 30
0.000000
  70
    32
  0
VERTEX
  8
0
  5
855
 10
193.387
 20
189.480
 30
0.000000
  70
    32
  0
VERTEX
  8
0
  5
856
 10
193.401
 20
189.364
 30
0.000000
  70
    32
  0
VERTEX
  8
0
  5
857
 10
193.420
 20
189.249
 30
0.000000
  70
    32
  0
VERTEX
  8
0
  5
858
 10
193.442
 20
189.135
 30
0.000000
  70
    32
  0
VERTEX
  8
0
  5
859
 10
193.468
 20
189.023
 30
0.000000
  70
    32
  0
VERTEX
  8
0
  5
85A
 10
193.498
 20
188.914
 30
0.000000
  70
    32
  0
VERTEX
  8
0
  5
85B
 10
193.532
 20
188.806
 30
0.000000
  70
    32
  0
VERTEX
  8
0
  5
85C
 10
193.569
 20
188.701
 30
0.000000
  70
    32
  0
VERTEX
  8
0
  5
85D
 10
193.610
 20
188.598
 30
0.000000
  70
    32
  0
VERTEX
  8
0
  5
85E
 10
193.655
 20
188.499
 30
0.000000
  70
    32
  0
VERTEX
  8
0
  5
85F
 10
193.703
 20
188.402
 30
0.000000
  70
    32
  0
VERTEX
  8
0
  5
860
 10
193.754
 20
188.309
 30
0.000000
  70
    32
  0
VERTEX
  8
0
  5
861
 10
193.808
 20
188.220
 30
0.000000
  70
    32
  0
VERTEX
  8
0
  5
862
 10
193.866
 20
188.135
 30
0.000000
  70
    32
  0
VERTEX
  8
0
  5
863
 10
193.926
 20
188.054
 30
0.000000
  70
    32
  0
VERTEX
  8
0
  5
864
 10
193.989
 20
187.977
 30
0.000000
  70
    32
  0
VERTEX
  8
0
  5
865
 10
194.055
 20
187.904
 30
0.000000
  70
    32
  0
VERTEX
  8
0
  5
866
 10
194.123
 20
187.836
 30
0.000000
  70
    32
  0
VERTEX
  8
0
  5
867
 10
194.193
 20
187.773
 30
0.000000
  70
    32
  0
VERTEX
  8
0
  5
868
 10
194.266
 20
187.715
 30
0.000000
  70
    32
  0
VERTEX
  8
0
  5
869
 10
194.340
 20
187.662
 30
0.000000
  70
    32
  0
VERTEX
  8
0
  5
86A
 10
194.416
 20
187.615
 30
0.000000
  70
    32
  0
VERTEX
  8
0
  5
86B
 10
194.494
 20
187.572
 30
0.000000
  70
    32
  0
VERTEX
  8
0
  5
86C
 10
194.573
 20
187.535
 30
0.000000
  70
    32
  0
VERTEX
  8
0
  5
86D
 10
194.653
 20
187.504
 30
0.000000
  70
    32
  0
VERTEX
  8
0
  5
86E
 10
194.735
 20
187.478
 30
0.000000
  70
    32
  0
VERTEX
  8
0
  5
86F
 10
194.817
 20
187.458
 30
0.000000
  70
    32
  0
VERTEX
  8
0
  5
870
 10
194.899
 20
187.443
 30
0.000000
  70
    32
  0
VERTEX
  8
0
  5
871
 10
194.982
 20
187.435
 30
0.000000
  70
    32
  0
VERTEX
  8
0
  5
872
 10
195.066
 20
187.432
 30
0.000000
  70
    32
  0
VERTEX
  8
0
  5
873
 10
195.149
 20
187.435
 30
0.000000
  70
    32
  0
VERTEX
  8
0
  5
874
 10
195.232
 20
187.443
 30
0.000000
  70
    32
  0
VERTEX
  8
0
  5
875
 10
195.315
 20
187.458
 30
0.000000
  70
    32
  0
VERTEX
  8
0
  5
876
 10
195.397
 20
187.478
 30
0.000000
  70
    32
  0
VERTEX
  8
0
  5
877
 10
195.478
 20
187.504
 30
0.000000
  70
    32
  0
VERTEX
  8
0
  5
878
 10
195.558
 20
187.535
 30
0.000000
  70
    32
  0
VERTEX
  8
0
  5
879
 10
195.637
 20
187.572
 30
0.000000
  70
    32
  0
VERTEX
  8
0
  5
87A
 10
195.715
 20
187.615
 30
0.000000
  70
    32
  0
VERTEX
  8
0
  5
87B
 10
195.791
 20
187.662
 30
0.000000
  70
    32
  0
VERTEX
  8
0
  5
87C
 10
195.866
 20
187.715
 30
0.000000
  70
    32
  0
VERTEX
  8
0
  5
87D
 10
195.938
 20
187.773
 30
0.000000
  70
    32
  0
VERTEX
  8
0
  5
87E
 10
196.009
 20
187.836
 30
0.000000
  70
    32
  0
VERTEX
  8
0
  5
87F
 10
196.077
 20
187.904
 30
0.000000
  70
    32
  0
VERTEX
  8
0
  5
880
 10
196.142
 20
187.977
 30
0.000000
  70
    32
  0
VERTEX
  8
0
  5
881
 10
196.205
 20
188.054
 30
0.000000
  70
    32
  0
VERTEX
  8
0
  5
882
 10
196.266
 20
188.135
 30
0.000000
  70
    32
  0
VERTEX
  8
0
  5
883
 10
196.323
 20
188.220
 30
0.000000
  70
    32
  0
VERTEX
  8
0
  5
884
 10
196.378
 20
188.309
 30
0.000000
  70
    32
  0
VERTEX
  8
0
  5
885
 10
196.429
 20
188.402
 30
0.000000
  70
    32
  0
VERTEX
  8
0
  5
886
 10
196.477
 20
188.499
 30
0.000000
  70
    32
  0
VERTEX
  8
0
  5
887
 10
196.521
 20
188.598
 30
0.000000
  70
    32
  0
VERTEX
  8
0
  5
888
 10
196.562
 20
188.701
 30
0.000000
  70
    32
  0
VERTEX
  8
0
  5
889
 10
196.600
 20
188.806
 30
0.000000
  70
    32
  0
VERTEX
  8
0
  5
88A
 10
196.634
 20
188.914
 30
0.000000
  70
    32
  0
VERTEX
  8
0
  5
88B
 10
196.664
 20
189.023
 30
0.000000
  70
    32
  0
VERTEX
  8
0
  5
88C
 10
196.690
 20
189.135
 30
0.000000
  70
    32
  0
VERTEX
  8
0
  5
88D
 10
196.712
 20
189.249
 30
0.000000
  70
    32
  0
VERTEX
  8
0
  5
88E
 10
196.730
 20
189.364
 30
0.000000
  70
    32
  0
VERTEX
  8
0
  5
88F
 10
196.744
 20
189.480
 30
0.000000
  70
    32
  0
VERTEX
  8
0
  5
890
 10
196.755
 20
189.597
 30
0.000000
  70
    32
  0
VERTEX
  8
0
  5
891
 10
196.761
 20
189.714
 30
0.000000
  70
    32
  0
VERTEX
  8
0
  5
892
 10
196.763
 20
189.832
 30
0.000000
  70
    32
  0
VERTEX
  8
0
  5
893
 10
196.761
 20
189.950
 30
0.000000
  70
    32
  0
VERTEX
  8
0
  5
894
 10
196.755
 20
190.067
 30
0.000000
  70
    32
  0
VERTEX
  8
0
  5
895
 10
196.744
 20
190.184
 30
0.000000
  70
    32
  0
VERTEX
  8
0
  5
896
 10
196.730
 20
190.300
 30
0.000000
  70
    32
  0
VERTEX
  8
0
  5
897
 10
196.712
 20
190.415
 30
0.000000
  70
    32
  0
VERTEX
  8
0
  5
898
 10
196.690
 20
190.529
 30
0.000000
  70
    32
  0
VERTEX
  8
0
  5
899
 10
196.664
 20
190.640
 30
0.000000
  70
    32
  0
VERTEX
  8
0
  5
89A
 10
196.634
 20
190.750
 30
0.000000
  70
    32
  0
VERTEX
  8
0
  5
89B
 10
196.600
 20
190.858
 30
0.000000
  70
    32
  0
VERTEX
  8
0
  5
89C
 10
196.562
 20
190.963
 30
0.000000
  70
    32
  0
VERTEX
  8
0
  5
89D
 10
196.521
 20
191.066
 30
0.000000
  70
    32
  0
VERTEX
  8
0
  5
89E
 10
196.477
 20
191.165
 30
0.000000
  70
    32
  0
VERTEX
  8
0
  5
89F
 10
196.429
 20
191.262
 30
0.000000
  70
    32
  0
VERTEX
  8
0
  5
8A0
 10
196.378
 20
191.354
 30
0.000000
  70
    32
  0
VERTEX
  8
0
  5
8A1
 10
196.323
 20
191.444
 30
0.000000
  70
    32
  0
VERTEX
  8
0
  5
8A2
 10
196.266
 20
191.529
 30
0.000000
  70
    32
  0
VERTEX
  8
0
  5
8A3
 10
196.205
 20
191.610
 30
0.000000
  70
    32
  0
VERTEX
  8
0
  5
8A4
 10
196.142
 20
191.687
 30
0.000000
  70
    32
  0
VERTEX
  8
0
  5
8A5
 10
196.077
 20
191.760
 30
0.000000
  70
    32
  0
VERTEX
  8
0
  5
8A6
 10
196.009
 20
191.827
 30
0.000000
  70
    32
  0
VERTEX
  8
0
  5
8A7
 10
195.938
 20
191.890
 30
0.000000
  70
    32
  0
VERTEX
  8
0
  5
8A8
 10
195.866
 20
191.949
 30
0.000000
  70
    32
  0
VERTEX
  8
0
  5
8A9
 10
195.791
 20
192.002
 30
0.000000
  70
    32
  0
VERTEX
  8
0
  5
8AA
 10
195.715
 20
192.049
 30
0.000000
  70
    32
  0
VERTEX
  8
0
  5
8AB
 10
195.637
 20
192.092
 30
0.000000
  70
    32
  0
VERTEX
  8
0
  5
8AC
 10
195.558
 20
192.129
 30
0.000000
  70
    32
  0
VERTEX
  8
0
  5
8AD
 10
195.478
 20
192.160
 30
0.000000
  70
    32
  0
VERTEX
  8
0
  5
8AE
 10
195.397
 20
192.186
 30
0.000000
  70
    32
  0
VERTEX
  8
0
  5
8AF
 10
195.315
 20
192.206
 30
0.000000
  70
    32
  0
VERTEX
  8
0
  5
8B0
 10
195.232
 20
192.220
 30
0.000000
  70
    32
  0
VERTEX
  8
0
  5
8B1
 10
195.149
 20
192.229
 30
0.000000
  70
    32
  0
VERTEX
  8
0
  5
8B2
 10
195.066
 20
192.232
 30
0.000000
  70
    32
  0
SEQEND
  8
0
  5
8B3
  0
LINE
  5
303
  8
1
 10
199.45834095223191
 20
202.3687931175717
 30
0.0
 11
199.45834095223191
 21
194.22099816245139
 31
0.0
  0
LINE
  5
304
  8
0
 10
205.6731012437055
 20
213.3319433427871
 30
0.0
 11
205.6731012437055
 21
183.3319433427871
 31
0.0
  0
LINE
  5
308
  8
0
 10
142.05509394667291
 20
121.6125005360993
 30
0.0
 11
142.05509394667291
 21
151.6125005360993
 31
0.0
  0
LINE
  5
30A
  8
0
 10
112.0550939466729
 20
151.61212111265419
 30
0.0
 11
112.0550939466729
 21
121.61212111265429
 31
0.0
  0
LINE
  5
30B
  8
1
 10
127.055093946673
 20
156.61212111265431
 30
0.0
 11
127.055093946673
 21
116.61212111265429
 31
0.0
  0
LINE
  5
30C
  8
1
 10
107.0550939466729
 20
136.61212111265431
 30
0.0
 11
147.05509394667291
 21
136.61212111265431
 31
0.0
  0
LINE
  5
30D
  8
0
 10
142.05509394667291
 20
151.61212111265419
 30
0.0
 11
112.0550939466729
 21
151.61212111265419
 31
0.0
  0
LINE
  5
30E
  8
0
 10
142.05509394667291
 20
133.61212111265431
 30
0.0
 11
112.0550939466729
 21
133.61212111265431
 31
0.0
  0
LINE
  5
30F
  8
0
 10
142.05509394667291
 20
139.61212111265431
 30
0.0
 11
112.0550939466729
 21
139.61212111265431
 31
0.0
  0
CIRCLE
  5
310
  8
0
 10
127.055093946673
 20
136.61212111265431
 30
0.0
 40
2.75
  0
LINE
  5
311
  8
0
 10
142.05509394667291
 20
121.61212111265429
 30
0.0
 11
112.0550939466729
 21
121.61212111265429
 31
0.0
  0
TEXT
  5
413
  8
0
 62
     3
 10
0.0
 20
0.0
 30
0.0
 40
10.0
  1
L6-AJC3030N
  7
STANDARD1
  0
ENDSEC
  0
EOF
