  0
SECTION
  2
HEADER
  9
$ACADVER
  1
AC1009
  9
$INSBASE
 10
0.0
 20
0.0
 30
0.0
  9
$EXTMIN
 10
0.0
 20
-2.960436562073669
 30
0.0
  9
$EXTMAX
 10
275.61994283192649
 20
170.96953645596849
 30
0.0
  9
$LIMMIN
 10
0.0
 20
0.0
  9
$LIMMAX
 10
375.0
 20
270.0
  9
$ORTHOMODE
 70
     1
  9
$REGENMODE
 70
     1
  9
$FILLMODE
 70
     1
  9
$QTEXTMODE
 70
     0
  9
$MIRRTEXT
 70
     0
  9
$DRAGMODE
 70
     2
  9
$LTSCALE
 40
6.0
  9
$OSMODE
 70
  3071
  9
$ATTMODE
 70
     1
  9
$TEXTSIZE
 40
0.2
  9
$TRACEWID
 40
0.05
  9
$TEXTSTYLE
  7
STANDARD
  9
$CLAYER
  8
0
  9
$CELTYPE
  6
BYLAYER
  9
$CECOLOR
 62
   256
  9
$DIMSCALE
 40
1.0
  9
$DIMASZ
 40
3.0
  9
$DIMEXO
 40
1.0
  9
$DIMDLI
 40
6.0
  9
$DIMRND
 40
0.0
  9
$DIMDLE
 40
0.0
  9
$DIMEXE
 40
1.0
  9
$DIMTP
 40
495.0
  9
$DIMTM
 40
0.0
  9
$DIMTXT
 40
3.0
  9
$DIMCEN
 40
0.0
  9
$DIMTSZ
 40
0.0
  9
$DIMTOL
 70
     0
  9
$DIMLIM
 70
     0
  9
$DIMTIH
 70
     0
  9
$DIMTOH
 70
     0
  9
$DIMSE1
 70
     0
  9
$DIMSE2
 70
     0
  9
$DIMTAD
 70
     1
  9
$DIMZIN
 70
     0
  9
$DIMBLK
  1

  9
$DIMASO
 70
     0
  9
$DIMSHO
 70
     0
  9
$DIMPOST
  1

  9
$DIMAPOST
  1

  9
$DIMALT
 70
     0
  9
$DIMALTD
 70
     2
  9
$DIMALTF
 40
25.399999999999999
  9
$DIMLFAC
 40
1.0
  9
$DIMTOFL
 70
     1
  9
$DIMTVP
 40
0.0
  9
$DIMTIX
 70
     1
  9
$DIMSOXD
 70
     0
  9
$DIMSAH
 70
     0
  9
$DIMBLK1
  1

  9
$DIMBLK2
  1

  9
$DIMSTYLE
  2
STANDARD
  9
$DIMCLRD
 70
     0
  9
$DIMCLRE
 70
     0
  9
$DIMCLRT
 70
     4
  9
$DIMTFAC
 40
1.0
  9
$DIMGAP
 40
1.0
  9
$LUNITS
 70
     2
  9
$LUPREC
 70
     4
  9
$SKETCHINC
 40
0.1
  9
$FILLETRAD
 40
2.0
  9
$AUNITS
 70
     0
  9
$AUPREC
 70
     0
  9
$MENU
  1
C:\R13\WIN\SUPPORT\ACAD-I
  9
$ELEVATION
 40
0.0
  9
$PELEVATION
 40
0.0
  9
$THICKNESS
 40
0.0
  9
$LIMCHECK
 70
     0
  9
$BLIPMODE
 70
     0
  9
$CHAMFERA
 40
0.0
  9
$CHAMFERB
 40
0.0
  9
$SKPOLY
 70
     0
  9
$TDCREATE
 40
2450834.7095229169
  9
$TDUPDATE
 40
2456597.5614401279
  9
$TDINDWG
 40
0.0409902431
  9
$TDUSRTIMER
 40
0.0409902431
  9
$USRTIMER
 70
     1
  9
$ANGBASE
 50
0.0
  9
$ANGDIR
 70
     0
  9
$PDMODE
 70
     0
  9
$PDSIZE
 40
0.0
  9
$PLINEWID
 40
0.0
  9
$COORDS
 70
     1
  9
$SPLFRAME
 70
     0
  9
$SPLINETYPE
 70
     6
  9
$SPLINESEGS
 70
     8
  9
$ATTDIA
 70
     0
  9
$ATTREQ
 70
     1
  9
$HANDLING
 70
     1
  9
$HANDSEED
  5
A8A
  9
$SURFTAB1
 70
     6
  9
$SURFTAB2
 70
     6
  9
$SURFTYPE
 70
     6
  9
$SURFU
 70
     6
  9
$SURFV
 70
     6
  9
$UCSNAME
  2

  9
$UCSORG
 10
0.0
 20
0.0
 30
0.0
  9
$UCSXDIR
 10
1.0
 20
0.0
 30
0.0
  9
$UCSYDIR
 10
0.0
 20
1.0
 30
0.0
  9
$PUCSNAME
  2

  9
$PUCSORG
 10
0.0
 20
0.0
 30
0.0
  9
$PUCSXDIR
 10
1.0
 20
0.0
 30
0.0
  9
$PUCSYDIR
 10
0.0
 20
1.0
 30
0.0
  9
$USERI1
 70
     4
  9
$USERI2
 70
     1
  9
$USERI3
 70
     0
  9
$USERI4
 70
     0
  9
$USERI5
 70
     0
  9
$USERR1
 40
1.0
  9
$USERR2
 40
3.0
  9
$USERR3
 40
3.0
  9
$USERR4
 40
3.0
  9
$USERR5
 40
10.0
  9
$WORLDVIEW
 70
     1
  9
$SHADEDGE
 70
     3
  9
$SHADEDIF
 70
    70
  9
$TILEMODE
 70
     1
  9
$MAXACTVP
 70
    16
  9
$PLIMCHECK
 70
     0
  9
$PEXTMIN
 10
1.0000000000000000E+020
 20
1.0000000000000000E+020
 30
1.0000000000000000E+020
  9
$PEXTMAX
 10
-1.0000000000000000E+020
 20
-1.0000000000000000E+020
 30
-1.0000000000000000E+020
  9
$PLIMMIN
 10
0.0
 20
0.0
  9
$PLIMMAX
 10
12.0
 20
9.0
  9
$UNITMODE
 70
     0
  9
$VISRETAIN
 70
     0
  9
$PLINEGEN
 70
     0
  9
$PSLTSCALE
 70
     0
  0
ENDSEC
  0
SECTION
  2
TABLES
  0
TABLE
  2
VPORT
 70
     1
  0
VPORT
  2
*ACTIVE
 70
     0
 10
0.0
 20
0.0
 11
1.0
 21
1.0
 12
187.49427839065231
 22
162.8616388594717
 13
0.0
 23
0.0
 14
10.0
 24
10.0
 15
10.0
 25
10.0
 16
0.0
 26
0.0
 36
1.0
 17
0.0
 27
0.0
 37
0.0
 40
334.81001162774987
 41
1.9089595375722539
 42
50.0
 43
0.0
 44
0.0
 50
0.0
 51
0.0
 71
     0
 72
   100
 73
     1
 74
     0
 75
     0
 76
     0
 77
     0
 78
     0
  0
ENDTAB
  0
TABLE
  2
LTYPE
 70
     3
  0
LTYPE
  2
CONTINUOUS
 70
     0
  3
Solid Line
 72
    65
 73
     0
 40
0.0
  0
LTYPE
  2
CENTER
 70
     0
  3
____ _ ____ _ ____ _ ____ _ ____ _ ____ _ ____
 72
    65
 73
     4
 40
2.0
 49
1.25
 49
-0.25
 49
0.25
 49
-0.25
  0
LTYPE
  2
PHANTOM2
 70
     0
  3
___ _ _ ___ _ _ ___ _ _ ___ _ _
 72
    65
 73
     6
 40
1.25
 49
0.625
 49
-0.125
 49
0.125
 49
-0.125
 49
0.125
 49
-0.125
  0
ENDTAB
  0
TABLE
  2
LAYER
 70
     3
  0
LAYER
  2
0
 70
     0
 62
     7
  6
CONTINUOUS
  0
LAYER
  2
1
 70
     0
 62
     1
  6
CENTER
  0
LAYER
  2
3
 70
     0
 62
     3
  6
CONTINUOUS
  0
ENDTAB
  0
TABLE
  2
STYLE
 70
     2
  0
STYLE
  2
STANDARD
 70
     0
 40
0.0
 41
1.0
 50
0.0
 71
     0
 42
0.2
  3
SIMPLEX
  4
BIGFONT
  0
STYLE
  2
STANDARD1
 70
     0
 40
0.0
 41
1.0
 50
0.0
 71
     0
 42
3.0
  3
txt
  4

  0
ENDTAB
  0
TABLE
  2
VIEW
 70
     0
  0
ENDTAB
  0
TABLE
  2
UCS
 70
     0
  0
ENDTAB
  0
TABLE
  2
APPID
 70
    27
  0
APPID
  2
ACAD
 70
     0
  0
APPID
  2
GENIUS_GENOREF_13
 70
     0
  0
APPID
  2
GENIUS_GENOENT_13
 70
     0
  0
APPID
  2
GENIUS_GENBH_13
 70
     0
  0
APPID
  2
GENIUS_GENOBJ_13
 70
     0
  0
APPID
  2
GENIUS_GENODEF_13
 70
     0
  0
APPID
  2
GENIUS_GENOLIS_13
 70
     0
  0
APPID
  2
GENIUS_GENOBJ-NBEHI-BHF_13
 70
     0
  0
APPID
  2
GENIUS_GENOBJ-NBEHI-BHB_13
 70
     0
  0
APPID
  2
GENIUS_GENOBJ-F-PART_13
 70
     0
  0
APPID
  2
GENIUS_GEFSTDP_13
 70
     0
  0
APPID
  2
GENIUS_GENOBJ-N-RSSYM_13
 70
     0
  0
APPID
  2
GENIUS_GENSYMENT_13
 70
     0
  0
APPID
  2
GENIUS_GENOBJ-N-TIT_13
 70
     0
  0
APPID
  2
GENIUS_GENTITLE_13
 70
     0
  0
APPID
  2
GENIUS_GENZVEED_13
 70
     0
  0
APPID
  2
GENIUS_GENOBJ-N-LEADER_13
 70
     0
  0
APPID
  2
GENIUS_GENOBJ-N-FIL_13
 70
     0
  0
APPID
  2
GENIUS_GENOBJ-N-SEC_13
 70
     0
  0
APPID
  2
GENIUS_GENOBJ-N-CRS_13
 70
     0
  0
APPID
  2
GENIUS_GENOBJ-N-ZOO_13
 70
     0
  0
APPID
  2
GENIUS_GENZOO_13
 70
     0
  0
APPID
  2
GENIUS_GENOBJ-F-TOL_13
 70
     0
  0
APPID
  2
GENIUS_GENFIL_13
 70
     0
  0
APPID
  2
GENIUS_GENOBJ-N-CHA_13
 70
     0
  0
APPID
  2
ACAD_MLEADERVER
 70
     0
  0
APPID
  2
ACAD_NAV_VCDISPLAY
 70
     0
  0
ENDTAB
  0
TABLE
  2
DIMSTYLE
 70
     1
  0
DIMSTYLE
  2
STANDARD
 70
     0
  3

  4

  5

  6

  7

 40
1.0
 41
0.18
 42
0.0625
 43
0.38
 44
0.18
 45
0.0
 46
0.0
 47
0.0
 48
0.0
140
0.18
141
0.09
142
0.0
143
25.399999999999999
144
1.0
145
0.0
146
1.0
147
0.09
 71
     0
 72
     0
 73
     1
 74
     1
 75
     0
 76
     0
 77
     0
 78
     0
170
     0
171
     2
172
     0
173
     0
174
     0
175
     0
176
     0
177
     0
178
     0
  0
ENDTAB
  0
ENDSEC
  0
SECTION
  2
BLOCKS
  0
BLOCK
  8
0
  2
$MODEL_SPACE
 70
     0
 10
0.0
 20
0.0
 30
0.0
  3
$MODEL_SPACE
  1

  0
ENDBLK
  5
949
  8
0
  0
BLOCK
 67
     1
  8
0
  2
$PAPER_SPACE
 70
     0
 10
0.0
 20
0.0
 30
0.0
  3
$PAPER_SPACE
  1

  0
ENDBLK
  5
947
 67
     1
  8
0
  0
BLOCK
  8
0
  2
STDGX5
 70
     0
 10
0.0
 20
0.0
 30
0.0
  3
STDGX5
  1

  0
ENDBLK
  5
4F
  8
0
  0
ENDSEC
  0
SECTION
  2
ENTITIES
  0
INSERT
  5
DE
  8
0
  2
STDGX5
 10
0.0
 20
0.0
 30
0.0
  0
INSERT
  5
DF
  8
0
  2
STDGX5
 10
0.0
 20
0.0
 30
0.0
  0
INSERT
  5
15C
  8
0
  2
STDGX5
 10
275.0
 20
0.0
 30
0.0
  0
INSERT
  5
15D
  8
0
  2
STDGX5
 10
275.0
 20
0.0
 30
0.0
  0
LINE
  5
6E9
  8
0
 10
272.40491616797692
 20
156.32889309956039
 30
0.0
 11
272.06837935101169
 21
150.66914840371689
 31
0.0
  0
LINE
  5
6EA
  8
0
 10
248.83849892996921
 20
156.2695364559552
 30
0.0
 11
249.17150631283869
 21
150.66914840371331
 31
0.0
  0
ARC
  5
6EB
  8
3
 10
260.61994283192649
 20
141.91021890721481
 30
0.0
 40
11.659999999999989
 50
1.364469021974521
 51
178.6355309780254
  0
ARC
  5
6EC
  8
0
 10
260.61994283192649
 20
141.7695364559651
 30
0.0
 40
14.5006824512534
 50
1.0172871900922149
 51
179.44412015165781
  0
LINE
  5
6ED
  8
0
 10
255.0699428319266
 20
145.11451290121161
 30
0.0
 11
260.61994283192649
 21
148.31880689521381
 31
0.0
  0
CIRCLE
  5
6EE
  8
0
 10
260.61994283192649
 20
141.9102189072091
 30
0.0
 40
5.0
  0
LINE
  5
6EF
  8
0
 10
255.0699428319266
 20
138.7059249132067
 30
0.0
 11
260.61994283192649
 21
135.50163091920419
 31
0.0
  0
LINE
  5
6F1
  8
0
 10
274.47530863217418
 20
126.4102189072091
 30
0.0
 11
246.7645770316789
 21
126.4102189072091
 31
0.0
  0
LINE
  5
6F2
  8
0
 10
245.61994283192661
 20
119.4102189072089
 30
0.0
 11
275.61994283192649
 21
119.410218907209
 31
0.0
  0
LINE
  5
6F3
  8
3
 10
248.59577947521379
 20
126.7602749571661
 30
0.0
 11
248.96324903956639
 21
142.18786946304431
 31
0.0
  0
LINE
  5
6F4
  8
0
 10
245.61994283192661
 20
119.410218907209
 30
0.0
 11
246.1215459211879
 21
142.0269827042828
 31
0.0
  0
ARC
  5
6F7
  8
0
 10
246.7645770316789
 20
125.4102189072089
 30
0.0
 40
1.0
 50
90.000000000000071
 51
178.98271280990781
1001
GENIUS_GENODEF_13
1002
{
1000
HIER
1070
     0
1002
}
1002
{
1000
MANEDIT
1070
     0
1002
}
1002
{
1000
NOSEL
1070
     0
1002
}
1002
{
1000
BEHIND
1070
     0
1002
}
1002
{
1000
REACTOR
1002
}
1001
GENIUS_GENOBJ-N-FIL_13
1002
{
1000
OWNER
1000
GEN
1002
}
  0
LINE
  5
6F8
  8
0
 10
255.0699428319266
 20
145.11451290121161
 30
0.0
 11
255.0699428319266
 21
138.70592491320639
 31
0.0
  0
LINE
  5
6F9
  8
0
 10
275.61994283192649
 20
119.410218907209
 30
0.0
 11
275.11833974266523
 21
142.0269827042828
 31
0.0
  0
LINE
  5
6FA
  8
3
 10
272.64410618863951
 20
126.7602749571526
 30
0.0
 11
272.27663662428671
 21
142.18786946304431
 31
0.0
  0
ARC
  5
6FD
  8
0
 10
274.47530863217418
 20
125.4102189072089
 30
0.0
 40
1.0
 50
1.017287190092135
 51
89.999999999999915
1001
GENIUS_GENODEF_13
1002
{
1000
HIER
1070
     0
1002
}
1002
{
1000
MANEDIT
1070
     0
1002
}
1002
{
1000
NOSEL
1070
     0
1002
}
1002
{
1000
BEHIND
1070
     0
1002
}
1002
{
1000
REACTOR
1002
}
1001
GENIUS_GENOBJ-N-FIL_13
1002
{
1000
OWNER
1000
GEN
1002
}
  0
LINE
  5
6FE
  8
0
 10
266.16994283192651
 20
145.1145129012113
 30
0.0
 11
266.16994283192651
 21
138.70592491320639
 31
0.0
  0
CIRCLE
  5
6FF
  8
0
 10
260.61994283192649
 20
141.9102189072091
 30
0.0
 40
1.7350000000000001
  0
LINE
  5
700
  8
0
 10
260.61994283192649
 20
135.50163091920419
 30
0.0
 11
266.16994283192651
 21
138.70592491320639
 31
0.0
  0
LINE
  5
701
  8
0
 10
260.61994283192649
 20
148.31880689521381
 30
0.0
 11
266.16994283192651
 21
145.1145129012113
 31
0.0
  0
LINE
  5
703
  8
0
 10
245.61994283192479
 20
164.26953645596831
 30
0.0
 11
275.61994283192507
 21
164.26953645596859
 31
0.0
  0
LINE
  5
704
  8
3
 10
272.40678265581789
 20
156.2695364559697
 30
0.0
 11
248.8384989299694
 21
156.2695364559697
 31
0.0
  0
LINE
  5
705
  8
0
 10
274.41324392997109
 20
157.26953645596831
 30
0.0
 11
246.8266417338788
 21
157.2695364559699
 31
0.0
  0
LINE
  5
706
  8
0
 10
245.8267993499442
 20
158.2517823778978
 30
0.0
 11
245.61994283192479
 21
164.26953645596859
 31
0.0
  0
ARC
  5
707
  8
0
 10
246.82664173387889
 20
158.26953645596831
 30
0.0
 40
1.0
 50
181.01728719009211
 51
269.99999999999682
1001
GENIUS_GENODEF_13
1002
{
1000
HIER
1070
     0
1002
}
1002
{
1000
MANEDIT
1070
     0
1002
}
1002
{
1000
NOSEL
1070
     0
1002
}
1002
{
1000
BEHIND
1070
     0
1002
}
1002
{
1000
REACTOR
1002
}
1001
GENIUS_GENOBJ-N-FIL_13
1002
{
1000
OWNER
1000
GEN
1002
}
  0
ARC
  5
708
  8
0
 10
247.83673265580879
 20
156.26953645596831
 30
0.0
 40
1.0
 50
3.4028853427626071
 51
89.999999999999915
1001
GENIUS_GENODEF_13
1002
{
1000
HIER
1070
     0
1002
}
1002
{
1000
MANEDIT
1070
     0
1002
}
1002
{
1000
NOSEL
1070
     0
1002
}
1002
{
1000
BEHIND
1070
     0
1002
}
1002
{
1000
REACTOR
1002
}
1001
GENIUS_GENOBJ-N-FIL_13
1002
{
1000
OWNER
1000
GEN
1002
}
  0
LINE
  5
70D
  8
0
 10
275.41308631390569
 20
158.2517823778978
 30
0.0
 11
275.61994283192507
 21
164.26953645596859
 31
0.0
  0
ARC
  5
70E
  8
0
 10
273.4031530080411
 20
156.26953645596831
 30
0.0
 40
1.0
 50
90.000000000000071
 51
176.5971146572374
1001
GENIUS_GENODEF_13
1002
{
1000
HIER
1070
     0
1002
}
1002
{
1000
MANEDIT
1070
     0
1002
}
1002
{
1000
NOSEL
1070
     0
1002
}
1002
{
1000
BEHIND
1070
     0
1002
}
1002
{
1000
REACTOR
1002
}
1001
GENIUS_GENOBJ-N-FIL_13
1002
{
1000
OWNER
1000
GEN
1002
}
  0
ARC
  5
70F
  8
0
 10
274.41324392997109
 20
158.26953645596831
 30
0.0
 40
1.0
 50
270.00000000000011
 51
358.98271280990792
1001
GENIUS_GENODEF_13
1002
{
1000
HIER
1070
     0
1002
}
1002
{
1000
MANEDIT
1070
     0
1002
}
1002
{
1000
NOSEL
1070
     0
1002
}
1002
{
1000
BEHIND
1070
     0
1002
}
1002
{
1000
REACTOR
1002
}
1001
GENIUS_GENOBJ-N-FIL_13
1002
{
1000
OWNER
1000
GEN
1002
}
  0
CIRCLE
  5
710
  8
0
 10
96.1991583900151
 20
141.76953645596819
 30
0.0
 40
5.0
  0
ARC
  5
711
  8
0
 10
96.199158390016706
 20
141.76953645596501
 30
0.0
 40
10.90000000000159
 50
183.40288534276249
 51
356.59711465723751
  0
LINE
  5
713
  8
0
 10
82.405857291970506
 20
157.26953645596831
 30
0.0
 11
109.99245948806291
 21
157.2695364559699
 31
0.0
  0
LINE
  5
714
  8
0
 10
111.19915839001681
 20
164.26953645596831
 30
0.0
 11
81.199158390016578
 21
164.26953645596859
 31
0.0
  0
LINE
  5
715
  8
3
 10
84.412318566123744
 20
156.2695364559697
 30
0.0
 11
107.9806022919722
 21
156.2695364559697
 31
0.0
  0
LINE
  5
717
  8
0
 10
82.343792589767418
 20
126.4102189072091
 30
0.0
 11
110.0545241902628
 21
126.4102189072091
 31
0.0
  0
LINE
  5
718
  8
0
 10
111.1991583900151
 20
119.4102189072089
 30
0.0
 11
81.1991583900151
 21
119.410218907209
 31
0.0
  0
LINE
  5
719
  8
0
 10
84.417714488059346
 20
156.2695364559552
 30
0.0
 11
85.318376833314687
 21
141.1225490408126
 31
0.0
  0
LINE
  5
71A
  8
0
 10
184.4798270496062
 20
141.91238932011311
 30
0.0
 11
184.22646185995779
 21
156.42767131364619
 31
0.0
  0
LINE
  5
71B
  8
0
 10
170.54897898698471
 20
149.13772224585821
 30
0.0
 11
168.33653816875031
 21
152.6105586884666
 31
0.0
  0
LINE
  5
71C
  8
0
 10
167.5991815904251
 20
156.39075955403581
 30
0.0
 11
167.5991815904251
 21
127.4102189072089
 31
0.0
  0
LINE
  5
71D
  8
0
 10
192.9487467630417
 20
119.4102189072089
 30
0.0
 11
192.65180479219109
 21
153.43639851370651
 31
0.0
  0
LINE
  5
71E
  8
0
 10
188.49850128679799
 20
131.4247989692899
 30
0.0
 11
188.49850128679799
 21
156.4102189072089
 31
0.0
  0
LINE
  5
71F
  8
0
 10
163.04874676304149
 20
164.4102189072089
 30
0.0
 11
163.34568873389219
 21
130.38403930071141
 31
0.0
  0
LINE
  5
720
  8
0
 10
185.5487038902383
 20
134.68271556855979
 30
0.0
 11
187.76114470847281
 21
131.20987912595109
 31
0.0
  0
LINE
  5
721
  8
0
 10
190.6987467630349
 20
117.7102189072088
 30
0.0
 11
185.69874676303991
 21
117.7102189072088
 31
0.0
  0
LINE
  5
722
  8
0
 10
187.49850128679799
 20
126.4102189072089
 30
0.0
 11
172.87087936128219
 21
126.4102189072089
 31
0.0
  0
LINE
  5
723
  8
0
 10
162.94874676304161
 20
119.4102189072089
 30
0.0
 11
192.9487467630417
 21
119.4102189072089
 31
0.0
  0
LINE
  5
724
  8
0
 10
171.6176664764771
 20
141.90804849430489
 30
0.0
 11
171.87103166612579
 21
127.3927665007581
 31
0.0
  0
LINE
  5
725
  8
0
 10
162.94874676304161
 20
119.4102189072089
 30
0.0
 11
163.00118412510781
 21
125.4189454427073
 31
0.0
  0
LINE
  5
726
  8
0
 10
165.19874676304821
 20
117.7102189072088
 30
0.0
 11
170.19874676304329
 21
117.7102189072088
 31
0.0
  0
ARC
  5
727
  8
0
 10
165.19874676304821
 20
118.2102189072088
 30
0.0
 40
0.5
 50
179.99999999953141
 51
270.00000000000063
1001
GENIUS_GENODEF_13
1002
{
1000
HIER
1070
     0
1002
}
1002
{
1000
MANEDIT
1070
     0
1002
}
1002
{
1000
NOSEL
1070
     0
1002
}
1002
{
1000
BEHIND
1070
     0
1002
}
1002
{
1000
REACTOR
1002
}
1001
GENIUS_GENOBJ-N-FIL_13
1002
{
1000
OWNER
1000
GEN
1002
}
  0
LINE
  5
728
  8
0
 10
164.69874676304821
 20
118.21021890721291
 30
0.0
 11
164.6987467630581
 21
119.4102189072089
 31
0.0
  0
ARC
  5
729
  8
0
 10
170.19874676304329
 20
118.2102189072088
 30
0.0
 40
0.5
 50
270.00000000000063
 51
0.0
1001
GENIUS_GENODEF_13
1002
{
1000
HIER
1070
     0
1002
}
1002
{
1000
MANEDIT
1070
     0
1002
}
1002
{
1000
NOSEL
1070
     0
1002
}
1002
{
1000
BEHIND
1070
     0
1002
}
1002
{
1000
REACTOR
1002
}
1001
GENIUS_GENOBJ-N-FIL_13
1002
{
1000
OWNER
1000
GEN
1002
}
  0
LINE
  5
72A
  8
0
 10
170.69874676304329
 20
118.2102189072088
 30
0.0
 11
170.69874676304329
 21
119.4102189072089
 31
0.0
  0
ARC
  5
72B
  8
0
 10
166.5991815904251
 20
127.4102189072089
 30
0.0
 40
1.0
 50
270.0
 51
0.0
1001
GENIUS_GENODEF_13
1002
{
1000
HIER
1070
     0
1002
}
1002
{
1000
MANEDIT
1070
     0
1002
}
1002
{
1000
NOSEL
1070
     0
1002
}
1002
{
1000
BEHIND
1070
     0
1002
}
1002
{
1000
REACTOR
1002
}
1001
GENIUS_GENOBJ-N-FIL_13
1002
{
1000
OWNER
1000
GEN
1002
}
  0
LINE
  5
72C
  8
0
 10
167.47525182161189
 20
130.21070923026829
 30
0.0
 11
165.93041161569801
 21
127.78579584009429
 31
0.0
  0
LINE
  5
72D
  8
0
 10
166.5991815904251
 20
126.4102189072089
 30
0.0
 11
164.00114604817199
 21
126.4102189072089
 31
0.0
  0
ARC
  5
72E
  8
0
 10
164.00114604817199
 20
125.4102189072089
 30
0.0
 40
1.0
 50
90.0
 51
179.4999999999998
1001
GENIUS_GENODEF_13
1002
{
1000
HIER
1070
     0
1002
}
1002
{
1000
MANEDIT
1070
     0
1002
}
1002
{
1000
NOSEL
1070
     0
1002
}
1002
{
1000
BEHIND
1070
     0
1002
}
1002
{
1000
REACTOR
1002
}
1001
GENIUS_GENOBJ-N-FIL_13
1002
{
1000
OWNER
1000
GEN
1002
}
  0
ARC
  5
72F
  8
0
 10
165.5087158927916
 20
128.0544456442677
 30
0.0
 40
0.5
 50
250.44306232643319
 51
327.49999999999869
1001
GENIUS_GENODEF_13
1002
{
1000
HIER
1070
     0
1002
}
1002
{
1000
MANEDIT
1070
     0
1002
}
1002
{
1000
NOSEL
1070
     0
1002
}
1002
{
1000
BEHIND
1070
     0
1002
}
1002
{
1000
REACTOR
1002
}
1001
GENIUS_GENOBJ-N-FIL_13
1002
{
1000
OWNER
1000
GEN
1002
}
  0
ARC
  5
730
  8
0
 10
166.3455745030848
 20
130.41021890720651
 30
0.0
 40
3.0
 50
180.50000000000011
 51
250.44306232643319
1001
GENIUS_GENODEF_13
1002
{
1000
HIER
1070
     0
1002
}
1002
{
1000
MANEDIT
1070
     0
1002
}
1002
{
1000
NOSEL
1070
     0
1002
}
1002
{
1000
BEHIND
1070
     0
1002
}
1002
{
1000
REACTOR
1002
}
1001
GENIUS_GENOBJ-N-FIL_13
1002
{
1000
OWNER
1000
GEN
1002
}
  0
ARC
  5
731
  8
0
 10
172.87087936128219
 20
127.4102189071952
 30
0.0
 40
1.0
 50
181.0000000000002
 51
270.0
1001
GENIUS_GENODEF_13
1002
{
1000
HIER
1070
     0
1002
}
1002
{
1000
MANEDIT
1070
     0
1002
}
1002
{
1000
NOSEL
1070
     0
1002
}
1002
{
1000
BEHIND
1070
     0
1002
}
1002
{
1000
REACTOR
1002
}
1001
GENIUS_GENOBJ-N-FIL_13
1002
{
1000
OWNER
1000
GEN
1002
}
  0
ARC
  5
732
  8
0
 10
167.0991815904251
 20
130.5402106433383
 30
0.0
 40
0.5
 50
318.7761330815062
 51
0.0
1001
GENIUS_GENODEF_13
1002
{
1000
HIER
1070
     0
1002
}
1002
{
1000
MANEDIT
1070
     0
1002
}
1002
{
1000
NOSEL
1070
     0
1002
}
1002
{
1000
BEHIND
1070
     0
1002
}
1002
{
1000
REACTOR
1002
}
1001
GENIUS_GENOBJ-N-FIL_13
1002
{
1000
OWNER
1000
GEN
1002
}
  0
ARC
  5
733
  8
0
 10
185.69874676303991
 20
118.2102189072088
 30
0.0
 40
0.5
 50
180.0
 51
269.99999999999937
1001
GENIUS_GENODEF_13
1002
{
1000
HIER
1070
     0
1002
}
1002
{
1000
MANEDIT
1070
     0
1002
}
1002
{
1000
NOSEL
1070
     0
1002
}
1002
{
1000
BEHIND
1070
     0
1002
}
1002
{
1000
REACTOR
1002
}
1001
GENIUS_GENOBJ-N-FIL_13
1002
{
1000
OWNER
1000
GEN
1002
}
  0
LINE
  5
734
  8
0
 10
185.19874676303991
 20
118.2102189072088
 30
0.0
 11
185.19874676303991
 21
119.4102189072089
 31
0.0
  0
LINE
  5
735
  8
0
 10
172.04883585683129
 20
139.90068503499239
 30
0.0
 11
172.0488956488926
 21
143.91968503454771
 31
0.0
  0
LINE
  5
736
  8
0
 10
171.8489965046366
 20
135.86017809192271
 30
0.0
 11
171.84917652052411
 21
147.96017660284889
 31
0.0
  0
LINE
  5
737
  8
3
 10
171.84905661692949
 20
139.9007028845256
 30
0.0
 11
172.04883585705261
 21
139.90069991234051
 31
0.0
  0
LINE
  5
738
  8
0
 10
171.84905364452311
 20
139.70090876705461
 30
0.0
 11
172.04883585683129
 21
139.90068503499239
 31
0.0
  0
LINE
  5
739
  8
0
 10
171.8489965046121
 20
135.8601766041902
 30
0.0
 11
171.7253899689062
 21
135.7365737463044
 31
0.0
1001
GENIUS_GENFIL_13
1070
     0
1040
0.3
1040
0.3
1040
0.0
1040
0.0
1002
{
1002
}
1001
GENIUS_GENODEF_13
1002
{
1000
HIER
1070
     0
1002
}
1002
{
1000
MANEDIT
1070
     0
1002
}
1002
{
1000
NOSEL
1070
     0
1002
}
1002
{
1000
BEHIND
1070
     0
1002
}
1002
{
1000
REACTOR
1002
}
1001
GENIUS_GENOBJ-N-CHA_13
1002
{
1000
OWNER
1000
GEN
1002
}
  0
ARC
  5
73A
  8
0
 10
160.78032948641049
 20
142.36280858805301
 30
0.0
 40
10.84674556344098
 50
357.60859061678292
 51
25.76172429647394
  0
LINE
  5
73B
  8
3
 10
171.8491164089908
 20
143.91970288408089
 30
0.0
 11
172.04888077176599
 21
143.91969991211701
 31
0.0
  0
LINE
  5
73C
  8
0
 10
172.0488956488926
 20
143.91968503454771
 30
0.0
 11
171.84911938095479
 21
144.11946724685589
 31
0.0
  0
LINE
  5
73D
  8
0
 10
170.54897898698471
 20
149.13772224585821
 30
0.0
 11
170.5490096432099
 21
147.07712479638801
 31
0.0
  0
LINE
  5
73E
  8
0
 10
170.84917985317719
 20
148.26019183723679
 30
0.0
 11
170.54917652070111
 21
147.96019743113581
 31
0.0
1001
GENIUS_GENFIL_13
1070
     0
1040
0.3
1040
0.3
1040
0.0
1040
0.0
1002
{
1002
}
1001
GENIUS_GENODEF_13
1002
{
1000
HIER
1070
     0
1002
}
1002
{
1000
MANEDIT
1070
     0
1002
}
1002
{
1000
NOSEL
1070
     0
1002
}
1002
{
1000
BEHIND
1070
     0
1002
}
1002
{
1000
REACTOR
1002
}
1001
GENIUS_GENOBJ-N-CHA_13
1002
{
1000
OWNER
1000
GEN
1002
}
  0
LINE
  5
73F
  8
0
 10
171.54918062671069
 20
148.26018142308149
 30
0.0
 11
171.84917652052411
 21
147.96017660284889
 31
0.0
1001
GENIUS_GENFIL_13
1070
     0
1040
0.3
1040
0.3
1040
0.0
1040
0.0
1002
{
1002
}
1001
GENIUS_GENODEF_13
1002
{
1000
HIER
1070
     0
1002
}
1002
{
1000
MANEDIT
1070
     0
1002
}
1002
{
1000
NOSEL
1070
     0
1002
}
1002
{
1000
BEHIND
1070
     0
1002
}
1002
{
1000
REACTOR
1002
}
1001
GENIUS_GENOBJ-N-CHA_13
1002
{
1000
OWNER
1000
GEN
1002
}
  0
LINE
  5
740
  8
0
 10
171.54918062671069
 20
148.26018142308149
 30
0.0
 11
170.84917985317719
 21
148.26019183723679
 31
0.0
  0
LINE
  5
741
  8
0
 10
184.0486576692519
 20
143.91975277942561
 30
0.0
 11
184.0485978771907
 21
139.90075277987029
 31
0.0
  0
ARC
  5
742
  8
0
 10
195.3171640396728
 20
141.45762922636479
 30
0.0
 40
10.84674556344098
 50
177.60859061678289
 51
205.76402556426851
  0
LINE
  5
743
  8
0
 10
184.2484970214467
 20
147.96025972249521
 30
0.0
 11
184.24831700555919
 21
135.860261211569
 31
0.0
  0
LINE
  5
744
  8
0
 10
184.0485978771907
 20
139.90075277987029
 30
0.0
 11
184.24837414512851
 21
139.700970567562
 31
0.0
  0
LINE
  5
745
  8
3
 10
184.24837711709239
 20
139.90073493033691
 30
0.0
 11
184.0486127543173
 21
139.90073790230099
 31
0.0
  0
LINE
  5
746
  8
0
 10
185.5487038902383
 20
134.68271556855979
 30
0.0
 11
185.5486732398503
 21
136.74292066572181
 31
0.0
  0
LINE
  5
747
  8
0
 10
185.54851453909859
 20
134.68271556855979
 30
0.0
 11
185.54848388287331
 21
136.74331301802999
 31
0.0
  0
LINE
  5
748
  8
0
 10
184.5483128993726
 20
135.5602563913364
 30
0.0
 11
184.24831700555919
 21
135.860261211569
 31
0.0
1001
GENIUS_GENFIL_13
1070
     0
1040
0.3
1040
0.3
1040
0.0
1040
0.0
1002
{
1002
}
1001
GENIUS_GENODEF_13
1002
{
1000
HIER
1070
     0
1002
}
1002
{
1000
MANEDIT
1070
     0
1002
}
1002
{
1000
NOSEL
1070
     0
1002
}
1002
{
1000
BEHIND
1070
     0
1002
}
1002
{
1000
REACTOR
1002
}
1001
GENIUS_GENOBJ-N-CHA_13
1002
{
1000
OWNER
1000
GEN
1002
}
  0
LINE
  5
749
  8
0
 10
185.24831367290611
 20
135.56024597718121
 30
0.0
 11
185.5483170053821
 21
135.86024038328219
 31
0.0
1001
GENIUS_GENFIL_13
1070
     0
1040
0.3
1040
0.3
1040
0.0
1040
0.0
1002
{
1002
}
1001
GENIUS_GENODEF_13
1002
{
1000
HIER
1070
     0
1002
}
1002
{
1000
MANEDIT
1070
     0
1002
}
1002
{
1000
NOSEL
1070
     0
1002
}
1002
{
1000
BEHIND
1070
     0
1002
}
1002
{
1000
REACTOR
1002
}
1001
GENIUS_GENOBJ-N-CHA_13
1002
{
1000
OWNER
1000
GEN
1002
}
  0
LINE
  5
74A
  8
0
 10
184.5483128993726
 20
135.5602563913364
 30
0.0
 11
185.24831367290611
 21
135.56024597718121
 31
0.0
  0
LINE
  5
74B
  8
3
 10
184.24843690915381
 20
143.9197349298922
 30
0.0
 11
184.04865766903069
 21
143.91973790207749
 31
0.0
  0
LINE
  5
74C
  8
0
 10
184.24843988156019
 20
144.1195290473633
 30
0.0
 11
184.0486576692519
 21
143.91975277942561
 31
0.0
  0
LINE
  5
74D
  8
0
 10
184.24849702147111
 20
147.9602612102278
 30
0.0
 11
184.37210355717701
 21
148.0838640681134
 31
0.0
1001
GENIUS_GENFIL_13
1070
     0
1040
0.3
1040
0.3
1040
0.0
1040
0.0
1002
{
1002
}
1001
GENIUS_GENODEF_13
1002
{
1000
HIER
1070
     0
1002
}
1002
{
1000
MANEDIT
1070
     0
1002
}
1002
{
1000
NOSEL
1070
     0
1002
}
1002
{
1000
BEHIND
1070
     0
1002
}
1002
{
1000
REACTOR
1002
}
1001
GENIUS_GENOBJ-N-CHA_13
1002
{
1000
OWNER
1000
GEN
1002
}
  0
LINE
  5
74E
  8
0
 10
188.49850128679799
 20
127.4102189072089
 30
0.0
 11
188.49850128679799
 21
137.91006343665251
 31
0.0
  0
ARC
  5
74F
  8
0
 10
190.6987467630349
 20
118.2102189072088
 30
0.0
 40
0.5
 50
269.99999999999937
 51
0.0000000004685852
1001
GENIUS_GENODEF_13
1002
{
1000
HIER
1070
     0
1002
}
1002
{
1000
MANEDIT
1070
     0
1002
}
1002
{
1000
NOSEL
1070
     0
1002
}
1002
{
1000
BEHIND
1070
     0
1002
}
1002
{
1000
REACTOR
1002
}
1001
GENIUS_GENOBJ-N-FIL_13
1002
{
1000
OWNER
1000
GEN
1002
}
  0
LINE
  5
750
  8
0
 10
191.1987467630349
 20
118.21021890721291
 30
0.0
 11
191.1987467630251
 21
119.4102189072089
 31
0.0
  0
ARC
  5
751
  8
0
 10
187.49850128679799
 20
127.4102189072089
 30
0.0
 40
1.0
 50
270.0
 51
0.0000000000003053
1001
GENIUS_GENODEF_13
1002
{
1000
HIER
1070
     0
1002
}
1002
{
1000
MANEDIT
1070
     0
1002
}
1002
{
1000
NOSEL
1070
     0
1002
}
1002
{
1000
BEHIND
1070
     0
1002
}
1002
{
1000
REACTOR
1002
}
1001
GENIUS_GENOBJ-N-FIL_13
1002
{
1000
OWNER
1000
GEN
1002
}
  0
ARC
  5
752
  8
0
 10
188.0985012867979
 20
131.4247989692899
 30
0.0
 40
0.4
 50
212.4999999999994
 51
0.0
1001
GENIUS_GENODEF_13
1002
{
1000
HIER
1070
     0
1002
}
1002
{
1000
MANEDIT
1070
     0
1002
}
1002
{
1000
NOSEL
1070
     0
1002
}
1002
{
1000
BEHIND
1070
     0
1002
}
1002
{
1000
REACTOR
1002
}
1001
GENIUS_GENOBJ-N-FIL_13
1002
{
1000
OWNER
1000
GEN
1002
}
  0
LINE
  5
753
  8
3
 10
84.174995033302139
 20
126.7602749571526
 30
0.0
 11
84.542464597654984
 21
142.18786946304431
 31
0.0
  0
LINE
  5
754
  8
0
 10
81.1991583900151
 20
119.410218907209
 30
0.0
 11
81.70076147927648
 21
142.0269827042828
 31
0.0
  0
ARC
  5
757
  8
0
 10
82.343792589767418
 20
125.4102189072089
 30
0.0
 40
1.0
 50
90.000000000000071
 51
178.98271280990781
1001
GENIUS_GENODEF_13
1002
{
1000
HIER
1070
     0
1002
}
1002
{
1000
MANEDIT
1070
     0
1002
}
1002
{
1000
NOSEL
1070
     0
1002
}
1002
{
1000
BEHIND
1070
     0
1002
}
1002
{
1000
REACTOR
1002
}
1001
GENIUS_GENOBJ-N-FIL_13
1002
{
1000
OWNER
1000
GEN
1002
}
  0
ARC
  5
758
  8
0
 10
96.1991583900151
 20
141.7695364559651
 30
0.0
 40
14.5006824512534
 50
142.13976127939301
 51
178.98271280990781
  0
ARC
  5
759
  8
3
 10
96.1991583900151
 20
141.91021890721481
 30
0.0
 40
11.659999999999989
 50
162.71780746622511
 51
178.6355309780254
  0
LINE
  5
75A
  8
0
 10
190.6987467630349
 20
166.110218907209
 30
0.0
 11
185.69874676303991
 21
166.11021890720889
 31
0.0
  0
LINE
  5
75B
  8
0
 10
193.04874676304161
 20
164.4102189072089
 30
0.0
 11
163.04874676304149
 21
164.4102189072089
 31
0.0
  0
LINE
  5
75C
  8
0
 10
168.59899223928531
 20
157.4102189072089
 30
0.0
 11
178.04874676304161
 21
157.4102189072089
 31
0.0
  0
ARC
  5
75D
  8
0
 10
167.99918159042511
 20
152.39563884512791
 30
0.0
 40
0.4
 50
32.499999999999403
 51
180.0
1001
GENIUS_GENODEF_13
1002
{
1000
HIER
1070
     0
1002
}
1002
{
1000
MANEDIT
1070
     0
1002
}
1002
{
1000
NOSEL
1070
     0
1002
}
1002
{
1000
BEHIND
1070
     0
1002
}
1002
{
1000
REACTOR
1002
}
1001
GENIUS_GENOBJ-N-FIL_13
1002
{
1000
OWNER
1000
GEN
1002
}
  0
ARC
  5
75E
  8
0
 10
168.59899223928531
 20
156.4102189072089
 30
0.0
 40
1.0
 50
90.0
 51
181.1150091858477
1001
GENIUS_GENODEF_13
1002
{
1000
HIER
1070
     0
1002
}
1002
{
1000
MANEDIT
1070
     0
1002
}
1002
{
1000
NOSEL
1070
     0
1002
}
1002
{
1000
BEHIND
1070
     0
1002
}
1002
{
1000
REACTOR
1002
}
1001
GENIUS_GENOBJ-N-FIL_13
1002
{
1000
OWNER
1000
GEN
1002
}
  0
LINE
  5
75F
  8
0
 10
165.19874676304821
 20
166.110218907209
 30
0.0
 11
170.19874676304329
 21
166.11021890720889
 31
0.0
  0
ARC
  5
760
  8
0
 10
165.19874676304821
 20
165.610218907209
 30
0.0
 40
0.5
 50
89.999999999999446
 51
180.00000000046859
1001
GENIUS_GENODEF_13
1002
{
1000
HIER
1070
     0
1002
}
1002
{
1000
MANEDIT
1070
     0
1002
}
1002
{
1000
NOSEL
1070
     0
1002
}
1002
{
1000
BEHIND
1070
     0
1002
}
1002
{
1000
REACTOR
1002
}
1001
GENIUS_GENOBJ-N-FIL_13
1002
{
1000
OWNER
1000
GEN
1002
}
  0
LINE
  5
761
  8
0
 10
164.69874676304821
 20
165.610218907205
 30
0.0
 11
164.6987467630581
 21
164.41021890720901
 31
0.0
  0
ARC
  5
762
  8
0
 10
170.19874676304329
 20
165.61021890720889
 30
0.0
 40
0.5
 50
0.0
 51
89.999999999999389
1001
GENIUS_GENODEF_13
1002
{
1000
HIER
1070
     0
1002
}
1002
{
1000
MANEDIT
1070
     0
1002
}
1002
{
1000
NOSEL
1070
     0
1002
}
1002
{
1000
BEHIND
1070
     0
1002
}
1002
{
1000
REACTOR
1002
}
1001
GENIUS_GENOBJ-N-FIL_13
1002
{
1000
OWNER
1000
GEN
1002
}
  0
LINE
  5
763
  8
0
 10
170.69874676304329
 20
165.61021890720889
 30
0.0
 11
170.69874676304329
 21
164.4102189072089
 31
0.0
  0
LINE
  5
764
  8
0
 10
178.04874676304161
 20
157.4102189072089
 30
0.0
 11
183.22661416480139
 21
157.4102189072089
 31
0.0
  0
ARC
  5
765
  8
0
 10
183.22661416480139
 20
156.4102189072089
 30
0.0
 40
1.0
 50
0.9999999999996834
 51
90.0
1001
GENIUS_GENODEF_13
1002
{
1000
HIER
1070
     0
1002
}
1002
{
1000
MANEDIT
1070
     0
1002
}
1002
{
1000
NOSEL
1070
     0
1002
}
1002
{
1000
BEHIND
1070
     0
1002
}
1002
{
1000
REACTOR
1002
}
1001
GENIUS_GENOBJ-N-FIL_13
1002
{
1000
OWNER
1000
GEN
1002
}
  0
ARC
  5
766
  8
0
 10
185.69874676303991
 20
165.61021890720889
 30
0.0
 40
0.5
 50
90.000000000000625
 51
180.0
1001
GENIUS_GENODEF_13
1002
{
1000
HIER
1070
     0
1002
}
1002
{
1000
MANEDIT
1070
     0
1002
}
1002
{
1000
NOSEL
1070
     0
1002
}
1002
{
1000
BEHIND
1070
     0
1002
}
1002
{
1000
REACTOR
1002
}
1001
GENIUS_GENOBJ-N-FIL_13
1002
{
1000
OWNER
1000
GEN
1002
}
  0
LINE
  5
767
  8
0
 10
185.19874676303991
 20
165.61021890720889
 30
0.0
 11
185.19874676303991
 21
164.4102189072089
 31
0.0
  0
LINE
  5
768
  8
0
 10
193.04874676304161
 20
164.4102189072089
 30
0.0
 11
192.99630940097529
 21
158.4014923717105
 31
0.0
  0
ARC
  5
769
  8
0
 10
189.6519190229985
 20
153.4102189072114
 30
0.0
 40
3.0
 50
0.5000000000001724
 51
70.443062326433221
1001
GENIUS_GENODEF_13
1002
{
1000
HIER
1070
     0
1002
}
1002
{
1000
MANEDIT
1070
     0
1002
}
1002
{
1000
NOSEL
1070
     0
1002
}
1002
{
1000
BEHIND
1070
     0
1002
}
1002
{
1000
REACTOR
1002
}
1001
GENIUS_GENOBJ-N-FIL_13
1002
{
1000
OWNER
1000
GEN
1002
}
  0
ARC
  5
76A
  8
0
 10
190.48877763329159
 20
155.76599217015021
 30
0.0
 40
0.5
 50
70.443062326433221
 51
147.49999999999861
1001
GENIUS_GENODEF_13
1002
{
1000
HIER
1070
     0
1002
}
1002
{
1000
MANEDIT
1070
     0
1002
}
1002
{
1000
NOSEL
1070
     0
1002
}
1002
{
1000
BEHIND
1070
     0
1002
}
1002
{
1000
REACTOR
1002
}
1001
GENIUS_GENOBJ-N-FIL_13
1002
{
1000
OWNER
1000
GEN
1002
}
  0
LINE
  5
76B
  8
0
 10
188.4985012867979
 20
153.57246359293291
 30
0.0
 11
190.06708191038521
 21
156.03464197432339
 31
0.0
  0
LINE
  5
76C
  8
0
 10
189.49850128679799
 20
157.4102189072089
 30
0.0
 11
191.99634747791109
 21
157.4102189072089
 31
0.0
  0
ARC
  5
76D
  8
0
 10
189.49850128679799
 20
156.4102189072089
 30
0.0
 40
1.0
 50
90.0
 51
180.0
1001
GENIUS_GENODEF_13
1002
{
1000
HIER
1070
     0
1002
}
1002
{
1000
MANEDIT
1070
     0
1002
}
1002
{
1000
NOSEL
1070
     0
1002
}
1002
{
1000
BEHIND
1070
     0
1002
}
1002
{
1000
REACTOR
1002
}
1001
GENIUS_GENOBJ-N-FIL_13
1002
{
1000
OWNER
1000
GEN
1002
}
  0
ARC
  5
76E
  8
0
 10
191.99634747791109
 20
158.4102189072089
 30
0.0
 40
1.0
 50
270.0
 51
359.49999999999977
1001
GENIUS_GENODEF_13
1002
{
1000
HIER
1070
     0
1002
}
1002
{
1000
MANEDIT
1070
     0
1002
}
1002
{
1000
NOSEL
1070
     0
1002
}
1002
{
1000
BEHIND
1070
     0
1002
}
1002
{
1000
REACTOR
1002
}
1001
GENIUS_GENOBJ-N-FIL_13
1002
{
1000
OWNER
1000
GEN
1002
}
  0
ARC
  5
76F
  8
0
 10
190.6987467630349
 20
165.610218907209
 30
0.0
 40
0.5
 50
359.99999999953138
 51
90.000000000000554
1001
GENIUS_GENODEF_13
1002
{
1000
HIER
1070
     0
1002
}
1002
{
1000
MANEDIT
1070
     0
1002
}
1002
{
1000
NOSEL
1070
     0
1002
}
1002
{
1000
BEHIND
1070
     0
1002
}
1002
{
1000
REACTOR
1002
}
1001
GENIUS_GENOBJ-N-FIL_13
1002
{
1000
OWNER
1000
GEN
1002
}
  0
LINE
  5
770
  8
0
 10
191.1987467630349
 20
165.610218907205
 30
0.0
 11
191.1987467630251
 21
164.41021890720901
 31
0.0
  0
LINE
  5
771
  8
0
 10
81.406014908035885
 20
158.2517823778978
 30
0.0
 11
81.199158390016578
 21
164.26953645596859
 31
0.0
  0
ARC
  5
772
  8
0
 10
83.415948213900492
 20
156.26953645596831
 30
0.0
 40
1.0
 50
3.4028853427626031
 51
89.999999999999915
1001
GENIUS_GENODEF_13
1002
{
1000
HIER
1070
     0
1002
}
1002
{
1000
MANEDIT
1070
     0
1002
}
1002
{
1000
NOSEL
1070
     0
1002
}
1002
{
1000
BEHIND
1070
     0
1002
}
1002
{
1000
REACTOR
1002
}
1001
GENIUS_GENOBJ-N-FIL_13
1002
{
1000
OWNER
1000
GEN
1002
}
  0
ARC
  5
773
  8
0
 10
82.405857291970506
 20
158.26953645596831
 30
0.0
 40
1.0
 50
181.01728719009219
 51
269.99999999999989
1001
GENIUS_GENODEF_13
1002
{
1000
HIER
1070
     0
1002
}
1002
{
1000
MANEDIT
1070
     0
1002
}
1002
{
1000
NOSEL
1070
     0
1002
}
1002
{
1000
BEHIND
1070
     0
1002
}
1002
{
1000
REACTOR
1002
}
1001
GENIUS_GENOBJ-N-FIL_13
1002
{
1000
OWNER
1000
GEN
1002
}
  0
LINE
  5
776
  8
0
 10
107.98413172606701
 20
156.3288930995603
 30
0.0
 11
107.0799399467157
 21
141.1225490408126
 31
0.0
  0
LINE
  5
777
  8
0
 10
111.1991583900151
 20
119.410218907209
 30
0.0
 11
110.69755530075371
 21
142.0269827042828
 31
0.0
  0
LINE
  5
778
  8
3
 10
108.22332174672781
 20
126.7602749571661
 30
0.0
 11
107.8558521823752
 21
142.18786946304431
 31
0.0
  0
ARC
  5
77B
  8
0
 10
110.0545241902628
 20
125.4102189072089
 30
0.0
 40
1.0
 50
1.017287190092133
 51
89.999999999999915
1001
GENIUS_GENODEF_13
1002
{
1000
HIER
1070
     0
1002
}
1002
{
1000
MANEDIT
1070
     0
1002
}
1002
{
1000
NOSEL
1070
     0
1002
}
1002
{
1000
BEHIND
1070
     0
1002
}
1002
{
1000
REACTOR
1002
}
1001
GENIUS_GENOBJ-N-FIL_13
1002
{
1000
OWNER
1000
GEN
1002
}
  0
ARC
  5
77C
  8
0
 10
96.1991583900151
 20
141.7695364559651
 30
0.0
 40
14.5006824512534
 50
0.5558798483422063
 51
37.860238720606993
  0
ARC
  5
77D
  8
3
 10
96.1991583900151
 20
141.91021890721481
 30
0.0
 40
11.659999999999989
 50
1.3644690219745319
 51
17.282192533773131
  0
LINE
  5
780
  8
0
 10
110.9923018719975
 20
158.2517823778978
 30
0.0
 11
111.19915839001681
 21
164.26953645596859
 31
0.0
  0
ARC
  5
781
  8
0
 10
109.99245948806271
 20
158.26953645596831
 30
0.0
 40
1.0
 50
270.0000000000033
 51
358.98271280990792
1001
GENIUS_GENODEF_13
1002
{
1000
HIER
1070
     0
1002
}
1002
{
1000
MANEDIT
1070
     0
1002
}
1002
{
1000
NOSEL
1070
     0
1002
}
1002
{
1000
BEHIND
1070
     0
1002
}
1002
{
1000
REACTOR
1002
}
1001
GENIUS_GENOBJ-N-FIL_13
1002
{
1000
OWNER
1000
GEN
1002
}
  0
ARC
  5
782
  8
0
 10
108.98236856613291
 20
156.26953645596831
 30
0.0
 40
1.0
 50
90.000000000000071
 51
176.5971146572374
1001
GENIUS_GENODEF_13
1002
{
1000
HIER
1070
     0
1002
}
1002
{
1000
MANEDIT
1070
     0
1002
}
1002
{
1000
NOSEL
1070
     0
1002
}
1002
{
1000
BEHIND
1070
     0
1002
}
1002
{
1000
REACTOR
1002
}
1001
GENIUS_GENOBJ-N-FIL_13
1002
{
1000
OWNER
1000
GEN
1002
}
  0
LINE
  5
783
  8
0
 10
259.75244283192649
 20
143.4127729827751
 30
0.0
 11
258.88494283192659
 21
141.9102189072091
 31
0.0
  0
LINE
  5
784
  8
0
 10
258.88494283192659
 20
141.9102189072091
 30
0.0
 11
259.75244283192649
 21
140.4076648316431
 31
0.0
  0
LINE
  5
785
  8
0
 10
259.75244283192649
 20
140.4076648316431
 30
0.0
 11
261.48744283192661
 21
140.4076648316431
 31
0.0
  0
LINE
  5
786
  8
0
 10
261.48744283192661
 20
140.4076648316431
 30
0.0
 11
262.35494283192651
 21
141.9102189072091
 31
0.0
  0
LINE
  5
787
  8
0
 10
262.35494283192651
 20
141.9102189072091
 30
0.0
 11
261.48744283192661
 21
143.4127729827751
 31
0.0
  0
LINE
  5
788
  8
0
 10
261.48744283192661
 20
143.4127729827751
 30
0.0
 11
259.75244283192649
 21
143.4127729827751
 31
0.0
  0
LINE
  5
789
  8
0
 10
97.066658390015164
 20
140.26698238040231
 30
0.0
 11
97.934158390015114
 21
141.76953645596819
 31
0.0
  0
LINE
  5
78A
  8
0
 10
97.934158390015114
 20
141.76953645596819
 30
0.0
 11
97.066658390015164
 21
143.27209053153419
 31
0.0
  0
LINE
  5
78B
  8
0
 10
97.066658390015164
 20
143.27209053153419
 30
0.0
 11
95.331658390015036
 21
143.27209053153419
 31
0.0
  0
LINE
  5
78C
  8
0
 10
95.331658390015036
 20
143.27209053153419
 30
0.0
 11
94.464158390015086
 21
141.76953645596819
 31
0.0
  0
LINE
  5
78D
  8
0
 10
94.464158390015086
 20
141.76953645596819
 30
0.0
 11
95.331658390015036
 21
140.26698238040231
 31
0.0
  0
LINE
  5
78E
  8
0
 10
95.331658390015036
 20
140.26698238040231
 30
0.0
 11
97.066658390015164
 21
140.26698238040231
 31
0.0
  0
LINE
  5
78F
  8
1
 10
260.60651600855192
 20
170.96953645596849
 30
0.0
 11
260.60651600855192
 21
112.7102189072088
 31
0.0
  0
LINE
  5
790
  8
1
 10
96.212585213389715
 20
170.96953645596849
 30
0.0
 11
96.212585213389715
 21
112.7102189072088
 31
0.0
  0
LINE
  5
791
  8
1
 10
178.04874676304161
 20
169.4102189072089
 30
0.0
 11
178.04874676304161
 21
114.4102189072089
 31
0.0
  0
LINE
  5
792
  8
1
 10
106.1991583900151
 20
141.76953645596819
 30
0.0
 11
86.1991583900151
 21
141.76953645596819
 31
0.0
  0
LINE
  5
794
  8
1
 10
250.0699428319266
 20
141.91021890720901
 30
0.0
 11
271.16994283192651
 21
141.91021890720901
 31
0.0
  0
LINE
  5
796
  8
1
 10
158.2463290054861
 20
141.76953645596819
 30
0.0
 11
197.75361995490201
 21
141.76953645596819
 31
0.0
  0
LINE
  5
82B
  8
0
 10
93.712585213392174
 20
166.110218907209
 30
0.0
 11
98.712585213387285
 21
166.11021890720889
 31
0.0
  0
LINE
  5
82C
  8
0
 10
93.212585213392174
 20
165.610218907205
 30
0.0
 11
93.212585213402065
 21
164.41021890720901
 31
0.0
  0
ARC
  5
82D
  8
0
 10
93.712585213392174
 20
165.610218907209
 30
0.0
 40
0.5
 50
89.999999999999446
 51
180.00000000046859
1001
GENIUS_GENODEF_13
1002
{
1000
HIER
1070
     0
1002
}
1002
{
1000
MANEDIT
1070
     0
1002
}
1002
{
1000
NOSEL
1070
     0
1002
}
1002
{
1000
BEHIND
1070
     0
1002
}
1002
{
1000
REACTOR
1002
}
1001
GENIUS_GENOBJ-N-FIL_13
1002
{
1000
OWNER
1000
GEN
1002
}
  0
LINE
  5
82E
  8
0
 10
99.212585213387285
 20
165.61021890720889
 30
0.0
 11
99.212585213387285
 21
164.4102189072089
 31
0.0
  0
ARC
  5
82F
  8
0
 10
98.712585213387285
 20
165.61021890720889
 30
0.0
 40
0.5
 50
0.0
 51
89.999999999999389
1001
GENIUS_GENODEF_13
1002
{
1000
HIER
1070
     0
1002
}
1002
{
1000
MANEDIT
1070
     0
1002
}
1002
{
1000
NOSEL
1070
     0
1002
}
1002
{
1000
BEHIND
1070
     0
1002
}
1002
{
1000
REACTOR
1002
}
1001
GENIUS_GENOBJ-N-FIL_13
1002
{
1000
OWNER
1000
GEN
1002
}
  0
LINE
  5
830
  8
0
 10
93.712585213392174
 20
117.7102189072088
 30
0.0
 11
98.712585213387285
 21
117.7102189072088
 31
0.0
  0
LINE
  5
831
  8
0
 10
93.212585213392174
 20
118.21021890721291
 30
0.0
 11
93.212585213402065
 21
119.4102189072089
 31
0.0
  0
ARC
  5
832
  8
0
 10
93.712585213392174
 20
118.2102189072088
 30
0.0
 40
0.5
 50
179.99999999953141
 51
270.00000000000063
1001
GENIUS_GENODEF_13
1002
{
1000
HIER
1070
     0
1002
}
1002
{
1000
MANEDIT
1070
     0
1002
}
1002
{
1000
NOSEL
1070
     0
1002
}
1002
{
1000
BEHIND
1070
     0
1002
}
1002
{
1000
REACTOR
1002
}
1001
GENIUS_GENOBJ-N-FIL_13
1002
{
1000
OWNER
1000
GEN
1002
}
  0
LINE
  5
833
  8
0
 10
99.212585213387285
 20
118.2102189072088
 30
0.0
 11
99.212585213387285
 21
119.4102189072089
 31
0.0
  0
ARC
  5
834
  8
0
 10
98.712585213387285
 20
118.2102189072088
 30
0.0
 40
0.5
 50
270.00000000000063
 51
0.0
1001
GENIUS_GENODEF_13
1002
{
1000
HIER
1070
     0
1002
}
1002
{
1000
MANEDIT
1070
     0
1002
}
1002
{
1000
NOSEL
1070
     0
1002
}
1002
{
1000
BEHIND
1070
     0
1002
}
1002
{
1000
REACTOR
1002
}
1001
GENIUS_GENOBJ-N-FIL_13
1002
{
1000
OWNER
1000
GEN
1002
}
  0
LINE
  5
835
  8
0
 10
263.10651600854942
 20
166.110218907209
 30
0.0
 11
258.10651600855442
 21
166.11021890720889
 31
0.0
  0
LINE
  5
836
  8
0
 10
257.60651600855442
 20
165.61021890720889
 30
0.0
 11
257.60651600855442
 21
164.4102189072089
 31
0.0
  0
ARC
  5
837
  8
0
 10
258.10651600855442
 20
165.61021890720889
 30
0.0
 40
0.5
 50
90.000000000000625
 51
180.0
1001
GENIUS_GENODEF_13
1002
{
1000
HIER
1070
     0
1002
}
1002
{
1000
MANEDIT
1070
     0
1002
}
1002
{
1000
NOSEL
1070
     0
1002
}
1002
{
1000
BEHIND
1070
     0
1002
}
1002
{
1000
REACTOR
1002
}
1001
GENIUS_GENOBJ-N-FIL_13
1002
{
1000
OWNER
1000
GEN
1002
}
  0
ARC
  5
838
  8
0
 10
263.10651600854942
 20
165.610218907209
 30
0.0
 40
0.5
 50
359.99999999953138
 51
90.000000000000554
1001
GENIUS_GENODEF_13
1002
{
1000
HIER
1070
     0
1002
}
1002
{
1000
MANEDIT
1070
     0
1002
}
1002
{
1000
NOSEL
1070
     0
1002
}
1002
{
1000
BEHIND
1070
     0
1002
}
1002
{
1000
REACTOR
1002
}
1001
GENIUS_GENOBJ-N-FIL_13
1002
{
1000
OWNER
1000
GEN
1002
}
  0
LINE
  5
839
  8
0
 10
263.60651600854942
 20
165.610218907205
 30
0.0
 11
263.60651600853959
 21
164.41021890720901
 31
0.0
  0
LINE
  5
83A
  8
0
 10
263.10651600854942
 20
117.7102189072088
 30
0.0
 11
258.10651600855442
 21
117.7102189072088
 31
0.0
  0
LINE
  5
83B
  8
0
 10
257.60651600855442
 20
118.2102189072088
 30
0.0
 11
257.60651600855442
 21
119.4102189072089
 31
0.0
  0
ARC
  5
83C
  8
0
 10
258.10651600855442
 20
118.2102189072088
 30
0.0
 40
0.5
 50
180.0
 51
269.99999999999937
1001
GENIUS_GENODEF_13
1002
{
1000
HIER
1070
     0
1002
}
1002
{
1000
MANEDIT
1070
     0
1002
}
1002
{
1000
NOSEL
1070
     0
1002
}
1002
{
1000
BEHIND
1070
     0
1002
}
1002
{
1000
REACTOR
1002
}
1001
GENIUS_GENOBJ-N-FIL_13
1002
{
1000
OWNER
1000
GEN
1002
}
  0
LINE
  5
83D
  8
0
 10
263.60651600854942
 20
118.21021890721291
 30
0.0
 11
263.60651600853959
 21
119.4102189072089
 31
0.0
  0
ARC
  5
83E
  8
0
 10
263.10651600854942
 20
118.2102189072088
 30
0.0
 40
0.5
 50
269.99999999999937
 51
0.0000000004685852
1001
GENIUS_GENODEF_13
1002
{
1000
HIER
1070
     0
1002
}
1002
{
1000
MANEDIT
1070
     0
1002
}
1002
{
1000
NOSEL
1070
     0
1002
}
1002
{
1000
BEHIND
1070
     0
1002
}
1002
{
1000
REACTOR
1002
}
1001
GENIUS_GENOBJ-N-FIL_13
1002
{
1000
OWNER
1000
GEN
1002
}
  0
INSERT
  5
8DE
  8
0
  2
STDGX5
 10
0.0
 20
0.0
 30
0.0
  0
INSERT
  5
8DF
  8
0
  2
STDGX5
 10
0.0
 20
0.0
 30
0.0
  0
INSERT
  5
8E0
  8
0
  2
STDGX5
 10
275.0
 20
0.0
 30
0.0
  0
INSERT
  5
8E1
  8
0
  2
STDGX5
 10
275.0
 20
0.0
 30
0.0
  0
TEXT
  5
9FC
  8
0
 62
     3
 10
0.0
 20
0.0
 30
0.0
 40
10.0
  1
L6-AHI3030
  7
STANDARD1
  0
ENDSEC
  0
EOF
