  0
SECTION
  2
HEADER
  9
$ACADVER
  1
AC1009
  9
$INSBASE
 10
0.0
 20
0.0
 30
0.0
  9
$EXTMIN
 10
0.0
 20
-1.4802182810368341
 30
0.0
  9
$EXTMAX
 10
150.32488669597799
 20
126.8116909386552
 30
0.0
  9
$LIMMIN
 10
0.0
 20
0.0
  9
$LIMMAX
 10
187.5
 20
135.0
  9
$ORTHOMODE
 70
     1
  9
$REGENMODE
 70
     1
  9
$FILLMODE
 70
     1
  9
$QTEXTMODE
 70
     0
  9
$MIRRTEXT
 70
     0
  9
$DRAGMODE
 70
     2
  9
$LTSCALE
 40
5.0
  9
$OSMODE
 70
  3071
  9
$ATTMODE
 70
     1
  9
$TEXTSIZE
 40
5.0
  9
$TRACEWID
 40
0.05
  9
$TEXTSTYLE
  7
STANDARD
  9
$CLAYER
  8
0
  9
$CELTYPE
  6
BYLAYER
  9
$CECOLOR
 62
   256
  9
$DIMSCALE
 40
0.5
  9
$DIMASZ
 40
3.0
  9
$DIMEXO
 40
2.0
  9
$DIMDLI
 40
0.38
  9
$DIMRND
 40
0.0
  9
$DIMDLE
 40
0.0
  9
$DIMEXE
 40
2.0
  9
$DIMTP
 40
0.0
  9
$DIMTM
 40
0.0
  9
$DIMTXT
 40
3.2000000000000002
  9
$DIMCEN
 40
0.0
  9
$DIMTSZ
 40
0.0
  9
$DIMTOL
 70
     0
  9
$DIMLIM
 70
     0
  9
$DIMTIH
 70
     0
  9
$DIMTOH
 70
     0
  9
$DIMSE1
 70
     0
  9
$DIMSE2
 70
     0
  9
$DIMTAD
 70
     1
  9
$DIMZIN
 70
     0
  9
$DIMBLK
  1

  9
$DIMASO
 70
     0
  9
$DIMSHO
 70
     0
  9
$DIMPOST
  1

  9
$DIMAPOST
  1

  9
$DIMALT
 70
     0
  9
$DIMALTD
 70
     2
  9
$DIMALTF
 40
25.399999999999999
  9
$DIMLFAC
 40
1.0
  9
$DIMTOFL
 70
     1
  9
$DIMTVP
 40
1.6000000000000001
  9
$DIMTIX
 70
     1
  9
$DIMSOXD
 70
     0
  9
$DIMSAH
 70
     0
  9
$DIMBLK1
  1

  9
$DIMBLK2
  1

  9
$DIMSTYLE
  2
STANDARD
  9
$DIMCLRD
 70
     0
  9
$DIMCLRE
 70
     0
  9
$DIMCLRT
 70
     0
  9
$DIMTFAC
 40
1.0
  9
$DIMGAP
 40
0.09
  9
$LUNITS
 70
     2
  9
$LUPREC
 70
     4
  9
$SKETCHINC
 40
0.1
  9
$FILLETRAD
 40
0.0
  9
$AUNITS
 70
     0
  9
$AUPREC
 70
     4
  9
$MENU
  1
E:\r13\win\SUPPORT\ACAD
  9
$ELEVATION
 40
0.0
  9
$PELEVATION
 40
0.0
  9
$THICKNESS
 40
0.0
  9
$LIMCHECK
 70
     0
  9
$BLIPMODE
 70
     0
  9
$CHAMFERA
 40
0.0
  9
$CHAMFERB
 40
0.0
  9
$SKPOLY
 70
     0
  9
$TDCREATE
 40
2449840.6522106491
  9
$TDUPDATE
 40
2456597.5473029171
  9
$TDINDWG
 40
0.0000976389
  9
$TDUSRTIMER
 40
0.0000976389
  9
$USRTIMER
 70
     1
  9
$ANGBASE
 50
0.0
  9
$ANGDIR
 70
     0
  9
$PDMODE
 70
     0
  9
$PDSIZE
 40
0.0
  9
$PLINEWID
 40
0.0
  9
$COORDS
 70
     1
  9
$SPLFRAME
 70
     0
  9
$SPLINETYPE
 70
     6
  9
$SPLINESEGS
 70
     8
  9
$ATTDIA
 70
     0
  9
$ATTREQ
 70
     1
  9
$HANDLING
 70
     1
  9
$HANDSEED
  5
228
  9
$SURFTAB1
 70
     6
  9
$SURFTAB2
 70
     6
  9
$SURFTYPE
 70
     6
  9
$SURFU
 70
     6
  9
$SURFV
 70
     6
  9
$UCSNAME
  2

  9
$UCSORG
 10
0.0
 20
0.0
 30
0.0
  9
$UCSXDIR
 10
1.0
 20
0.0
 30
0.0
  9
$UCSYDIR
 10
0.0
 20
1.0
 30
0.0
  9
$PUCSNAME
  2

  9
$PUCSORG
 10
0.0
 20
0.0
 30
0.0
  9
$PUCSXDIR
 10
1.0
 20
0.0
 30
0.0
  9
$PUCSYDIR
 10
0.0
 20
1.0
 30
0.0
  9
$USERI1
 70
     0
  9
$USERI2
 70
     1
  9
$USERI3
 70
     0
  9
$USERI4
 70
     0
  9
$USERI5
 70
     0
  9
$USERR1
 40
0.0
  9
$USERR2
 40
0.0
  9
$USERR3
 40
0.0
  9
$USERR4
 40
0.0
  9
$USERR5
 40
0.0
  9
$WORLDVIEW
 70
     1
  9
$SHADEDGE
 70
     3
  9
$SHADEDIF
 70
    70
  9
$TILEMODE
 70
     1
  9
$MAXACTVP
 70
    16
  9
$PLIMCHECK
 70
     0
  9
$PEXTMIN
 10
1.0000000000000000E+020
 20
1.0000000000000000E+020
 30
1.0000000000000000E+020
  9
$PEXTMAX
 10
-1.0000000000000000E+020
 20
-1.0000000000000000E+020
 30
-1.0000000000000000E+020
  9
$PLIMMIN
 10
0.0
 20
0.0
  9
$PLIMMAX
 10
12.0
 20
9.0
  9
$UNITMODE
 70
     0
  9
$VISRETAIN
 70
     0
  9
$PLINEGEN
 70
     0
  9
$PSLTSCALE
 70
     0
  0
ENDSEC
  0
SECTION
  2
TABLES
  0
TABLE
  2
VPORT
 70
     1
  0
VPORT
  2
*ACTIVE
 70
     0
 10
0.0
 20
0.0
 11
1.0
 21
1.0
 12
93.74713919532617
 22
81.430819429735848
 13
0.0
 23
0.0
 14
5.0
 24
5.0
 15
5.0
 25
5.0
 16
0.0
 26
0.0
 36
1.0
 17
0.0
 27
0.0
 37
0.0
 40
167.40500581387491
 41
1.9089595375722539
 42
50.0
 43
0.0
 44
0.0
 50
0.0
 51
0.0
 71
     0
 72
   500
 73
     1
 74
     0
 75
     0
 76
     0
 77
     0
 78
     2
  0
ENDTAB
  0
TABLE
  2
LTYPE
 70
     3
  0
LTYPE
  2
CONTINUOUS
 70
     0
  3
Solid Line
 72
    65
 73
     0
 40
0.0
  0
LTYPE
  2
CENTER
 70
     0
  3
____ _ ____ _ ____ _ ____ _ ____ _ ____ _ ____
 72
    65
 73
     4
 40
2.0
 49
1.25
 49
-0.25
 49
0.25
 49
-0.25
  0
LTYPE
  2
PHANTOM2
 70
     0
  3
___ _ _ ___ _ _ ___ _ _ ___ _ _
 72
    65
 73
     6
 40
1.25
 49
0.625
 49
-0.125
 49
0.125
 49
-0.125
 49
0.125
 49
-0.125
  0
ENDTAB
  0
TABLE
  2
LAYER
 70
     3
  0
LAYER
  2
0
 70
     0
 62
     7
  6
CONTINUOUS
  0
LAYER
  2
1
 70
     0
 62
     1
  6
CENTER
  0
LAYER
  2
3
 70
     0
 62
     3
  6
CONTINUOUS
  0
ENDTAB
  0
TABLE
  2
STYLE
 70
     2
  0
STYLE
  2
STANDARD
 70
     0
 40
0.0
 41
1.0
 50
0.0
 71
     0
 42
5.0
  3
TXT
  4
BIGFONT
  0
STYLE
  2
STANDARD1
 70
     0
 40
0.0
 41
1.0
 50
0.0
 71
     0
 42
3.0
  3
txt
  4

  0
ENDTAB
  0
TABLE
  2
VIEW
 70
     1
  0
VIEW
  2
ALL
 70
     0
 40
187.0427711626767
 10
153.09215051466151
 20
93.521385581338365
 41
0.0
 11
0.0
 21
0.0
 31
1.0
 12
0.0
 22
0.0
 32
0.0
 42
0.0
 43
0.0
 44
0.0
 50
0.0
 71
     0
  0
ENDTAB
  0
TABLE
  2
UCS
 70
     0
  0
ENDTAB
  0
TABLE
  2
APPID
 70
     3
  0
APPID
  2
ACAD
 70
     0
  0
APPID
  2
ACAD_MLEADERVER
 70
     0
  0
APPID
  2
ACAD_NAV_VCDISPLAY
 70
     0
  0
ENDTAB
  0
TABLE
  2
DIMSTYLE
 70
     1
  0
DIMSTYLE
  2
STANDARD
 70
     0
  3

  4

  5

  6

  7

 40
1.0
 41
0.18
 42
0.0625
 43
0.38
 44
0.18
 45
0.0
 46
0.0
 47
0.0
 48
0.0
140
0.18
141
0.09
142
0.0
143
25.399999999999999
144
1.0
145
0.0
146
1.0
147
0.09
 71
     0
 72
     0
 73
     1
 74
     1
 75
     0
 76
     0
 77
     0
 78
     0
170
     0
171
     2
172
     0
173
     0
174
     0
175
     0
176
     0
177
     0
178
     0
  0
ENDTAB
  0
ENDSEC
  0
SECTION
  2
BLOCKS
  0
BLOCK
  8
0
  2
$MODEL_SPACE
 70
     0
 10
0.0
 20
0.0
 30
0.0
  3
$MODEL_SPACE
  1

  0
ENDBLK
  5
DC
  8
0
  0
BLOCK
 67
     1
  8
0
  2
$PAPER_SPACE
 70
     0
 10
0.0
 20
0.0
 30
0.0
  3
$PAPER_SPACE
  1

  0
ENDBLK
  5
DA
 67
     1
  8
0
  0
ENDSEC
  0
SECTION
  2
ENTITIES
  0
CIRCLE
  5
37
  8
0
 10
135.32488669597799
 20
60.04669850349255
 30
0.0
 40
10.0
  0
LINE
  5
38
  8
1
 10
150.32488669597799
 20
60.04669850349255
 30
0.0
 11
120.32488669597799
 21
60.04669850349255
 31
0.0
  0
LINE
  5
39
  8
1
 10
135.32488669597799
 20
75.04669850349255
 30
0.0
 11
135.32488669597799
 21
29.946698503492438
 31
0.0
  0
LINE
  5
3A
  8
0
 10
131.32488669597799
 20
50.881547113581277
 30
0.0
 11
131.32488669597799
 21
40.946698503492549
 31
0.0
  0
LINE
  5
3B
  8
0
 10
139.32488669597799
 20
50.881547113580879
 30
0.0
 11
139.32488669597811
 21
40.946698503492549
 31
0.0
  0
LINE
  5
3C
  8
0
 10
139.32488669597811
 20
40.946698503492549
 30
0.0
 11
137.82488669597799
 21
40.946698503492549
 31
0.0
  0
LINE
  5
3D
  8
0
 10
137.82488669597799
 20
40.946698503492549
 30
0.0
 11
137.82488669597799
 21
38.946698503492563
 31
0.0
  0
LINE
  5
3E
  8
0
 10
132.82488669597799
 20
40.946698503492549
 30
0.0
 11
132.82488669597799
 21
38.946698503492563
 31
0.0
  0
LINE
  5
3F
  8
0
 10
132.82488669597799
 20
40.946698503492549
 30
0.0
 11
131.32488669597799
 21
40.946698503492549
 31
0.0
  0
LINE
  5
40
  8
0
 10
73.308980251304192
 20
70.046698503492536
 30
0.0
 11
72.308980251304106
 21
70.046698503492536
 31
0.0
  0
LINE
  5
41
  8
0
 10
73.308980251304192
 20
50.046698503492529
 30
0.0
 11
72.50898025130418
 21
50.046698503492529
 31
0.0
  0
LINE
  5
42
  8
0
 10
73.308980251304163
 20
70.04669850349255
 30
0.0
 11
73.308980251304163
 21
50.04669850349255
 31
0.0
  0
LINE
  5
43
  8
0
 10
57.808980251304163
 20
63.54669850349255
 30
0.0
 11
57.808980251304163
 21
56.54669850349255
 31
0.0
  0
LINE
  5
44
  8
1
 10
78.308980251304163
 20
60.04669850349255
 30
0.0
 11
52.808980251304163
 21
60.04669850349255
 31
0.0
  0
LINE
  5
45
  8
0
 10
61.30898025130417
 20
70.04669850349255
 30
0.0
 11
61.30898025130417
 21
50.04669850349255
 31
0.0
  0
LINE
  5
46
  8
0
 10
61.308980251304192
 20
63.546698503492529
 30
0.0
 11
57.808980251304192
 21
63.54669850349255
 31
0.0
  0
LINE
  5
47
  8
0
 10
61.308980251304192
 20
56.54669850349255
 30
0.0
 11
57.808980251304192
 21
56.54669850349255
 31
0.0
  0
LINE
  5
48
  8
0
 10
72.508980251304166
 20
50.881547113580858
 30
0.0
 11
69.708980251304155
 21
50.881547113580858
 31
0.0
  0
LINE
  5
49
  8
0
 10
72.508980251304166
 20
38.946698503492563
 30
0.0
 11
69.708980251304155
 21
38.946698503492563
 31
0.0
  0
LINE
  5
4A
  8
0
 10
64.308980251304703
 20
50.046698503492529
 30
0.0
 11
61.30898025130417
 21
50.046698503492529
 31
0.0
  0
LINE
  5
4B
  8
0
 10
72.508980251304138
 20
40.946698503492598
 30
0.0
 11
69.708980251304126
 21
40.946698503492598
 31
0.0
  0
LINE
  5
4C
  8
1
 10
67.308980251304163
 20
75.046698503492536
 30
0.0
 11
67.308980251304163
 21
29.946698503492549
 31
0.0
  0
ARC
  5
4D
  8
0
 10
67.308980251304064
 20
40.507306489322801
 30
0.0
 40
10.00000000000024
 50
76.113459637371022
 51
107.4576031237211
  0
LINE
  5
4E
  8
0
 10
73.308980251304163
 20
101.8116909386552
 30
0.0
 11
73.308980251304192
 21
121.8116909386552
 31
0.0
  0
LINE
  5
4F
  8
0
 10
61.30898025130417
 20
108.8116909386553
 30
0.0
 11
61.30898025130417
 21
114.8116909386551
 31
0.0
  0
LINE
  5
50
  8
0
 10
57.808980251304163
 20
108.3116909386552
 30
0.0
 11
57.808980251304163
 21
115.3116909386552
 31
0.0
  0
LINE
  5
51
  8
0
 10
73.308980251304163
 20
101.8116909386552
 30
0.0
 11
68.308980251304249
 21
101.8116909386552
 31
0.0
  0
LINE
  5
52
  8
0
 10
73.308980251304163
 20
121.8116909386552
 30
0.0
 11
68.308980251304249
 21
121.8116909386552
 31
0.0
  0
LINE
  5
53
  8
1
 10
78.308980251304163
 20
111.8116909386552
 30
0.0
 11
52.808980251304163
 21
111.8116909386552
 31
0.0
  0
LINE
  5
54
  8
0
 10
61.808980251304241
 20
115.3116909386552
 30
0.0
 11
57.808980251304163
 21
115.3116909386552
 31
0.0
  0
LINE
  5
55
  8
0
 10
61.808980251304277
 20
108.3116909386552
 30
0.0
 11
57.808980251304163
 21
108.3116909386552
 31
0.0
  0
LINE
  5
56
  8
1
 10
67.308980251304163
 20
126.8116909386552
 30
0.0
 11
67.308980251304163
 21
96.811690938655232
 31
0.0
  0
LINE
  5
57
  8
0
 10
68.308980251304277
 20
121.8116909386552
 30
0.0
 11
61.30898025130417
 21
114.8116909386551
 31
0.0
  0
LINE
  5
58
  8
0
 10
68.308980251304277
 20
101.8116909386552
 30
0.0
 11
61.30898025130417
 21
108.8116909386553
 31
0.0
  0
ARC
  5
59
  8
0
 10
58.30898025130476
 20
60.046698503492557
 30
0.0
 40
9.9999999999994582
 50
287.45760312371959
 51
72.542396876280336
  0
LINE
  5
5A
  8
0
 10
67.308980251304163
 20
117.5851936305515
 30
0.0
 11
62.30898025130422
 21
114.6984422846034
 31
0.0
  0
LINE
  5
5B
  8
0
 10
72.308980251304106
 20
114.6984422846033
 30
0.0
 11
67.308980251304163
 21
117.5851936305515
 31
0.0
  0
LINE
  5
5C
  8
0
 10
72.308980251304163
 20
108.9249395927071
 30
0.0
 11
72.308980251304106
 21
114.6984422846033
 31
0.0
  0
LINE
  5
5D
  8
0
 10
67.308980251304163
 20
106.03818824675891
 30
0.0
 11
72.308980251304163
 21
108.9249395927071
 31
0.0
  0
LINE
  5
5E
  8
0
 10
62.30898025130405
 20
108.9249395927071
 30
0.0
 11
67.308980251304163
 21
106.03818824675891
 31
0.0
  0
LINE
  5
5F
  8
0
 10
62.30898025130422
 20
114.6984422846034
 30
0.0
 11
62.30898025130405
 21
108.9249395927071
 31
0.0
  0
LINE
  5
60
  8
0
 10
62.30898025130405
 20
70.046698503492536
 30
0.0
 11
62.30898025130405
 21
69.620969581055419
 31
0.0
  0
LINE
  5
61
  8
0
 10
72.308980251304135
 20
70.046698503492522
 30
0.0
 11
72.308980251304163
 21
69.620969581055419
 31
0.0
  0
LINE
  5
62
  8
0
 10
62.30898025130405
 20
69.620969581055419
 30
0.0
 11
67.308980251304163
 21
68.211664312770111
 31
0.0
  0
LINE
  5
63
  8
0
 10
67.308980251304163
 20
68.211664312770111
 30
0.0
 11
72.308980251304163
 21
69.620969581055419
 31
0.0
  0
LINE
  5
64
  8
0
 10
62.30898025130405
 20
70.046698503492536
 30
0.0
 11
61.30898025130417
 21
70.046698503492536
 31
0.0
  0
ARC
  5
65
  8
0
 10
62.308980251304163
 20
35.396698503492559
 30
0.0
 40
1.25
 50
199.8885382013718
 51
340.11146179862823
  0
LINE
  5
66
  8
0
 10
63.558980251304114
 20
34.946698503492563
 30
0.0
 11
65.058980251304092
 21
34.946698503492563
 31
0.0
  0
LINE
  5
67
  8
0
 10
71.308980251304163
 20
38.946698503492563
 30
0.0
 11
71.308980251304163
 21
34.946698503492563
 31
0.0
  0
LINE
  5
68
  8
0
 10
59.808980251304163
 20
38.946698503492563
 30
0.0
 11
59.808980251304163
 21
34.946698503492563
 31
0.0
  0
LINE
  5
69
  8
0
 10
59.808980251304163
 20
34.946698503492563
 30
0.0
 11
61.05898025130422
 21
34.946698503492563
 31
0.0
  0
LINE
  5
6A
  8
0
 10
59.808980251304163
 20
38.946698503492563
 30
0.0
 11
71.308980251304163
 21
38.946698503492563
 31
0.0
  0
LINE
  5
6B
  8
0
 10
65.868897457134594
 20
35.946698503492591
 30
0.0
 11
68.749063045473704
 21
35.946698503492591
 31
0.0
  0
LINE
  5
6C
  8
0
 10
68.908980251304186
 20
35.04669850349255
 30
0.0
 11
69.282765619851531
 21
35.420483872039867
 31
0.0
  0
LINE
  5
6D
  8
0
 10
65.335194882756454
 20
35.420483872040293
 30
0.0
 11
65.708980251304197
 21
35.04669850349255
 31
0.0
  0
LINE
  5
6E
  8
0
 10
65.708980251304197
 20
35.04669850349255
 30
0.0
 11
68.908980251304186
 21
35.04669850349255
 31
0.0
  0
LINE
  5
6F
  8
0
 10
64.808980251304192
 20
50.189764854841769
 30
0.0
 11
64.808980251304206
 21
38.94669850349257
 31
0.0
  0
LINE
  5
70
  8
3
 10
65.241980251303971
 20
50.291350183011389
 30
0.0
 11
65.241980251303985
 21
38.946698503492563
 31
0.0
  0
LINE
  5
71
  8
3
 10
69.375980251304384
 20
50.291350183011097
 30
0.0
 11
69.375980251304412
 21
38.94669850349257
 31
0.0
  0
LINE
  5
72
  8
0
 10
69.808980251304192
 20
45.423621580415521
 30
0.0
 11
69.808980251304192
 21
44.069775426569549
 31
0.0
  0
LINE
  5
73
  8
0
 10
137.82488669597799
 20
36.412285145004638
 30
0.0
 11
137.82488669597799
 21
35.946698503492563
 31
0.0
  0
LINE
  5
74
  8
3
 10
137.3918866959782
 20
35.955677601000623
 30
0.0
 11
137.3918866959782
 21
35.513698503492748
 31
0.0
  0
LINE
  5
75
  8
3
 10
133.25788669597779
 20
35.955677601001248
 30
0.0
 11
133.25788669597779
 21
35.51369850349279
 31
0.0
  0
LINE
  5
76
  8
0
 10
132.82488669597799
 20
36.412285145005391
 30
0.0
 11
132.82488669597799
 21
35.946698503492563
 31
0.0
  0
LINE
  5
77
  8
0
 10
133.724886695978
 20
35.04669850349255
 30
0.0
 11
134.6248866959769
 21
35.04669850349255
 31
0.0
  0
LINE
  5
78
  8
0
 10
132.82488669597799
 20
35.946698503492563
 30
0.0
 11
133.724886695978
 21
35.04669850349255
 31
0.0
  0
LINE
  5
79
  8
0
 10
136.92488669597799
 20
35.04669850349255
 30
0.0
 11
137.82488669597799
 21
35.946698503492563
 31
0.0
  0
LINE
  5
7A
  8
0
 10
132.82488669597799
 20
35.946698503492591
 30
0.0
 11
133.26711365380169
 21
35.946698503492591
 31
0.0
  0
LINE
  5
7B
  8
0
 10
69.558980251304092
 20
34.946698503492563
 30
0.0
 11
71.308980251304163
 21
34.946698503492563
 31
0.0
  0
LINE
  5
7C
  8
0
 10
137.3826597381543
 20
35.946698503492591
 30
0.0
 11
137.82488669597799
 21
35.946698503492591
 31
0.0
  0
LINE
  5
7D
  8
0
 10
136.02488669597921
 20
35.04669850349255
 30
0.0
 11
136.92488669597799
 21
35.04669850349255
 31
0.0
  0
CIRCLE
  5
7E
  8
0
 10
67.308980251304163
 20
111.8116909386552
 30
0.0
 40
1.8499999999997241
  0
CIRCLE
  5
7F
  8
0
 10
67.308980251304163
 20
111.8116909386552
 30
0.0
 40
4.75
  0
LINE
  5
80
  8
0
 10
65.808980251303993
 20
112.6777163424395
 30
0.0
 11
65.808980251304334
 21
110.9456655348709
 31
0.0
  0
LINE
  5
81
  8
0
 10
67.308980251304163
 20
113.5437417462242
 30
0.0
 11
65.808980251303993
 21
112.6777163424395
 31
0.0
  0
LINE
  5
82
  8
0
 10
68.808980251304163
 20
112.67771634243999
 30
0.0
 11
67.308980251304163
 21
113.5437417462242
 31
0.0
  0
LINE
  5
83
  8
0
 10
68.808980251304163
 20
110.9456655348709
 30
0.0
 11
68.808980251304163
 21
112.67771634243999
 31
0.0
  0
LINE
  5
84
  8
0
 10
67.308980251304334
 20
110.07964013108641
 30
0.0
 11
68.808980251304163
 21
110.9456655348709
 31
0.0
  0
LINE
  5
85
  8
0
 10
65.808980251304334
 20
110.9456655348709
 30
0.0
 11
67.308980251304334
 21
110.07964013108641
 31
0.0
  0
LINE
  5
86
  8
0
 10
59.808980251304163
 20
107.8116909386552
 30
0.0
 11
59.808980251304163
 21
108.3116909386552
 31
0.0
  0
LINE
  5
87
  8
0
 10
62.308980251304327
 20
115.8116909386553
 30
0.0
 11
59.808980251304163
 21
115.8116909386553
 31
0.0
  0
LINE
  5
88
  8
0
 10
62.308980251304291
 20
107.8116909386553
 30
0.0
 11
59.808980251304163
 21
107.8116909386552
 31
0.0
  0
LINE
  5
89
  8
0
 10
59.808980251304163
 20
115.3116909386552
 30
0.0
 11
59.808980251304163
 21
115.8116909386552
 31
0.0
  0
ARC
  5
8A
  8
0
 10
135.32488669597799
 20
35.146698503492559
 30
0.0
 40
1.0
 50
185.73917047727321
 51
354.26082952272702
  0
LINE
  5
8B
  8
0
 10
72.508980251304166
 20
50.881547113580858
 30
0.0
 11
72.508980251304166
 21
45.496698503492553
 31
0.0
  0
LINE
  5
8C
  8
0
 10
69.708980251304155
 20
50.881547113580858
 30
0.0
 11
69.708980251304112
 21
45.49669850349246
 31
0.0
  0
LINE
  5
8D
  8
0
 10
72.041822963778785
 20
45.02954121596715
 30
0.0
 11
72.50898025130418
 21
45.496698503492553
 31
0.0
  0
LINE
  5
8E
  8
0
 10
72.041822963778785
 20
44.46385579101792
 30
0.0
 11
72.50898025130418
 21
43.996698503492553
 31
0.0
  0
LINE
  5
8F
  8
0
 10
70.176137538829465
 20
44.46385579101792
 30
0.0
 11
69.708980251304084
 21
43.996698503492553
 31
0.0
  0
LINE
  5
90
  8
0
 10
70.176137538829465
 20
45.02954121596715
 30
0.0
 11
69.708980251304084
 21
45.496698503492553
 31
0.0
  0
ARC
  5
91
  8
0
 10
69.893294826354847
 20
44.746698503492553
 30
0.0
 40
0.4
 50
314.99999999999892
 51
45.000000000001059
  0
ARC
  5
92
  8
0
 10
72.324665676253403
 20
44.746698503492517
 30
0.0
 40
0.4
 50
134.99999999999889
 51
225.00000000000099
  0
LINE
  5
93
  8
0
 10
72.50898025130418
 20
43.996698503492553
 30
0.0
 11
72.508980251304166
 21
38.94669850349257
 31
0.0
  0
LINE
  5
94
  8
0
 10
69.708980251304155
 20
43.99669850349261
 30
0.0
 11
69.708980251304126
 21
38.94669850349257
 31
0.0
  0
LINE
  5
95
  8
0
 10
131.32488669597799
 20
45.496698503492553
 30
0.0
 11
139.32488669597799
 21
45.496698503492553
 31
0.0
  0
LINE
  5
96
  8
0
 10
131.32488669597799
 20
43.996698503492567
 30
0.0
 11
139.32488669597811
 21
43.996698503492567
 31
0.0
  0
LINE
  5
97
  8
0
 10
138.8833752062462
 20
38.946698503492541
 30
0.0
 11
131.76639818570999
 21
38.946698503492563
 31
0.0
  0
ARC
  5
98
  8
0
 10
135.32488669597799
 20
37.446698503492563
 30
0.0
 40
2.5
 50
235.51304436426361
 51
304.48695563573619
  0
ARC
  5
99
  8
0
 10
138.84182222026661
 20
41.684522516041291
 30
0.0
 40
8.0
 50
203.236203114803
 51
231.9346213609457
  0
ARC
  5
9A
  8
0
 10
131.80795117168941
 20
41.684522516041291
 30
0.0
 40
8.0
 50
308.06537863905419
 51
336.76379688519722
  0
ARC
  5
9B
  8
0
 10
131.76639818570999
 20
38.646698503492559
 30
0.0
 40
0.3
 50
90.0
 51
203.236203114803
  0
ARC
  5
9C
  8
0
 10
138.8833752062462
 20
38.646698503492559
 30
0.0
 40
0.3
 50
336.76379688519711
 51
90.0
  0
ARC
  5
9D
  8
0
 10
67.308980251303993
 20
33.952367730523783
 30
0.0
 40
2.459917414482085
 50
23.84182352983149
 51
156.15817647016661
  0
ARC
  5
9E
  8
0
 10
62.308980251304163
 20
31.30755674624745
 30
0.0
 40
3.847837409419069
 50
71.043039860314423
 51
108.95696013968561
  0
TEXT
  5
197
  8
0
 62
     3
 10
0.0
 20
0.0
 30
0.0
 40
5.0
  1
L5-UJT8/5
  7
STANDARD1
  0
ENDSEC
  0
EOF
