  0
SECTION
  2
HEADER
  9
$ACADVER
  1
AC1009
  9
$INSBASE
 10
0.0
 20
0.0
 30
0.0
  9
$EXTMIN
 10
0.0
 20
-1.4802182810368341
 30
0.0
  9
$EXTMAX
 10
61.787411702187697
 20
47.191586749604028
 30
0.0
  9
$LIMMIN
 10
0.0
 20
0.0
  9
$LIMMAX
 10
75.0
 20
54.0
  9
$ORTHOMODE
 70
     0
  9
$REGENMODE
 70
     1
  9
$FILLMODE
 70
     1
  9
$QTEXTMODE
 70
     0
  9
$MIRRTEXT
 70
     0
  9
$DRAGMODE
 70
     2
  9
$LTSCALE
 40
2.0
  9
$OSMODE
 70
  3071
  9
$ATTMODE
 70
     1
  9
$TEXTSIZE
 40
2.5000000000000488
  9
$TRACEWID
 40
0.05
  9
$TEXTSTYLE
  7
STANDARD
  9
$CLAYER
  8
0
  9
$CELTYPE
  6
BYLAYER
  9
$CECOLOR
 62
   256
  9
$DIMSCALE
 40
0.2
  9
$DIMASZ
 40
3.0
  9
$DIMEXO
 40
2.0
  9
$DIMDLI
 40
0.38
  9
$DIMRND
 40
0.0
  9
$DIMDLE
 40
0.0
  9
$DIMEXE
 40
2.0
  9
$DIMTP
 40
0.0
  9
$DIMTM
 40
0.0
  9
$DIMTXT
 40
3.0
  9
$DIMCEN
 40
0.0
  9
$DIMTSZ
 40
0.0
  9
$DIMTOL
 70
     0
  9
$DIMLIM
 70
     0
  9
$DIMTIH
 70
     0
  9
$DIMTOH
 70
     0
  9
$DIMSE1
 70
     0
  9
$DIMSE2
 70
     0
  9
$DIMTAD
 70
     1
  9
$DIMZIN
 70
     0
  9
$DIMBLK
  1

  9
$DIMASO
 70
     0
  9
$DIMSHO
 70
     0
  9
$DIMPOST
  1

  9
$DIMAPOST
  1

  9
$DIMALT
 70
     0
  9
$DIMALTD
 70
     2
  9
$DIMALTF
 40
25.399999999999999
  9
$DIMLFAC
 40
1.0
  9
$DIMTOFL
 70
     1
  9
$DIMTVP
 40
1.6000000000000001
  9
$DIMTIX
 70
     1
  9
$DIMSOXD
 70
     0
  9
$DIMSAH
 70
     0
  9
$DIMBLK1
  1

  9
$DIMBLK2
  1

  9
$DIMSTYLE
  2
STANDARD
  9
$DIMCLRD
 70
     0
  9
$DIMCLRE
 70
     0
  9
$DIMCLRT
 70
     0
  9
$DIMTFAC
 40
1.0
  9
$DIMGAP
 40
0.09
  9
$LUNITS
 70
     2
  9
$LUPREC
 70
     4
  9
$SKETCHINC
 40
0.1
  9
$FILLETRAD
 40
0.1
  9
$AUNITS
 70
     0
  9
$AUPREC
 70
     4
  9
$MENU
  1
E:\r13\win\SUPPORT\ACAD
  9
$ELEVATION
 40
0.0
  9
$PELEVATION
 40
0.0
  9
$THICKNESS
 40
0.0
  9
$LIMCHECK
 70
     0
  9
$BLIPMODE
 70
     0
  9
$CHAMFERA
 40
0.0
  9
$CHAMFERB
 40
0.0
  9
$SKPOLY
 70
     0
  9
$TDCREATE
 40
2449840.6523263892
  9
$TDUPDATE
 40
2456597.5472547109
  9
$TDINDWG
 40
0.0172276389
  9
$TDUSRTIMER
 40
0.0172276389
  9
$USRTIMER
 70
     1
  9
$ANGBASE
 50
0.0
  9
$ANGDIR
 70
     0
  9
$PDMODE
 70
     0
  9
$PDSIZE
 40
0.0
  9
$PLINEWID
 40
0.0
  9
$COORDS
 70
     1
  9
$SPLFRAME
 70
     0
  9
$SPLINETYPE
 70
     6
  9
$SPLINESEGS
 70
     8
  9
$ATTDIA
 70
     0
  9
$ATTREQ
 70
     1
  9
$HANDLING
 70
     1
  9
$HANDSEED
  5
21F
  9
$SURFTAB1
 70
     6
  9
$SURFTAB2
 70
     6
  9
$SURFTYPE
 70
     6
  9
$SURFU
 70
     6
  9
$SURFV
 70
     6
  9
$UCSNAME
  2

  9
$UCSORG
 10
0.0
 20
0.0
 30
0.0
  9
$UCSXDIR
 10
1.0
 20
0.0
 30
0.0
  9
$UCSYDIR
 10
0.0
 20
1.0
 30
0.0
  9
$PUCSNAME
  2

  9
$PUCSORG
 10
0.0
 20
0.0
 30
0.0
  9
$PUCSXDIR
 10
1.0
 20
0.0
 30
0.0
  9
$PUCSYDIR
 10
0.0
 20
1.0
 30
0.0
  9
$USERI1
 70
     0
  9
$USERI2
 70
     1
  9
$USERI3
 70
     1
  9
$USERI4
 70
     0
  9
$USERI5
 70
     0
  9
$USERR1
 40
0.0
  9
$USERR2
 40
0.0
  9
$USERR3
 40
0.0
  9
$USERR4
 40
0.0
  9
$USERR5
 40
0.0
  9
$WORLDVIEW
 70
     1
  9
$SHADEDGE
 70
     3
  9
$SHADEDIF
 70
    70
  9
$TILEMODE
 70
     1
  9
$MAXACTVP
 70
    16
  9
$PLIMCHECK
 70
     0
  9
$PEXTMIN
 10
1.0000000000000000E+020
 20
1.0000000000000000E+020
 30
1.0000000000000000E+020
  9
$PEXTMAX
 10
-1.0000000000000000E+020
 20
-1.0000000000000000E+020
 30
-1.0000000000000000E+020
  9
$PLIMMIN
 10
0.0
 20
0.0
  9
$PLIMMAX
 10
12.0
 20
9.0
  9
$UNITMODE
 70
     0
  9
$VISRETAIN
 70
     0
  9
$PLINEGEN
 70
     0
  9
$PSLTSCALE
 70
     0
  0
ENDSEC
  0
SECTION
  2
TABLES
  0
TABLE
  2
VPORT
 70
     1
  0
VPORT
  2
*ACTIVE
 70
     0
 10
0.0
 20
0.0
 11
1.0
 21
1.0
 12
37.498855678130482
 22
32.224675447272617
 13
0.0
 23
0.0
 14
2.0
 24
2.0
 15
2.0
 25
2.0
 16
0.0
 26
0.0
 36
1.0
 17
0.0
 27
0.0
 37
0.0
 40
68.048424383997698
 41
1.9089595375722539
 42
50.0
 43
0.0
 44
0.0
 50
0.0
 51
0.0
 71
     0
 72
   500
 73
     1
 74
     0
 75
     0
 76
     0
 77
     0
 78
     2
  0
ENDTAB
  0
TABLE
  2
LTYPE
 70
     3
  0
LTYPE
  2
CONTINUOUS
 70
     0
  3
Solid Line
 72
    65
 73
     0
 40
0.0
  0
LTYPE
  2
CENTER
 70
     0
  3
____ _ ____ _ ____ _ ____ _ ____ _ ____ _ ____
 72
    65
 73
     4
 40
2.0
 49
1.25
 49
-0.25
 49
0.25
 49
-0.25
  0
LTYPE
  2
PHANTOM2
 70
     0
  3
___ _ _ ___ _ _ ___ _ _ ___ _ _
 72
    65
 73
     6
 40
1.25
 49
0.625
 49
-0.125
 49
0.125
 49
-0.125
 49
0.125
 49
-0.125
  0
ENDTAB
  0
TABLE
  2
LAYER
 70
     4
  0
LAYER
  2
0
 70
     0
 62
     7
  6
CONTINUOUS
  0
LAYER
  2
1
 70
     0
 62
     1
  6
CENTER
  0
LAYER
  2
3
 70
     0
 62
     3
  6
CONTINUOUS
  0
LAYER
  2
11
 70
     0
 62
     3
  6
CONTINUOUS
  0
ENDTAB
  0
TABLE
  2
STYLE
 70
     2
  0
STYLE
  2
STANDARD
 70
     0
 40
0.0
 41
1.0
 50
0.0
 71
     0
 42
2.5000000000000488
  3
TXT
  4
BIGFONT
  0
STYLE
  2
STANDARD1
 70
     0
 40
0.0
 41
1.0
 50
0.0
 71
     0
 42
3.0
  3
txt
  4

  0
ENDTAB
  0
TABLE
  2
VIEW
 70
     1
  0
VIEW
  2
ALL
 70
     0
 40
87.5
 10
71.617647058823522
 20
43.75
 41
0.0
 11
0.0
 21
0.0
 31
1.0
 12
0.0
 22
0.0
 32
0.0
 42
0.0
 43
0.0
 44
0.0
 50
0.0
 71
     0
  0
ENDTAB
  0
TABLE
  2
UCS
 70
     0
  0
ENDTAB
  0
TABLE
  2
APPID
 70
     3
  0
APPID
  2
ACAD
 70
     0
  0
APPID
  2
ACAD_MLEADERVER
 70
     0
  0
APPID
  2
ACAD_NAV_VCDISPLAY
 70
     0
  0
ENDTAB
  0
TABLE
  2
DIMSTYLE
 70
     1
  0
DIMSTYLE
  2
STANDARD
 70
     0
  3

  4

  5

  6

  7

 40
1.0
 41
0.18
 42
0.0625
 43
0.38
 44
0.18
 45
0.0
 46
0.0
 47
0.0
 48
0.0
140
0.18
141
0.09
142
0.0
143
25.399999999999999
144
1.0
145
0.0
146
1.0
147
0.09
 71
     0
 72
     0
 73
     1
 74
     1
 75
     0
 76
     0
 77
     0
 78
     0
170
     0
171
     2
172
     0
173
     0
174
     0
175
     0
176
     0
177
     0
178
     0
  0
ENDTAB
  0
ENDSEC
  0
SECTION
  2
BLOCKS
  0
BLOCK
  8
0
  2
$MODEL_SPACE
 70
     0
 10
0.0
 20
0.0
 30
0.0
  3
$MODEL_SPACE
  1

  0
ENDBLK
  5
8F
  8
0
  0
BLOCK
 67
     1
  8
0
  2
$PAPER_SPACE
 70
     0
 10
0.0
 20
0.0
 30
0.0
  3
$PAPER_SPACE
  1

  0
ENDBLK
  5
8D
 67
     1
  8
0
  0
ENDSEC
  0
SECTION
  2
ENTITIES
  0
ARC
  5
53
  8
0
 10
37.330726417947041
 20
28.276291501952361
 30
0.0
 40
0.3
 50
336.76379688519711
 51
90.0
  0
ARC
  5
54
  8
0
 10
30.213749397410851
 20
28.276291501952361
 30
0.0
 40
0.3
 50
90.0
 51
203.236203114803
  0
ARC
  5
55
  8
0
 10
30.25530238339033
 20
31.314115514501101
 30
0.0
 40
8.0
 50
308.06537863905419
 51
336.76379688519722
  0
ARC
  5
56
  8
0
 10
37.289173431967477
 20
31.314115514501101
 30
0.0
 40
8.0
 50
203.236203114803
 51
231.9346213609457
  0
ARC
  5
57
  8
0
 10
33.772237907678928
 20
27.076291501952358
 30
0.0
 40
2.5
 50
235.51304436426361
 51
304.48695563573528
  0
LINE
  5
58
  8
0
 10
37.330726417947027
 20
28.57629150195234
 30
0.0
 11
30.213749397410851
 21
28.576291501952358
 31
0.0
  0
ARC
  5
59
  8
0
 10
33.772237907678893
 20
25.026291501952372
 30
0.0
 40
1.25
 50
185.4302630750887
 51
354.5697369249113
  0
LINE
  5
5A
  8
1
 10
33.772237907678907
 20
30.076291501952351
 30
0.0
 11
33.772237907678893
 21
22.276291501952372
 31
0.0
  0
LINE
  5
9F
  8
0
 10
48.787411702187661
 20
28.576291501952369
 30
0.0
 11
60.28741170218764
 21
28.57629150195238
 31
0.0
  0
ARC
  5
A0
  8
0
 10
56.287411702187697
 20
22.96354739812082
 30
0.0
 40
2.6217232013397971
 50
37.962573011487407
 51
142.037426988513
  0
CIRCLE
  5
A1
  8
0
 10
56.287411702187683
 20
43.191586749604006
 30
0.0
 40
2.0669999999999988
  0
CIRCLE
  5
A2
  8
3
 10
56.287411702187683
 20
43.191586749604006
 30
0.0
 40
2.5
  0
LINE
  5
A3
  8
0
 10
48.787411702187697
 20
39.191586749604006
 30
0.0
 11
60.287411702187711
 21
39.191586749604021
 31
0.0
  0
LINE
  5
A4
  8
0
 10
48.787411702187697
 20
47.191586749603999
 30
0.0
 11
60.287411702187683
 21
47.191586749604006
 31
0.0
  0
LINE
  5
A6
  8
0
 10
60.287411702187669
 20
24.57629150195234
 30
0.0
 11
60.287411702187669
 21
28.576291501952369
 31
0.0
  0
LINE
  5
A7
  8
0
 10
58.354411702187797
 20
24.57629150195234
 30
0.0
 11
60.287411702187647
 21
24.57629150195234
 31
0.0
  0
LINE
  5
A8
  8
0
 10
60.287411702187711
 20
39.191586749604028
 30
0.0
 11
60.287411702187683
 21
47.191586749604028
 31
0.0
  0
LINE
  5
A9
  8
1
 10
51.287411702187661
 20
30.076291501952369
 30
0.0
 11
51.287411702187661
 21
22.276291501952389
 31
0.0
  0
LINE
  5
AA
  8
1
 10
56.287411702187669
 20
30.076291501952369
 30
0.0
 11
56.287411702187661
 21
23.07629150195234
 31
0.0
  0
ARC
  5
AB
  8
0
 10
51.287411702187661
 20
25.0262915019524
 30
0.0
 40
1.25
 50
194.91779605012431
 51
345.0822039498774
  0
ARC
  5
AC
  8
0
 10
51.287411702187697
 20
22.51565370362508
 30
0.0
 40
2.499999999999666
 50
55.513044364259919
 51
124.48695563574159
  0
LINE
  5
AD
  8
0
 10
52.70295819174688
 20
24.57629150195234
 30
0.0
 11
54.220411702187697
 21
24.57629150195234
 31
0.0
  0
LINE
  5
AE
  8
0
 10
48.787411702187661
 20
24.57629150195234
 30
0.0
 11
48.787411702187661
 21
28.576291501952369
 31
0.0
  0
LINE
  5
AF
  8
0
 10
48.787411702187647
 20
24.57629150195234
 30
0.0
 11
49.871865212628521
 21
24.57629150195234
 31
0.0
  0
LINE
  5
B1
  8
0
 10
48.787411702187697
 20
39.191586749604006
 30
0.0
 11
48.787411702187683
 21
47.191586749603999
 31
0.0
  0
LINE
  5
B4
  8
1
 10
56.287411702187683
 20
47.191586749604006
 30
0.0
 11
56.287411702187683
 21
39.191586749604021
 31
0.0
  0
LINE
  5
B5
  8
1
 10
61.787411702187697
 20
43.191586749604006
 30
0.0
 11
47.28741170218769
 21
43.191586749604006
 31
0.0
  0
TEXT
  5
18E
  8
0
 62
     3
 10
0.0
 20
0.0
 30
0.0
 40
5.0
  1
L5-TST5-SUS
  7
STANDARD1
  0
ENDSEC
  0
EOF
