  0
SECTION
  2
HEADER
  9
$ACADVER
  1
AC1009
  9
$INSBASE
 10
0.0
 20
0.0
 30
0.0
  9
$EXTMIN
 10
0.0
 20
-2.960436562073669
 30
0.0
  9
$EXTMAX
 10
174.373525
 20
121.380948
 30
0.0
  9
$LIMMIN
 10
0.0
 20
0.0
  9
$LIMMAX
 10
195.0
 20
135.0
  9
$ORTHOMODE
 70
     1
  9
$REGENMODE
 70
     1
  9
$FILLMODE
 70
     1
  9
$QTEXTMODE
 70
     0
  9
$MIRRTEXT
 70
     0
  9
$DRAGMODE
 70
     2
  9
$LTSCALE
 40
5.0
  9
$OSMODE
 70
  3071
  9
$ATTMODE
 70
     1
  9
$TEXTSIZE
 40
0.2
  9
$TRACEWID
 40
0.05
  9
$TEXTSTYLE
  7
STANDARD
  9
$CLAYER
  8
0
  9
$CELTYPE
  6
BYLAYER
  9
$CECOLOR
 62
   256
  9
$DIMSCALE
 40
0.5
  9
$DIMASZ
 40
3.0
  9
$DIMEXO
 40
1.0
  9
$DIMDLI
 40
6.0
  9
$DIMRND
 40
0.0
  9
$DIMDLE
 40
0.0
  9
$DIMEXE
 40
1.0
  9
$DIMTP
 40
495.0
  9
$DIMTM
 40
0.0
  9
$DIMTXT
 40
3.0
  9
$DIMCEN
 40
0.0
  9
$DIMTSZ
 40
0.0
  9
$DIMTOL
 70
     0
  9
$DIMLIM
 70
     0
  9
$DIMTIH
 70
     0
  9
$DIMTOH
 70
     0
  9
$DIMSE1
 70
     0
  9
$DIMSE2
 70
     0
  9
$DIMTAD
 70
     1
  9
$DIMZIN
 70
     0
  9
$DIMBLK
  1

  9
$DIMASO
 70
     0
  9
$DIMSHO
 70
     0
  9
$DIMPOST
  1

  9
$DIMAPOST
  1

  9
$DIMALT
 70
     0
  9
$DIMALTD
 70
     2
  9
$DIMALTF
 40
25.399999999999999
  9
$DIMLFAC
 40
1.0
  9
$DIMTOFL
 70
     1
  9
$DIMTVP
 40
0.0
  9
$DIMTIX
 70
     1
  9
$DIMSOXD
 70
     0
  9
$DIMSAH
 70
     0
  9
$DIMBLK1
  1

  9
$DIMBLK2
  1

  9
$DIMSTYLE
  2
STANDARD
  9
$DIMCLRD
 70
     0
  9
$DIMCLRE
 70
     0
  9
$DIMCLRT
 70
     0
  9
$DIMTFAC
 40
1.0
  9
$DIMGAP
 40
0.09
  9
$LUNITS
 70
     2
  9
$LUPREC
 70
     2
  9
$SKETCHINC
 40
0.1
  9
$FILLETRAD
 40
0.0
  9
$AUNITS
 70
     0
  9
$AUPREC
 70
     2
  9
$MENU
  1
E:\r13\win\SUPPORT\ACAD
  9
$ELEVATION
 40
0.0
  9
$PELEVATION
 40
0.0
  9
$THICKNESS
 40
0.0
  9
$LIMCHECK
 70
     0
  9
$BLIPMODE
 70
     0
  9
$CHAMFERA
 40
0.0
  9
$CHAMFERB
 40
0.0
  9
$SKPOLY
 70
     0
  9
$TDCREATE
 40
2449840.6548958342
  9
$TDUPDATE
 40
2456597.5471505211
  9
$TDINDWG
 40
0.0000993519
  9
$TDUSRTIMER
 40
0.0000993519
  9
$USRTIMER
 70
     1
  9
$ANGBASE
 50
0.0
  9
$ANGDIR
 70
     0
  9
$PDMODE
 70
     0
  9
$PDSIZE
 40
0.0
  9
$PLINEWID
 40
0.0
  9
$COORDS
 70
     1
  9
$SPLFRAME
 70
     0
  9
$SPLINETYPE
 70
     6
  9
$SPLINESEGS
 70
     8
  9
$ATTDIA
 70
     0
  9
$ATTREQ
 70
     1
  9
$HANDLING
 70
     1
  9
$HANDSEED
  5
297
  9
$SURFTAB1
 70
     6
  9
$SURFTAB2
 70
     6
  9
$SURFTYPE
 70
     6
  9
$SURFU
 70
     6
  9
$SURFV
 70
     6
  9
$UCSNAME
  2

  9
$UCSORG
 10
0.0
 20
0.0
 30
0.0
  9
$UCSXDIR
 10
1.0
 20
0.0
 30
0.0
  9
$UCSYDIR
 10
0.0
 20
1.0
 30
0.0
  9
$PUCSNAME
  2

  9
$PUCSORG
 10
0.0
 20
0.0
 30
0.0
  9
$PUCSXDIR
 10
1.0
 20
0.0
 30
0.0
  9
$PUCSYDIR
 10
0.0
 20
1.0
 30
0.0
  9
$USERI1
 70
     3
  9
$USERI2
 70
     1
  9
$USERI3
 70
     0
  9
$USERI4
 70
     1
  9
$USERI5
 70
     0
  9
$USERR1
 40
0.5
  9
$USERR2
 40
3.0
  9
$USERR3
 40
3.0
  9
$USERR4
 40
3.0
  9
$USERR5
 40
10.0
  9
$WORLDVIEW
 70
     1
  9
$SHADEDGE
 70
     3
  9
$SHADEDIF
 70
    70
  9
$TILEMODE
 70
     1
  9
$MAXACTVP
 70
    16
  9
$PLIMCHECK
 70
     0
  9
$PEXTMIN
 10
1.0000000000000000E+020
 20
1.0000000000000000E+020
 30
1.0000000000000000E+020
  9
$PEXTMAX
 10
-1.0000000000000000E+020
 20
-1.0000000000000000E+020
 30
-1.0000000000000000E+020
  9
$PLIMMIN
 10
0.0
 20
0.0
  9
$PLIMMAX
 10
12.0
 20
9.0
  9
$UNITMODE
 70
     0
  9
$VISRETAIN
 70
     0
  9
$PLINEGEN
 70
     0
  9
$PSLTSCALE
 70
     0
  0
ENDSEC
  0
SECTION
  2
TABLES
  0
TABLE
  2
VPORT
 70
     1
  0
VPORT
  2
*ACTIVE
 70
     0
 10
0.0
 20
0.0
 11
1.0
 21
1.0
 12
97.497024763139223
 22
80.848703909439024
 13
0.0
 23
0.0
 14
5.0
 24
5.0
 15
5.0
 25
5.0
 16
0.0
 26
0.0
 36
1.0
 17
0.0
 27
0.0
 37
0.0
 40
169.22413112104309
 41
1.9089595375722539
 42
50.0
 43
0.0
 44
0.0
 50
0.0
 51
0.0
 71
     0
 72
   100
 73
     1
 74
     0
 75
     0
 76
     0
 77
     0
 78
     0
  0
ENDTAB
  0
TABLE
  2
LTYPE
 70
     3
  0
LTYPE
  2
CONTINUOUS
 70
     0
  3
Solid Line
 72
    65
 73
     0
 40
0.0
  0
LTYPE
  2
CENTER
 70
     0
  3
____ _ ____ _ ____ _ ____ _ ____ _ ____ _ ____
 72
    65
 73
     4
 40
2.0
 49
1.25
 49
-0.25
 49
0.25
 49
-0.25
  0
LTYPE
  2
PHANTOM2
 70
     0
  3
___ _ _ ___ _ _ ___ _ _ ___ _ _
 72
    65
 73
     6
 40
1.25
 49
0.625
 49
-0.125
 49
0.125
 49
-0.125
 49
0.125
 49
-0.125
  0
ENDTAB
  0
TABLE
  2
LAYER
 70
     3
  0
LAYER
  2
0
 70
     0
 62
     7
  6
CONTINUOUS
  0
LAYER
  2
1
 70
     0
 62
     1
  6
CENTER
  0
LAYER
  2
ITEM_50
 70
     0
 62
     7
  6
CONTINUOUS
  0
ENDTAB
  0
TABLE
  2
STYLE
 70
     2
  0
STYLE
  2
STANDARD
 70
     0
 40
0.0
 41
1.0
 50
0.0
 71
     0
 42
0.2
  3
TXT
  4
BIGFONT
  0
STYLE
  2
STANDARD1
 70
     0
 40
0.0
 41
1.0
 50
0.0
 71
     0
 42
3.0
  3
txt
  4

  0
ENDTAB
  0
TABLE
  2
VIEW
 70
     0
  0
ENDTAB
  0
TABLE
  2
UCS
 70
     0
  0
ENDTAB
  0
TABLE
  2
APPID
 70
     3
  0
APPID
  2
ACAD
 70
     0
  0
APPID
  2
ACAD_MLEADERVER
 70
     0
  0
APPID
  2
ACAD_NAV_VCDISPLAY
 70
     0
  0
ENDTAB
  0
TABLE
  2
DIMSTYLE
 70
     1
  0
DIMSTYLE
  2
STANDARD
 70
     0
  3

  4

  5

  6

  7

 40
1.0
 41
0.18
 42
0.0625
 43
0.38
 44
0.18
 45
0.0
 46
0.0
 47
0.0
 48
0.0
140
0.18
141
0.09
142
0.0
143
25.399999999999999
144
1.0
145
0.0
146
1.0
147
0.09
 71
     0
 72
     0
 73
     1
 74
     1
 75
     0
 76
     0
 77
     0
 78
     0
170
     0
171
     2
172
     0
173
     0
174
     0
175
     0
176
     0
177
     0
178
     0
  0
ENDTAB
  0
ENDSEC
  0
SECTION
  2
BLOCKS
  0
BLOCK
  8
0
  2
$MODEL_SPACE
 70
     0
 10
0.0
 20
0.0
 30
0.0
  3
$MODEL_SPACE
  1

  0
ENDBLK
  5
149
  8
0
  0
BLOCK
 67
     1
  8
0
  2
$PAPER_SPACE
 70
     0
 10
0.0
 20
0.0
 30
0.0
  3
$PAPER_SPACE
  1

  0
ENDBLK
  5
147
 67
     1
  8
0
  0
BLOCK
  8
0
  2
ACAD
 70
     0
 10
0.0
 20
0.0
 30
0.0
  3
ACAD
  1

  0
ENDBLK
  5
39
  8
0
  0
ENDSEC
  0
SECTION
  2
ENTITIES
  0
INSERT
  5
43
  8
0
  2
ACAD
 10
-44.797308999999998
 20
-526.77067699999998
 30
0.0
  0
LINE
  5
44
  8
ITEM_50
 10
97.226664999999997
 20
54.799298
 30
0.0
 11
101.226665
 21
54.799298
 31
0.0
  0
CIRCLE
  5
45
  8
ITEM_50
 10
79.226664999999997
 20
58.799298
 30
0.0
 40
2.149999999999999
  0
ARC
  5
46
  8
ITEM_50
 10
82.026665000000008
 20
67.299297999999993
 30
0.0
 40
0.3
 50
180.0
 51
270.0
  0
ARC
  5
47
  8
ITEM_50
 10
80.361232000000001
 20
65.449297999999999
 30
0.0
 40
3.0
 50
270.0
 51
315.0
  0
ARC
  5
48
  8
ITEM_50
 10
84.144253000000006
 20
66.166886000000005
 30
0.0
 40
0.832412
 50
314.99991199999999
 51
90.0
  0
LINE
  5
49
  8
ITEM_50
 10
81.726664999999997
 20
67.999297999999996
 30
0.0
 11
81.726664999999997
 21
67.299297999999993
 31
0.0
  0
LINE
  5
4A
  8
ITEM_50
 10
82.026665000000008
 20
66.999297999999996
 30
0.0
 11
84.144253000000006
 21
66.999297999999996
 31
0.0
  0
LINE
  5
4B
  8
ITEM_50
 10
84.732856000000027
 20
65.578282000000002
 30
0.0
 11
82.482551999999998
 21
63.327978000000002
 31
0.0
  0
LINE
  5
4C
  8
ITEM_50
 10
80.361232000000001
 20
62.449297999999999
 30
0.0
 11
79.226664999999997
 21
62.449297999999999
 31
0.0
  0
LINE
  5
4D
  8
ITEM_50
 10
78.092097999999993
 20
62.449297999999999
 30
0.0
 11
79.226664999999997
 21
62.449297999999999
 31
0.0
  0
LINE
  5
4E
  8
ITEM_50
 10
73.720472999999998
 20
65.578282000000002
 30
0.0
 11
75.970776999999984
 21
63.327978000000002
 31
0.0
  0
LINE
  5
4F
  8
ITEM_50
 10
76.426665
 20
66.999297999999996
 30
0.0
 11
74.309076000000005
 21
66.999297999999996
 31
0.0
  0
LINE
  5
50
  8
ITEM_50
 10
76.726664999999997
 20
67.999297999999996
 30
0.0
 11
76.726664999999997
 21
67.299297999999993
 31
0.0
  0
ARC
  5
51
  8
ITEM_50
 10
74.309076000000005
 20
66.166886000000005
 30
0.0
 40
0.832412
 50
90.0
 51
225.00008800000001
  0
ARC
  5
52
  8
ITEM_50
 10
78.092097999999993
 20
65.449297999999999
 30
0.0
 40
3.0
 50
225.0
 51
270.0
  0
ARC
  5
53
  8
ITEM_50
 10
76.426665
 20
67.299297999999993
 30
0.0
 40
0.3
 50
270.0
 51
0.0
  0
CIRCLE
  5
54
  8
ITEM_50
 10
89.226664999999997
 20
64.799297999999993
 30
0.0
 40
2.149999999999999
  0
ARC
  5
55
  8
ITEM_50
 10
86.426665
 20
56.299298
 30
0.0
 40
0.3
 50
0.0
 51
90.0
  0
ARC
  5
56
  8
ITEM_50
 10
88.092097999999993
 20
58.149297999999987
 30
0.0
 40
3.0
 50
90.0
 51
135.0
  0
ARC
  5
57
  8
ITEM_50
 10
84.309076000000005
 20
57.431710000000002
 30
0.0
 40
0.832412
 50
134.99991199999999
 51
270.0
  0
LINE
  5
58
  8
ITEM_50
 10
86.726664999999997
 20
55.59929799999999
 30
0.0
 11
86.726664999999997
 21
56.299298
 31
0.0
  0
LINE
  5
59
  8
ITEM_50
 10
86.426665
 20
56.599297999999997
 30
0.0
 11
84.309076000000005
 21
56.599297999999997
 31
0.0
  0
LINE
  5
5A
  8
ITEM_50
 10
83.720472999999998
 20
58.020314999999997
 30
0.0
 11
85.970776999999984
 21
60.270618000000013
 31
0.0
  0
LINE
  5
5B
  8
ITEM_50
 10
88.092097999999993
 20
61.149297999999987
 30
0.0
 11
89.226664999999997
 21
61.149297999999987
 31
0.0
  0
LINE
  5
5C
  8
ITEM_50
 10
90.361232000000001
 20
61.149297999999987
 30
0.0
 11
89.226664999999997
 21
61.149297999999987
 31
0.0
  0
LINE
  5
5D
  8
ITEM_50
 10
94.732856000000027
 20
58.020314999999997
 30
0.0
 11
92.482551999999998
 21
60.270618000000013
 31
0.0
  0
LINE
  5
5E
  8
ITEM_50
 10
92.026665000000008
 20
56.599297999999997
 30
0.0
 11
94.144253000000006
 21
56.599297999999997
 31
0.0
  0
LINE
  5
5F
  8
ITEM_50
 10
91.726664999999997
 20
55.59929799999999
 30
0.0
 11
91.726664999999997
 21
56.299298
 31
0.0
  0
ARC
  5
60
  8
ITEM_50
 10
94.144253000000006
 20
57.431710000000002
 30
0.0
 40
0.832412
 50
270.0
 51
45.000087999999991
  0
ARC
  5
61
  8
ITEM_50
 10
90.361232000000001
 20
58.149297999999987
 30
0.0
 40
3.0
 50
45.0
 51
90.0
  0
ARC
  5
62
  8
ITEM_50
 10
92.026665000000008
 20
56.299298
 30
0.0
 40
0.3
 50
90.0
 51
180.0
  0
LINE
  5
63
  8
ITEM_50
 10
81.226664999999997
 20
54.799298
 30
0.0
 11
79.226664999999997
 21
54.799298
 31
0.0
  0
CIRCLE
  5
64
  8
ITEM_50
 10
69.226664999999997
 20
64.799297999999993
 30
0.0
 40
2.149999999999999
  0
LINE
  5
65
  8
ITEM_50
 10
77.226664999999997
 20
54.799298
 30
0.0
 11
79.226664999999997
 21
54.799298
 31
0.0
  0
ARC
  5
66
  8
ITEM_50
 10
66.426665
 20
56.299298
 30
0.0
 40
0.3
 50
0.0
 51
90.0
  0
ARC
  5
67
  8
ITEM_50
 10
68.092097999999993
 20
58.149297999999987
 30
0.0
 40
3.0
 50
90.0
 51
135.0
  0
ARC
  5
68
  8
ITEM_50
 10
64.309076000000005
 20
57.431710000000002
 30
0.0
 40
0.832412
 50
134.99991199999999
 51
270.0
  0
LINE
  5
69
  8
ITEM_50
 10
66.726664999999997
 20
55.59929799999999
 30
0.0
 11
66.726664999999997
 21
56.299298
 31
0.0
  0
LINE
  5
6A
  8
ITEM_50
 10
66.426665
 20
56.599297999999997
 30
0.0
 11
64.309076000000005
 21
56.599297999999997
 31
0.0
  0
LINE
  5
6B
  8
ITEM_50
 10
63.720472999999998
 20
58.020314999999997
 30
0.0
 11
65.970776999999984
 21
60.270618000000013
 31
0.0
  0
LINE
  5
6C
  8
ITEM_50
 10
68.092097999999993
 20
61.149297999999987
 30
0.0
 11
69.226664999999997
 21
61.149297999999987
 31
0.0
  0
LINE
  5
6D
  8
ITEM_50
 10
70.361232000000001
 20
61.149297999999987
 30
0.0
 11
69.226664999999997
 21
61.149297999999987
 31
0.0
  0
LINE
  5
6E
  8
ITEM_50
 10
74.732856000000012
 20
58.020314999999997
 30
0.0
 11
72.482551999999998
 21
60.270618000000013
 31
0.0
  0
LINE
  5
6F
  8
ITEM_50
 10
72.026665000000008
 20
56.599297999999997
 30
0.0
 11
74.144253000000006
 21
56.599297999999997
 31
0.0
  0
LINE
  5
70
  8
ITEM_50
 10
71.726664999999997
 20
55.59929799999999
 30
0.0
 11
71.726664999999997
 21
56.299298
 31
0.0
  0
ARC
  5
71
  8
ITEM_50
 10
74.144253000000006
 20
57.431710000000002
 30
0.0
 40
0.832412
 50
270.0
 51
45.000087999999991
  0
ARC
  5
72
  8
ITEM_50
 10
70.361232000000001
 20
58.149297999999987
 30
0.0
 40
3.0
 50
45.0
 51
90.0
  0
ARC
  5
73
  8
ITEM_50
 10
72.026665000000008
 20
56.299298
 30
0.0
 40
0.3
 50
90.0
 51
180.0
  0
ARC
  5
74
  8
ITEM_50
 10
56.426665
 20
67.299297999999993
 30
0.0
 40
0.3
 50
270.0
 51
0.0
  0
ARC
  5
75
  8
ITEM_50
 10
58.092098
 20
65.449297999999999
 30
0.0
 40
3.0
 50
225.0
 51
270.0
  0
ARC
  5
76
  8
ITEM_50
 10
54.309075999999997
 20
66.166886000000005
 30
0.0
 40
0.832412
 50
90.0
 51
225.00008800000001
  0
LINE
  5
77
  8
ITEM_50
 10
56.726664999999997
 20
67.999297999999996
 30
0.0
 11
56.726664999999997
 21
67.299297999999993
 31
0.0
  0
LINE
  5
78
  8
ITEM_50
 10
56.426665
 20
66.999297999999996
 30
0.0
 11
54.309075999999997
 21
66.999297999999996
 31
0.0
  0
LINE
  5
79
  8
ITEM_50
 10
53.720472999999998
 20
65.578282000000002
 30
0.0
 11
55.970776999999998
 21
63.327978000000002
 31
0.0
  0
LINE
  5
7A
  8
ITEM_50
 10
58.092098
 20
62.449297999999999
 30
0.0
 11
59.226664999999997
 21
62.449297999999999
 31
0.0
  0
LINE
  5
7B
  8
ITEM_50
 10
60.361231999999987
 20
62.449297999999999
 30
0.0
 11
59.226664999999997
 21
62.449297999999999
 31
0.0
  0
LINE
  5
7C
  8
ITEM_50
 10
64.732856000000012
 20
65.578282000000002
 30
0.0
 11
62.482551999999998
 21
63.327978000000002
 31
0.0
  0
LINE
  5
7D
  8
ITEM_50
 10
62.026665000000001
 20
66.999297999999996
 30
0.0
 11
64.144253000000006
 21
66.999297999999996
 31
0.0
  0
LINE
  5
7E
  8
ITEM_50
 10
61.726664999999997
 20
67.999297999999996
 30
0.0
 11
61.726664999999997
 21
67.299297999999993
 31
0.0
  0
ARC
  5
7F
  8
ITEM_50
 10
64.144253000000006
 20
66.166886000000005
 30
0.0
 40
0.832412
 50
314.99991199999999
 51
90.0
  0
ARC
  5
80
  8
ITEM_50
 10
60.361231999999987
 20
65.449297999999999
 30
0.0
 40
3.0
 50
270.0
 51
315.0
  0
ARC
  5
81
  8
ITEM_50
 10
62.026665000000001
 20
67.299297999999993
 30
0.0
 40
0.3
 50
180.0
 51
270.0
  0
CIRCLE
  5
82
  8
ITEM_50
 10
59.226664999999997
 20
58.799298
 30
0.0
 40
2.149999999999999
  0
CIRCLE
  5
83
  8
ITEM_50
 10
119.226665
 20
58.799298
 30
0.0
 40
2.149999999999999
  0
ARC
  5
84
  8
ITEM_50
 10
122.02666499999999
 20
67.299297999999993
 30
0.0
 40
0.3
 50
180.0
 51
270.0
  0
ARC
  5
85
  8
ITEM_50
 10
120.361232
 20
65.449297999999999
 30
0.0
 40
3.0
 50
270.0
 51
315.0
  0
ARC
  5
86
  8
ITEM_50
 10
124.14425300000001
 20
66.166886000000005
 30
0.0
 40
0.832412
 50
314.99991199999999
 51
90.0
  0
LINE
  5
87
  8
ITEM_50
 10
121.726665
 20
67.999297999999996
 30
0.0
 11
121.726665
 21
67.299297999999993
 31
0.0
  0
LINE
  5
88
  8
ITEM_50
 10
122.02666499999999
 20
66.999297999999996
 30
0.0
 11
124.14425300000001
 21
66.999297999999996
 31
0.0
  0
LINE
  5
89
  8
ITEM_50
 10
124.732856
 20
65.578282000000002
 30
0.0
 11
122.482552
 21
63.327978000000002
 31
0.0
  0
LINE
  5
8A
  8
ITEM_50
 10
120.361232
 20
62.449297999999999
 30
0.0
 11
119.226665
 21
62.449297999999999
 31
0.0
  0
LINE
  5
8B
  8
ITEM_50
 10
118.09209799999999
 20
62.449297999999999
 30
0.0
 11
119.226665
 21
62.449297999999999
 31
0.0
  0
LINE
  5
8C
  8
ITEM_50
 10
113.720473
 20
65.578282000000002
 30
0.0
 11
115.970777
 21
63.327978000000002
 31
0.0
  0
LINE
  5
8D
  8
ITEM_50
 10
116.426665
 20
66.999297999999996
 30
0.0
 11
114.309076
 21
66.999297999999996
 31
0.0
  0
LINE
  5
8E
  8
ITEM_50
 10
116.726665
 20
67.999297999999996
 30
0.0
 11
116.726665
 21
67.299297999999993
 31
0.0
  0
ARC
  5
8F
  8
ITEM_50
 10
114.309076
 20
66.166886000000005
 30
0.0
 40
0.832412
 50
90.0
 51
225.00008800000001
  0
ARC
  5
90
  8
ITEM_50
 10
118.09209799999999
 20
65.449297999999999
 30
0.0
 40
3.0
 50
225.0
 51
270.0
  0
ARC
  5
91
  8
ITEM_50
 10
116.426665
 20
67.299297999999993
 30
0.0
 40
0.3
 50
270.0
 51
0.0
  0
CIRCLE
  5
92
  8
ITEM_50
 10
109.226665
 20
64.799297999999993
 30
0.0
 40
2.149999999999999
  0
LINE
  5
93
  8
ITEM_50
 10
117.226665
 20
54.799298
 30
0.0
 11
119.226665
 21
54.799298
 31
0.0
  0
ARC
  5
94
  8
ITEM_50
 10
106.426665
 20
56.299298
 30
0.0
 40
0.3
 50
0.0
 51
90.0
  0
ARC
  5
95
  8
ITEM_50
 10
108.09209799999999
 20
58.149297999999987
 30
0.0
 40
3.0
 50
90.0
 51
135.0
  0
ARC
  5
96
  8
ITEM_50
 10
104.309076
 20
57.431710000000002
 30
0.0
 40
0.832412
 50
134.99991199999999
 51
270.0
  0
LINE
  5
97
  8
ITEM_50
 10
106.726665
 20
55.59929799999999
 30
0.0
 11
106.726665
 21
56.299298
 31
0.0
  0
LINE
  5
98
  8
ITEM_50
 10
106.426665
 20
56.599297999999997
 30
0.0
 11
104.309076
 21
56.599297999999997
 31
0.0
  0
LINE
  5
99
  8
ITEM_50
 10
103.720473
 20
58.020314999999997
 30
0.0
 11
105.970777
 21
60.270618000000013
 31
0.0
  0
LINE
  5
9A
  8
ITEM_50
 10
108.09209799999999
 20
61.149297999999987
 30
0.0
 11
109.226665
 21
61.149297999999987
 31
0.0
  0
LINE
  5
9B
  8
ITEM_50
 10
110.361232
 20
61.149297999999987
 30
0.0
 11
109.226665
 21
61.149297999999987
 31
0.0
  0
LINE
  5
9C
  8
ITEM_50
 10
114.732856
 20
58.020314999999997
 30
0.0
 11
112.482552
 21
60.270618000000013
 31
0.0
  0
LINE
  5
9D
  8
ITEM_50
 10
112.02666499999999
 20
56.599297999999997
 30
0.0
 11
114.14425300000001
 21
56.599297999999997
 31
0.0
  0
LINE
  5
9E
  8
ITEM_50
 10
111.726665
 20
55.59929799999999
 30
0.0
 11
111.726665
 21
56.299298
 31
0.0
  0
ARC
  5
9F
  8
ITEM_50
 10
114.14425300000001
 20
57.431710000000002
 30
0.0
 40
0.832412
 50
270.0
 51
45.000087999999991
  0
ARC
  5
A0
  8
ITEM_50
 10
110.361232
 20
58.149297999999987
 30
0.0
 40
3.0
 50
45.0
 51
90.0
  0
ARC
  5
A1
  8
ITEM_50
 10
112.02666499999999
 20
56.299298
 30
0.0
 40
0.3
 50
90.0
 51
180.0
  0
ARC
  5
A2
  8
ITEM_50
 10
96.426665
 20
67.299297999999993
 30
0.0
 40
0.3
 50
270.0
 51
0.0
  0
ARC
  5
A3
  8
ITEM_50
 10
98.092097999999993
 20
65.449297999999999
 30
0.0
 40
3.0
 50
225.0
 51
270.0
  0
ARC
  5
A4
  8
ITEM_50
 10
94.309076000000005
 20
66.166886000000005
 30
0.0
 40
0.832412
 50
90.0
 51
225.00008800000001
  0
LINE
  5
A5
  8
ITEM_50
 10
96.726664999999997
 20
67.999297999999996
 30
0.0
 11
96.726664999999997
 21
67.299297999999993
 31
0.0
  0
LINE
  5
A6
  8
ITEM_50
 10
96.426665
 20
66.999297999999996
 30
0.0
 11
94.309076000000005
 21
66.999297999999996
 31
0.0
  0
LINE
  5
A7
  8
ITEM_50
 10
93.720472999999998
 20
65.578282000000002
 30
0.0
 11
95.970776999999984
 21
63.327978000000002
 31
0.0
  0
LINE
  5
A8
  8
ITEM_50
 10
98.092097999999993
 20
62.449297999999999
 30
0.0
 11
99.226664999999997
 21
62.449297999999999
 31
0.0
  0
LINE
  5
A9
  8
ITEM_50
 10
100.361232
 20
62.449297999999999
 30
0.0
 11
99.226664999999997
 21
62.449297999999999
 31
0.0
  0
LINE
  5
AA
  8
ITEM_50
 10
104.732856
 20
65.578282000000002
 30
0.0
 11
102.482552
 21
63.327978000000002
 31
0.0
  0
LINE
  5
AB
  8
ITEM_50
 10
102.02666499999999
 20
66.999297999999996
 30
0.0
 11
104.14425300000001
 21
66.999297999999996
 31
0.0
  0
LINE
  5
AC
  8
ITEM_50
 10
101.726665
 20
67.999297999999996
 30
0.0
 11
101.726665
 21
67.299297999999993
 31
0.0
  0
ARC
  5
AD
  8
ITEM_50
 10
104.14425300000001
 20
66.166886000000005
 30
0.0
 40
0.832412
 50
314.99991199999999
 51
90.0
  0
ARC
  5
AE
  8
ITEM_50
 10
100.361232
 20
65.449297999999999
 30
0.0
 40
3.0
 50
270.0
 51
315.0
  0
ARC
  5
AF
  8
ITEM_50
 10
102.02666499999999
 20
67.299297999999993
 30
0.0
 40
0.3
 50
180.0
 51
270.0
  0
CIRCLE
  5
B0
  8
ITEM_50
 10
99.226664999999997
 20
58.799298
 30
0.0
 40
2.149999999999999
  0
LINE
  5
B1
  8
ITEM_50
 10
51.226665000000011
 20
54.799298
 30
0.0
 11
61.226665000000011
 21
54.799298
 31
0.0
  0
LINE
  5
B2
  8
ITEM_50
 10
127.226665
 20
54.799298
 30
0.0
 11
119.226665
 21
54.799298
 31
0.0
  0
LINE
  5
B3
  8
ITEM_50
 10
51.226665000000011
 20
68.799297999999993
 30
0.0
 11
55.926664999999993
 21
68.799297999999993
 31
0.0
  0
LINE
  5
B4
  8
ITEM_50
 10
51.226665000000011
 20
54.799298
 30
0.0
 11
65.926664999999986
 21
54.799298
 31
0.0
  0
LINE
  5
B5
  8
ITEM_50
 10
49.226664999999997
 20
66.799297999999993
 30
0.0
 11
49.226664999999997
 21
56.799298
 31
0.0
  0
LINE
  5
B6
  8
ITEM_50
 10
129.226665
 20
66.799297999999993
 30
0.0
 11
129.226665
 21
56.799298
 31
0.0
  0
LINE
  5
B7
  8
ITEM_50
 10
72.526665000000008
 20
54.799298
 30
0.0
 11
85.926664999999986
 21
54.799298
 31
0.0
  0
LINE
  5
B8
  8
ITEM_50
 10
62.526665000000001
 20
68.799297999999993
 30
0.0
 11
75.926664999999986
 21
68.799297999999993
 31
0.0
  0
LINE
  5
B9
  8
ITEM_50
 10
82.526665000000008
 20
68.799297999999993
 30
0.0
 11
95.926664999999986
 21
68.799297999999993
 31
0.0
  0
LINE
  5
BA
  8
ITEM_50
 10
102.52666499999999
 20
68.799297999999993
 30
0.0
 11
115.926665
 21
68.799297999999993
 31
0.0
  0
LINE
  5
BB
  8
ITEM_50
 10
92.526665000000008
 20
54.799298
 30
0.0
 11
105.926665
 21
54.799298
 31
0.0
  0
LINE
  5
BC
  8
ITEM_50
 10
112.52666499999999
 20
54.799298
 30
0.0
 11
127.226665
 21
54.799298
 31
0.0
  0
LINE
  5
BD
  8
ITEM_50
 10
122.52666499999999
 20
68.799297999999993
 30
0.0
 11
127.226665
 21
68.799297999999993
 31
0.0
  0
ARC
  5
BE
  8
ITEM_50
 10
127.226665
 20
66.799297999999993
 30
0.0
 40
2.0
 50
0.0
 51
90.0
  0
ARC
  5
BF
  8
ITEM_50
 10
127.226665
 20
56.799298
 30
0.0
 40
2.0
 50
270.0
 51
0.0
  0
ARC
  5
C0
  8
ITEM_50
 10
51.226665000000011
 20
66.799297999999993
 30
0.0
 40
2.0
 50
90.0
 51
180.0
  0
ARC
  5
C1
  8
ITEM_50
 10
51.226665000000011
 20
56.799298
 30
0.0
 40
2.0
 50
180.0
 51
270.0
  0
ARC
  5
C2
  8
ITEM_50
 10
55.926664999999993
 20
67.999297999999996
 30
0.0
 40
0.8
 50
0.0
 51
90.0
  0
ARC
  5
C3
  8
ITEM_50
 10
62.526665000000001
 20
67.999297999999996
 30
0.0
 40
0.8
 50
90.0
 51
180.0
  0
ARC
  5
C4
  8
ITEM_50
 10
65.926664999999986
 20
55.59929799999999
 30
0.0
 40
0.8
 50
270.0
 51
0.0
  0
ARC
  5
C5
  8
ITEM_50
 10
72.526665000000008
 20
55.59929799999999
 30
0.0
 40
0.8
 50
180.0
 51
270.0
  0
ARC
  5
C6
  8
ITEM_50
 10
75.926664999999986
 20
67.999297999999996
 30
0.0
 40
0.8
 50
0.0
 51
90.0
  0
ARC
  5
C7
  8
ITEM_50
 10
82.526665000000008
 20
67.999297999999996
 30
0.0
 40
0.8
 50
90.0
 51
180.0
  0
ARC
  5
C8
  8
ITEM_50
 10
95.926664999999986
 20
67.999297999999996
 30
0.0
 40
0.8
 50
0.0
 51
90.0
  0
ARC
  5
C9
  8
ITEM_50
 10
102.52666499999999
 20
67.999297999999996
 30
0.0
 40
0.8
 50
90.0
 51
180.0
  0
ARC
  5
CA
  8
ITEM_50
 10
92.526665000000008
 20
55.59929799999999
 30
0.0
 40
0.8
 50
180.0
 51
270.0
  0
ARC
  5
CB
  8
ITEM_50
 10
85.926664999999986
 20
55.59929799999999
 30
0.0
 40
0.8
 50
270.0
 51
360.0
  0
ARC
  5
CC
  8
ITEM_50
 10
115.926665
 20
67.999297999999996
 30
0.0
 40
0.8
 50
360.0
 51
90.0
  0
ARC
  5
CD
  8
ITEM_50
 10
122.52666499999999
 20
67.999297999999996
 30
0.0
 40
0.8
 50
90.0
 51
180.0
  0
ARC
  5
CE
  8
ITEM_50
 10
112.52666499999999
 20
55.59929799999999
 30
0.0
 40
0.8
 50
180.0
 51
270.0
  0
ARC
  5
CF
  8
ITEM_50
 10
105.926665
 20
55.59929799999999
 30
0.0
 40
0.8
 50
270.0
 51
0.0
  0
LINE
  5
D0
  8
ITEM_50
 10
49.226664999999997
 20
91.380948000000004
 30
0.0
 11
129.226665
 21
91.380948000000004
 31
0.0
  0
LINE
  5
D1
  8
ITEM_50
 10
144.373525
 20
68.799297999999993
 30
0.0
 11
144.373525
 21
54.799298
 31
0.0
  0
LINE
  5
D2
  8
ITEM_50
 10
49.226664999999997
 20
13.260839000000001
 30
0.0
 11
49.226664999999997
 21
43.260838999999997
 31
0.0
  0
LINE
  5
D3
  8
ITEM_50
 10
129.226665
 20
13.260839000000001
 30
0.0
 11
129.226665
 21
43.260838999999997
 31
0.0
  0
LINE
  5
D4
  8
ITEM_50
 10
49.226664999999997
 20
43.260838999999997
 30
0.0
 11
129.226665
 21
43.260838999999997
 31
0.0
  0
LINE
  5
D5
  8
ITEM_50
 10
129.226665
 20
13.260839000000001
 30
0.0
 11
129.226665
 21
43.260838999999997
 31
0.0
  0
LINE
  5
D6
  8
ITEM_50
 10
49.226664999999997
 20
13.260839000000001
 30
0.0
 11
49.226664999999997
 21
43.260838999999997
 31
0.0
  0
LINE
  5
D7
  8
ITEM_50
 10
144.373525
 20
68.799297999999993
 30
0.0
 11
174.373525
 21
68.799297999999993
 31
0.0
  0
LINE
  5
D8
  8
ITEM_50
 10
144.373525
 20
54.799298
 30
0.0
 11
174.373525
 21
54.799298
 31
0.0
  0
LINE
  5
D9
  8
ITEM_50
 10
116.726665
 20
121.380948
 30
0.0
 11
116.726665
 21
91.380948000000004
 31
0.0
  0
LINE
  5
DA
  8
ITEM_50
 10
121.726665
 20
121.380948
 30
0.0
 11
121.726665
 21
91.380948000000004
 31
0.0
  0
LINE
  5
DB
  8
ITEM_50
 10
101.726665
 20
121.380948
 30
0.0
 11
101.726665
 21
91.380948000000004
 31
0.0
  0
LINE
  5
DC
  8
ITEM_50
 10
96.726664999999997
 20
121.380948
 30
0.0
 11
96.726664999999997
 21
91.380948000000004
 31
0.0
  0
LINE
  5
DD
  8
ITEM_50
 10
76.726664999999997
 20
121.380948
 30
0.0
 11
76.726664999999997
 21
91.380948000000004
 31
0.0
  0
LINE
  5
DE
  8
ITEM_50
 10
81.726664999999997
 20
121.380948
 30
0.0
 11
81.726664999999997
 21
91.380948000000004
 31
0.0
  0
LINE
  5
DF
  8
ITEM_50
 10
56.726664999999997
 20
121.380948
 30
0.0
 11
56.726664999999997
 21
91.380948000000004
 31
0.0
  0
LINE
  5
E0
  8
ITEM_50
 10
61.726664999999997
 20
121.380948
 30
0.0
 11
61.726664999999997
 21
91.380948000000004
 31
0.0
  0
LINE
  5
E1
  8
ITEM_50
 10
66.726664999999997
 20
13.260839000000001
 30
0.0
 11
66.726664999999997
 21
43.260838999999997
 31
0.0
  0
LINE
  5
E2
  8
ITEM_50
 10
71.726664999999997
 20
13.260839000000001
 30
0.0
 11
71.726664999999997
 21
43.260838999999997
 31
0.0
  0
LINE
  5
E3
  8
ITEM_50
 10
86.726664999999997
 20
13.260839000000001
 30
0.0
 11
86.726664999999997
 21
43.260838999999997
 31
0.0
  0
LINE
  5
E4
  8
ITEM_50
 10
91.726664999999997
 20
13.260839000000001
 30
0.0
 11
91.726664999999997
 21
43.260838999999997
 31
0.0
  0
LINE
  5
E5
  8
ITEM_50
 10
106.726665
 20
13.260839000000001
 30
0.0
 11
106.726665
 21
43.260838999999997
 31
0.0
  0
LINE
  5
E6
  8
ITEM_50
 10
111.726665
 20
13.260839000000001
 30
0.0
 11
111.726665
 21
43.260838999999997
 31
0.0
  0
LINE
  5
F9
  8
ITEM_50
 10
49.226664999999997
 20
121.380948
 30
0.0
 11
129.226665
 21
121.380948
 31
0.0
  0
LINE
  5
FA
  8
ITEM_50
 10
49.226664999999997
 20
13.260839000000001
 30
0.0
 11
129.226665
 21
13.260839000000001
 31
0.0
  0
LINE
  5
FB
  8
ITEM_50
 10
174.373525
 20
68.799297999999993
 30
0.0
 11
174.373525
 21
54.799298
 31
0.0
  0
LINE
  5
FC
  8
ITEM_50
 10
49.226664999999997
 20
91.380948000000004
 30
0.0
 11
49.226664999999997
 21
121.380948
 31
0.0
  0
LINE
  5
FD
  8
ITEM_50
 10
129.226665
 20
91.380948000000004
 30
0.0
 11
129.226665
 21
121.380948
 31
0.0
  0
LINE
  5
FE
  8
ITEM_50
 10
49.226664999999997
 20
91.380948000000004
 30
0.0
 11
49.226664999999997
 21
92.380948000000004
 31
0.0
  0
LINE
  5
FF
  8
ITEM_50
 10
129.226665
 20
91.380948000000004
 30
0.0
 11
129.226665
 21
92.380948000000004
 31
0.0
  0
LINE
  5
100
  8
ITEM_50
 10
6.5625470000000004
 20
68.799297999999993
 30
0.0
 11
6.5625470000000004
 21
54.799298
 31
0.0
  0
LINE
  5
101
  8
ITEM_50
 10
36.562547000000002
 20
54.799298
 30
0.0
 11
6.5625470000000004
 21
54.799298
 31
0.0
  0
LINE
  5
102
  8
ITEM_50
 10
36.562547000000002
 20
68.799297999999993
 30
0.0
 11
6.5625470000000004
 21
68.799297999999993
 31
0.0
  0
LINE
  5
103
  8
ITEM_50
 10
36.562547000000002
 20
68.799297999999993
 30
0.0
 11
36.562547000000002
 21
54.799298
 31
0.0
  0
LINE
  5
104
  8
1
 10
59.226664999999997
 20
63.949297999999992
 30
0.0
 11
59.226664999999997
 21
53.649297999999987
 31
0.0
  0
LINE
  5
105
  8
1
 10
64.376665000000003
 20
58.799298
 30
0.0
 11
54.076665000000013
 21
58.799298
 31
0.0
  0
LINE
  5
106
  8
1
 10
69.226664999999997
 20
69.949297999999999
 30
0.0
 11
69.226664999999997
 21
59.649298000000002
 31
0.0
  0
LINE
  5
107
  8
1
 10
74.376665000000003
 20
64.799297999999993
 30
0.0
 11
64.076665000000006
 21
64.799297999999993
 31
0.0
  0
LINE
  5
108
  8
1
 10
79.226664999999997
 20
63.949297999999992
 30
0.0
 11
79.226664999999997
 21
53.649297999999987
 31
0.0
  0
LINE
  5
109
  8
1
 10
84.376665000000003
 20
58.799298
 30
0.0
 11
74.076665000000006
 21
58.799298
 31
0.0
  0
LINE
  5
10A
  8
1
 10
89.226664999999997
 20
69.949297999999999
 30
0.0
 11
89.226664999999997
 21
59.649298000000002
 31
0.0
  0
LINE
  5
10B
  8
1
 10
94.376665000000003
 20
64.799297999999993
 30
0.0
 11
84.076665000000006
 21
64.799297999999993
 31
0.0
  0
LINE
  5
10C
  8
1
 10
99.226664999999997
 20
63.949297999999992
 30
0.0
 11
99.226664999999997
 21
53.649297999999987
 31
0.0
  0
LINE
  5
10D
  8
1
 10
104.376665
 20
58.799298
 30
0.0
 11
94.076665000000006
 21
58.799298
 31
0.0
  0
LINE
  5
10E
  8
1
 10
109.226665
 20
69.949297999999999
 30
0.0
 11
109.226665
 21
59.649298000000002
 31
0.0
  0
LINE
  5
10F
  8
1
 10
114.376665
 20
64.799297999999993
 30
0.0
 11
104.07666500000001
 21
64.799297999999993
 31
0.0
  0
LINE
  5
110
  8
1
 10
119.226665
 20
63.949297999999992
 30
0.0
 11
119.226665
 21
53.649297999999987
 31
0.0
  0
LINE
  5
111
  8
1
 10
124.376665
 20
58.799298
 30
0.0
 11
114.07666500000001
 21
58.799298
 31
0.0
  0
TEXT
  5
208
  8
0
 62
     3
 10
0.0
 20
0.0
 30
0.0
 40
10.0
  1
L5-SPH8014N-3M
  7
STANDARD1
  0
ENDSEC
  0
EOF
