  0
SECTION
  2
HEADER
  9
$ACADVER
  1
AC1009
  9
$INSBASE
 10
0.0
 20
0.0
 30
0.0
  9
$EXTMIN
 10
0.0
 20
-2.960436562073669
 30
0.0
  9
$EXTMAX
 10
143.49189094889479
 20
116.9213905176218
 30
0.0
  9
$LIMMIN
 10
0.0
 20
0.0
  9
$LIMMAX
 10
375.0
 20
278.0
  9
$ORTHOMODE
 70
     0
  9
$REGENMODE
 70
     1
  9
$FILLMODE
 70
     1
  9
$QTEXTMODE
 70
     0
  9
$MIRRTEXT
 70
     0
  9
$DRAGMODE
 70
     2
  9
$LTSCALE
 40
10.0
  9
$OSMODE
 70
  3071
  9
$ATTMODE
 70
     1
  9
$TEXTSIZE
 40
0.2
  9
$TRACEWID
 40
0.05
  9
$TEXTSTYLE
  7
STANDARD
  9
$CLAYER
  8
0
  9
$CELTYPE
  6
BYLAYER
  9
$CECOLOR
 62
   256
  9
$DIMSCALE
 40
1.0
  9
$DIMASZ
 40
3.0
  9
$DIMEXO
 40
1.0
  9
$DIMDLI
 40
6.0
  9
$DIMRND
 40
0.0
  9
$DIMDLE
 40
0.0
  9
$DIMEXE
 40
1.0
  9
$DIMTP
 40
495.0
  9
$DIMTM
 40
0.0
  9
$DIMTXT
 40
3.0
  9
$DIMCEN
 40
0.0
  9
$DIMTSZ
 40
0.0
  9
$DIMTOL
 70
     0
  9
$DIMLIM
 70
     0
  9
$DIMTIH
 70
     0
  9
$DIMTOH
 70
     0
  9
$DIMSE1
 70
     0
  9
$DIMSE2
 70
     0
  9
$DIMTAD
 70
     1
  9
$DIMZIN
 70
     0
  9
$DIMBLK
  1

  9
$DIMASO
 70
     0
  9
$DIMSHO
 70
     0
  9
$DIMPOST
  1

  9
$DIMAPOST
  1

  9
$DIMALT
 70
     0
  9
$DIMALTD
 70
     2
  9
$DIMALTF
 40
25.399999999999999
  9
$DIMLFAC
 40
1.0
  9
$DIMTOFL
 70
     1
  9
$DIMTVP
 40
0.0
  9
$DIMTIX
 70
     1
  9
$DIMSOXD
 70
     0
  9
$DIMSAH
 70
     0
  9
$DIMBLK1
  1

  9
$DIMBLK2
  1

  9
$DIMSTYLE
  2
STANDARD
  9
$DIMCLRD
 70
     0
  9
$DIMCLRE
 70
     0
  9
$DIMCLRT
 70
     4
  9
$DIMTFAC
 40
1.0
  9
$DIMGAP
 40
1.0
  9
$LUNITS
 70
     2
  9
$LUPREC
 70
     4
  9
$SKETCHINC
 40
0.1
  9
$FILLETRAD
 40
0.0
  9
$AUNITS
 70
     0
  9
$AUPREC
 70
     0
  9
$MENU
  1
C:\R13\WIN\SUPPORT\ACAD-I
  9
$ELEVATION
 40
0.0
  9
$PELEVATION
 40
0.0
  9
$THICKNESS
 40
0.0
  9
$LIMCHECK
 70
     0
  9
$BLIPMODE
 70
     0
  9
$CHAMFERA
 40
0.0
  9
$CHAMFERB
 40
0.0
  9
$SKPOLY
 70
     0
  9
$TDCREATE
 40
2450834.4199027782
  9
$TDUPDATE
 40
2456597.5469681602
  9
$TDINDWG
 40
0.0741669676
  9
$TDUSRTIMER
 40
0.0741669676
  9
$USRTIMER
 70
     1
  9
$ANGBASE
 50
0.0
  9
$ANGDIR
 70
     0
  9
$PDMODE
 70
     0
  9
$PDSIZE
 40
0.0
  9
$PLINEWID
 40
0.0
  9
$COORDS
 70
     1
  9
$SPLFRAME
 70
     0
  9
$SPLINETYPE
 70
     6
  9
$SPLINESEGS
 70
     8
  9
$ATTDIA
 70
     0
  9
$ATTREQ
 70
     1
  9
$HANDLING
 70
     1
  9
$HANDSEED
  5
A5D
  9
$SURFTAB1
 70
     6
  9
$SURFTAB2
 70
     6
  9
$SURFTYPE
 70
     6
  9
$SURFU
 70
     6
  9
$SURFV
 70
     6
  9
$UCSNAME
  2

  9
$UCSORG
 10
0.0
 20
0.0
 30
0.0
  9
$UCSXDIR
 10
1.0
 20
0.0
 30
0.0
  9
$UCSYDIR
 10
0.0
 20
1.0
 30
0.0
  9
$PUCSNAME
  2

  9
$PUCSORG
 10
0.0
 20
0.0
 30
0.0
  9
$PUCSXDIR
 10
1.0
 20
0.0
 30
0.0
  9
$PUCSYDIR
 10
0.0
 20
1.0
 30
0.0
  9
$USERI1
 70
     4
  9
$USERI2
 70
     1
  9
$USERI3
 70
     0
  9
$USERI4
 70
     0
  9
$USERI5
 70
     0
  9
$USERR1
 40
1.0
  9
$USERR2
 40
3.0
  9
$USERR3
 40
3.0
  9
$USERR4
 40
3.0
  9
$USERR5
 40
10.0
  9
$WORLDVIEW
 70
     1
  9
$SHADEDGE
 70
     3
  9
$SHADEDIF
 70
    70
  9
$TILEMODE
 70
     1
  9
$MAXACTVP
 70
    16
  9
$PLIMCHECK
 70
     0
  9
$PEXTMIN
 10
1.0000000000000000E+020
 20
1.0000000000000000E+020
 30
1.0000000000000000E+020
  9
$PEXTMAX
 10
-1.0000000000000000E+020
 20
-1.0000000000000000E+020
 30
-1.0000000000000000E+020
  9
$PLIMMIN
 10
0.0
 20
0.0
  9
$PLIMMAX
 10
12.0
 20
9.0
  9
$UNITMODE
 70
     0
  9
$VISRETAIN
 70
     0
  9
$PLINEGEN
 70
     0
  9
$PSLTSCALE
 70
     0
  0
ENDSEC
  0
SECTION
  2
TABLES
  0
TABLE
  2
VPORT
 70
     1
  0
VPORT
  2
*ACTIVE
 70
     0
 10
0.0
 20
0.0
 11
1.0
 21
1.0
 12
187.4942783906524
 22
167.7204668657281
 13
0.0
 23
0.0
 14
10.0
 24
10.0
 15
10.0
 25
10.0
 16
0.0
 26
0.0
 36
1.0
 17
0.0
 27
0.0
 37
0.0
 40
344.62625130655709
 41
1.9089595375722539
 42
50.0
 43
0.0
 44
0.0
 50
0.0
 51
0.0
 71
     0
 72
   100
 73
     1
 74
     0
 75
     0
 76
     0
 77
     0
 78
     0
  0
ENDTAB
  0
TABLE
  2
LTYPE
 70
     3
  0
LTYPE
  2
CONTINUOUS
 70
     0
  3
Solid Line
 72
    65
 73
     0
 40
0.0
  0
LTYPE
  2
CENTER
 70
     0
  3
____ _ ____ _ ____ _ ____ _ ____ _ ____ _ ____
 72
    65
 73
     4
 40
2.0
 49
1.25
 49
-0.25
 49
0.25
 49
-0.25
  0
LTYPE
  2
PHANTOM2
 70
     0
  3
___ _ _ ___ _ _ ___ _ _ ___ _ _
 72
    65
 73
     6
 40
1.25
 49
0.625
 49
-0.125
 49
0.125
 49
-0.125
 49
0.125
 49
-0.125
  0
ENDTAB
  0
TABLE
  2
LAYER
 70
     2
  0
LAYER
  2
0
 70
     0
 62
     7
  6
CONTINUOUS
  0
LAYER
  2
1
 70
     0
 62
     1
  6
CENTER
  0
ENDTAB
  0
TABLE
  2
STYLE
 70
     2
  0
STYLE
  2
STANDARD
 70
     0
 40
0.0
 41
1.0
 50
0.0
 71
     0
 42
0.2
  3
SIMPLEX
  4
BIGFONT
  0
STYLE
  2
STANDARD1
 70
     0
 40
0.0
 41
1.0
 50
0.0
 71
     0
 42
3.0
  3
txt
  4

  0
ENDTAB
  0
TABLE
  2
VIEW
 70
     0
  0
ENDTAB
  0
TABLE
  2
UCS
 70
     0
  0
ENDTAB
  0
TABLE
  2
APPID
 70
    38
  0
APPID
  2
ACAD
 70
     0
  0
APPID
  2
GENIUS_GENOBJ_13
 70
     0
  0
APPID
  2
GENIUS_GENODEF_13
 70
     0
  0
APPID
  2
GENIUS_GENOENT_13
 70
     0
  0
APPID
  2
GENIUS_GENOLIS_13
 70
     0
  0
APPID
  2
GENIUS_GENOREF_13
 70
     0
  0
APPID
  2
GENIUS_GENOBJ-N-TIT_13
 70
     0
  0
APPID
  2
GENIUS_GENTITLE_13
 70
     0
  0
APPID
  2
GENIUS_GENZVEED_13
 70
     0
  0
APPID
  2
GENIUS_GENOBJ-N-FIL_13
 70
     0
  0
APPID
  2
GENIUS_GENOBJ-N-CRS_13
 70
     0
  0
APPID
  2
GENIUS_GEFINERT_13
 70
     0
  0
APPID
  2
GENIUS_GENOBJ-F-INER_13
 70
     0
  0
APPID
  2
GENIUS_GENOBJ-N-ZOO_13
 70
     0
  0
APPID
  2
GENIUS_GENZOO_13
 70
     0
  0
APPID
  2
GENIUS_GENOBJ-F-TOL_13
 70
     0
  0
APPID
  2
GENIUS_GENOBJ-N-RSSYM_13
 70
     0
  0
APPID
  2
GENIUS_GENSYMENT_13
 70
     0
  0
APPID
  2
GENIUS_GENBH_13
 70
     0
  0
APPID
  2
GENIUS_GENOBJ-NBEHI-BHF_13
 70
     0
  0
APPID
  2
GENIUS_GENOBJ-NBEHI-BHB_13
 70
     0
  0
APPID
  2
GENIUS_GENOBJ-F-PART_13
 70
     0
  0
APPID
  2
GENIUS_GEFSTDP_13
 70
     0
  0
APPID
  2
GENIUS_GENOBJ-N-LEADER_13
 70
     0
  0
APPID
  2
GENIUS_GENOBJ-N-REV_13
 70
     0
  0
APPID
  2
GENIUS_GENCFG_13
 70
     0
  0
APPID
  2
GENIUS_GENCFG0_13
 70
     0
  0
APPID
  2
GENIUS_GENCFG1_13
 70
     0
  0
APPID
  2
GENIUS_GENCFG2_13
 70
     0
  0
APPID
  2
GENIUS_GENCFG3_13
 70
     0
  0
APPID
  2
GENIUS_GEVCFG0_13
 70
     0
  0
APPID
  2
GENIUS_GENCFG4_13
 70
     0
  0
APPID
  2
GENIUS_GENOBJ-N-REC_13
 70
     0
  0
APPID
  2
GENIUS_GENFIL_13
 70
     0
  0
APPID
  2
GENIUS_GENOBJ-N-CHA_13
 70
     0
  0
APPID
  2
GENIUS_GENREC_13
 70
     0
  0
APPID
  2
ACAD_MLEADERVER
 70
     0
  0
APPID
  2
ACAD_NAV_VCDISPLAY
 70
     0
  0
ENDTAB
  0
TABLE
  2
DIMSTYLE
 70
     1
  0
DIMSTYLE
  2
STANDARD
 70
     0
  3

  4

  5

  6

  7

 40
1.0
 41
0.18
 42
0.0625
 43
0.38
 44
0.18
 45
0.0
 46
0.0
 47
0.0
 48
0.0
140
0.18
141
0.09
142
0.0
143
25.399999999999999
144
1.0
145
0.0
146
1.0
147
0.09
 71
     0
 72
     0
 73
     1
 74
     1
 75
     0
 76
     0
 77
     0
 78
     0
170
     0
171
     2
172
     0
173
     0
174
     0
175
     0
176
     0
177
     0
178
     0
  0
ENDTAB
  0
ENDSEC
  0
SECTION
  2
BLOCKS
  0
BLOCK
  8
0
  2
$MODEL_SPACE
 70
     0
 10
0.0
 20
0.0
 30
0.0
  3
$MODEL_SPACE
  1

  0
ENDBLK
  5
91E
  8
0
  0
BLOCK
 67
     1
  8
0
  2
$PAPER_SPACE
 70
     0
 10
0.0
 20
0.0
 30
0.0
  3
$PAPER_SPACE
  1

  0
ENDBLK
  5
91C
 67
     1
  8
0
  0
BLOCK
  8
0
  2
STDGX5
 70
     0
 10
0.0
 20
0.0
 30
0.0
  3
STDGX5
  1

  0
ENDBLK
  5
4F
  8
0
  0
ENDSEC
  0
SECTION
  2
ENTITIES
  0
INSERT
  5
DE
  8
0
  2
STDGX5
 10
0.0
 20
0.0
 30
0.0
  0
INSERT
  5
DF
  8
0
  2
STDGX5
 10
0.0
 20
0.0
 30
0.0
  0
INSERT
  5
15C
  8
0
  2
STDGX5
 10
275.0
 20
0.0
 30
0.0
  0
INSERT
  5
15D
  8
0
  2
STDGX5
 10
275.0
 20
0.0
 30
0.0
  0
INSERT
  5
314
  8
0
  2
STDGX5
 10
0.0
 20
0.0
 30
0.0
  0
INSERT
  5
315
  8
0
  2
STDGX5
 10
0.0
 20
0.0
 30
0.0
  0
INSERT
  5
316
  8
0
  2
STDGX5
 10
275.0
 20
0.0
 30
0.0
  0
INSERT
  5
317
  8
0
  2
STDGX5
 10
275.0
 20
0.0
 30
0.0
  0
INSERT
  5
4EF
  8
0
  2
STDGX5
 10
0.0
 20
0.0
 30
0.0
  0
INSERT
  5
4F0
  8
0
  2
STDGX5
 10
0.0
 20
0.0
 30
0.0
  0
INSERT
  5
4F1
  8
0
  2
STDGX5
 10
275.0
 20
0.0
 30
0.0
  0
INSERT
  5
4F2
  8
0
  2
STDGX5
 10
275.0
 20
0.0
 30
0.0
  0
LINE
  5
820
  8
0
 10
57.357323842146627
 20
105.57139051762449
 30
0.0
 11
58.491890948892042
 21
105.57139051762449
 31
0.0
  0
LINE
  5
821
  8
0
 10
57.357323842146627
 20
105.57139051762449
 30
0.0
 11
58.491890948892042
 21
105.57139051762449
 31
0.0
  0
LINE
  5
822
  8
0
 10
57.357323842146627
 20
98.271390517624425
 30
0.0
 11
58.491890948892042
 21
98.271390517624425
 31
0.0
  0
LINE
  5
823
  8
0
 10
57.357323842146627
 20
98.271390517624425
 30
0.0
 11
58.491890948892042
 21
98.271390517624425
 31
0.0
  0
CIRCLE
  5
824
  8
0
 10
58.491890948894763
 20
101.9213905176218
 30
0.0
 40
2.149999999999999
  0
ARC
  5
825
  8
0
 10
53.57430256279946
 20
109.28897890371699
 30
0.0
 40
0.8324116139073831
 50
179.99999999998431
 51
224.99979934721199
  0
ARC
  5
826
  8
0
 10
53.57430256279946
 20
109.28897890371699
 30
0.0
 40
0.8324116139073831
 50
179.99999999998431
 51
224.99979934721199
  0
ARC
  5
827
  8
0
 10
50.491890948894763
 20
93.921390517621774
 30
0.0
 40
2.0
 50
180.0
 51
270.0
  0
ARC
  5
828
  8
0
 10
53.57430256279946
 20
94.553802131531782
 30
0.0
 40
0.8324116139073831
 50
180.0000000000156
 51
270.00019803528107
  0
ARC
  5
829
  8
0
 10
53.57430256279946
 20
94.553802131531782
 30
0.0
 40
0.8324116139073831
 50
180.0000000000156
 51
270.00019803528107
  0
LINE
  5
82A
  8
0
 10
53.574299685678909
 20
93.721390517619014
 30
0.0
 11
55.69189094889208
 21
93.721390517619014
 31
0.0
  0
LINE
  5
82B
  8
0
 10
53.574299685678909
 20
93.721390517619014
 30
0.0
 11
55.69189094889208
 21
93.721390517619014
 31
0.0
  0
ARC
  5
82C
  8
0
 10
55.69189094889208
 20
93.421390517619159
 30
0.0
 40
0.3
 50
0.0
 51
90.0
  0
ARC
  5
82D
  8
0
 10
55.69189094889208
 20
93.421390517619159
 30
0.0
 40
0.3
 50
0.0
 51
90.0
  0
LINE
  5
82E
  8
0
 10
55.991890948892042
 20
93.421390517619059
 30
0.0
 11
55.991890948892042
 21
92.721390517621785
 31
0.0
  0
LINE
  5
82F
  8
0
 10
55.991890948892042
 20
93.421390517619059
 30
0.0
 11
55.991890948892042
 21
92.806977283552172
 31
0.0
  0
LINE
  5
830
  8
0
 10
52.985696604545808
 20
95.142403967142812
 30
0.0
 11
55.23600349858696
 21
97.392710861184085
 31
0.0
  0
LINE
  5
831
  8
0
 10
52.985696604545808
 20
95.142403967142812
 30
0.0
 11
55.23600349858696
 21
97.392710861184085
 31
0.0
  0
LINE
  5
832
  8
0
 10
51.71290439841033
 20
96.415196173278304
 30
0.0
 11
53.963211292451717
 21
98.665503067319435
 31
0.0
  0
LINE
  5
833
  8
0
 10
51.71290439841033
 20
96.415196173278304
 30
0.0
 11
53.963211292451717
 21
98.665503067319435
 31
0.0
  0
LINE
  5
834
  8
0
 10
52.985696604545808
 20
108.70037706810611
 30
0.0
 11
55.236003498587081
 21
106.45007017406481
 31
0.0
  0
LINE
  5
835
  8
0
 10
52.985696604545808
 20
108.70037706810611
 30
0.0
 11
55.236003498587081
 21
106.45007017406481
 31
0.0
  0
LINE
  5
836
  8
0
 10
51.71290439841033
 20
107.4275848619707
 30
0.0
 11
53.963211292451717
 21
105.1772779679296
 31
0.0
  0
LINE
  5
837
  8
0
 10
51.71290439841033
 20
107.4275848619707
 30
0.0
 11
53.963211292451717
 21
105.1772779679296
 31
0.0
  0
LINE
  5
838
  8
0
 10
49.192101549382024
 20
99.721384323495244
 30
0.0
 11
49.192010702232551
 21
104.1213843234956
 31
0.0
  0
ARC
  5
839
  8
0
 10
51.124302562799407
 20
97.003802131531955
 30
0.0
 40
0.8324116139073831
 50
179.9998019647189
 51
269.99999999998431
  0
ARC
  5
83A
  8
0
 10
51.124302562799407
 20
97.003802131531955
 30
0.0
 40
0.8324116139073831
 50
179.9998019647189
 51
269.99999999998431
  0
ARC
  5
83B
  8
0
 10
49.492101549318079
 20
99.721390517619071
 30
0.0
 40
0.3
 50
180.0011829905105
 51
270.00000000000051
1001
GENIUS_GENODEF_13
1002
{
1000
HIER
1070
     0
1002
}
1002
{
1000
MANEDIT
1070
     0
1002
}
1002
{
1000
NOSEL
1070
     0
1002
}
1002
{
1000
BEHIND
1070
     0
1002
}
1002
{
1000
REACTOR
1002
}
1001
GENIUS_GENOBJ-N-FIL_13
1002
{
1000
OWNER
1000
GEN
1002
}
  0
LINE
  5
83C
  8
0
 10
49.991890948897378
 20
99.421390517619045
 30
0.0
 11
49.492101549318079
 21
99.421390517619045
 31
0.0
  0
ARC
  5
83D
  8
0
 10
49.991890948897492
 20
99.121390517619105
 30
0.0
 40
0.3
 50
0.0
 51
90.0
  0
ARC
  5
83E
  8
0
 10
49.991890948897492
 20
99.121390517619105
 30
0.0
 40
0.3
 50
0.0
 51
90.0
  0
LINE
  5
83F
  8
0
 10
50.291890948897439
 20
97.003799254411405
 30
0.0
 11
50.291890948897439
 21
99.121390517624576
 31
0.0
  0
LINE
  5
840
  8
0
 10
50.291890948897439
 20
97.003799254411405
 30
0.0
 11
50.291890948897439
 21
99.121390517624576
 31
0.0
  0
ARC
  5
841
  8
0
 10
51.124302562799407
 20
97.003802131531955
 30
0.0
 40
0.8324116139073831
 50
269.99999999998431
 51
314.99979934721199
  0
ARC
  5
842
  8
0
 10
51.124302562799407
 20
97.003802131531955
 30
0.0
 40
0.8324116139073831
 50
269.99999999998431
 51
314.99979934721199
  0
ARC
  5
843
  8
0
 10
53.57430256279946
 20
94.553802131531896
 30
0.0
 40
0.8324116139073831
 50
135.00020065278801
 51
180.0000000000156
  0
ARC
  5
844
  8
0
 10
53.57430256279946
 20
94.553802131531896
 30
0.0
 40
0.8324116139073831
 50
135.00020065278801
 51
180.0000000000156
  0
ARC
  5
845
  8
0
 10
51.124302562799407
 20
106.83897890371711
 30
0.0
 40
0.8324116139073831
 50
90.000000000015675
 51
180.0001980352811
  0
ARC
  5
846
  8
0
 10
51.124302562799407
 20
106.83897890371711
 30
0.0
 40
0.8324116139073831
 50
90.000000000015675
 51
180.0001980352811
  0
ARC
  5
847
  8
0
 10
49.492010702168621
 20
104.1213905176195
 30
0.0
 40
0.3
 50
89.999999999951129
 51
180.0011829905107
1001
GENIUS_GENODEF_13
1002
{
1000
HIER
1070
     0
1002
}
1002
{
1000
MANEDIT
1070
     0
1002
}
1002
{
1000
NOSEL
1070
     0
1002
}
1002
{
1000
BEHIND
1070
     0
1002
}
1002
{
1000
REACTOR
1002
}
1001
GENIUS_GENOBJ-N-FIL_13
1002
{
1000
OWNER
1000
GEN
1002
}
  0
LINE
  5
848
  8
0
 10
49.492010702168898
 20
104.4213905176195
 30
0.0
 11
49.991890948897378
 21
104.421390517619
 31
0.0
  0
ARC
  5
849
  8
0
 10
49.991890948897492
 20
104.721390517619
 30
0.0
 40
0.3
 50
270.0
 51
0.0
  0
ARC
  5
84A
  8
0
 10
49.991890948897492
 20
104.721390517619
 30
0.0
 40
0.3
 50
270.0
 51
0.0
  0
LINE
  5
84B
  8
0
 10
50.291890948897439
 20
106.8389817808376
 30
0.0
 11
50.291890948897439
 21
104.7213905176245
 31
0.0
  0
LINE
  5
84C
  8
0
 10
50.291890948897439
 20
106.8389817808376
 30
0.0
 11
50.291890948897439
 21
104.7213905176245
 31
0.0
  0
ARC
  5
84D
  8
0
 10
51.124302562799407
 20
106.83897890371711
 30
0.0
 40
0.8324116139073831
 50
45.00020065278806
 51
90.000000000015675
  0
ARC
  5
84E
  8
0
 10
51.124302562799407
 20
106.83897890371711
 30
0.0
 40
0.8324116139073831
 50
45.00020065278806
 51
90.000000000015675
  0
LINE
  5
84F
  8
0
 10
54.841890948891937
 20
100.78682341087909
 30
0.0
 11
54.841890948891937
 21
101.9213905176245
 31
0.0
  0
LINE
  5
850
  8
0
 10
54.841890948891937
 20
100.78682341087909
 30
0.0
 11
54.841890948891937
 21
101.9213905176245
 31
0.0
  0
ARC
  5
851
  8
0
 10
57.357323842146627
 20
95.271390517624425
 30
0.0
 40
3.0
 50
90.0
 51
134.99999999999989
  0
ARC
  5
852
  8
0
 10
57.357323842146627
 20
95.271390517624425
 30
0.0
 40
3.0
 50
90.0
 51
134.99999999999989
  0
ARC
  5
853
  8
0
 10
51.841890948891951
 20
100.78682341087909
 30
0.0
 40
3.0
 50
315.0
 51
360.0
  0
ARC
  5
854
  8
0
 10
51.841890948891951
 20
100.78682341087909
 30
0.0
 40
3.0
 50
315.0
 51
360.0
  0
ARC
  5
855
  8
0
 10
57.357323842146627
 20
108.57139051762449
 30
0.0
 40
3.0
 50
225.0
 51
270.0
  0
ARC
  5
856
  8
0
 10
57.357323842146627
 20
108.57139051762449
 30
0.0
 40
3.0
 50
225.0
 51
270.0
  0
ARC
  5
857
  8
0
 10
51.841890948891951
 20
103.0559576243699
 30
0.0
 40
3.0
 50
0.0000000000000799
 51
45.0
  0
ARC
  5
858
  8
0
 10
51.841890948891951
 20
103.0559576243699
 30
0.0
 40
3.0
 50
0.0000000000000799
 51
45.0
  0
LINE
  5
859
  8
0
 10
54.841890948891937
 20
103.0559576243699
 30
0.0
 11
54.841890948891937
 21
101.9213905176245
 31
0.0
  0
LINE
  5
85A
  8
0
 10
54.841890948891937
 20
103.0559576243699
 30
0.0
 11
54.841890948891937
 21
101.9213905176245
 31
0.0
  0
ARC
  5
85B
  8
0
 10
50.491890948894763
 20
109.9213905176218
 30
0.0
 40
2.0
 50
90.0
 51
180.0
  0
ARC
  5
85C
  8
0
 10
53.57430256279946
 20
109.28897890371709
 30
0.0
 40
0.8324116139073831
 50
89.999801964718955
 51
179.99999999998431
  0
ARC
  5
85D
  8
0
 10
53.57430256279946
 20
109.28897890371709
 30
0.0
 40
0.8324116139073831
 50
89.999801964718955
 51
179.99999999998431
  0
LINE
  5
85E
  8
0
 10
53.574299685678909
 20
110.1213905176245
 30
0.0
 11
55.69189094889208
 21
110.1213905176245
 31
0.0
  0
LINE
  5
85F
  8
0
 10
53.574299685678909
 20
110.1213905176245
 30
0.0
 11
55.69189094889208
 21
110.1213905176245
 31
0.0
  0
LINE
  5
860
  8
0
 10
55.991890948892042
 20
110.4213905176245
 30
0.0
 11
55.991890948892042
 21
111.1213905176218
 31
0.0
  0
LINE
  5
861
  8
0
 10
55.991890948892042
 20
110.4213905176245
 30
0.0
 11
55.991890948892042
 21
111.0358037516914
 31
0.0
  0
ARC
  5
862
  8
0
 10
55.69189094889208
 20
110.4213905176244
 30
0.0
 40
0.3
 50
270.0
 51
0.0
  0
ARC
  5
863
  8
0
 10
55.69189094889208
 20
110.4213905176244
 30
0.0
 40
0.3
 50
270.0
 51
0.0
  0
ARC
  5
864
  8
0
 10
63.40947933498466
 20
109.28897890371699
 30
0.0
 40
0.8324116139073831
 50
315.00020065278812
 51
0.0000000000156675
  0
ARC
  5
865
  8
0
 10
63.40947933498466
 20
109.28897890371699
 30
0.0
 40
0.8324116139073831
 50
315.00020065278812
 51
0.0000000000156675
  0
ARC
  5
866
  8
0
 10
66.49189094889482
 20
93.921390517621774
 30
0.0
 40
2.0
 50
270.0
 51
0.0
  0
LINE
  5
867
  8
0
 10
67.491890948894536
 20
104.4213905176195
 30
0.0
 11
66.991890948892205
 21
104.421390517619
 31
0.0
  0
LINE
  5
868
  8
0
 10
66.991890948892205
 20
99.421390517619045
 30
0.0
 11
67.49189094889482
 21
99.421390517619045
 31
0.0
  0
ARC
  5
869
  8
0
 10
63.40947933498466
 20
94.553802131531782
 30
0.0
 40
0.8324116139073831
 50
269.99980196471893
 51
359.99999999998431
  0
ARC
  5
86A
  8
0
 10
63.40947933498466
 20
94.553802131531782
 30
0.0
 40
0.8324116139073831
 50
269.99980196471893
 51
359.99999999998431
  0
LINE
  5
86B
  8
0
 10
63.40948221210521
 20
93.721390517619014
 30
0.0
 11
61.291890948892053
 21
93.721390517619014
 31
0.0
  0
LINE
  5
86C
  8
0
 10
63.40948221210521
 20
93.721390517619014
 30
0.0
 11
61.291890948892053
 21
93.721390517619014
 31
0.0
  0
ARC
  5
86D
  8
0
 10
61.29189094889216
 20
93.421390517619159
 30
0.0
 40
0.3
 50
90.0
 51
179.99999999999989
  0
ARC
  5
86E
  8
0
 10
61.29189094889216
 20
93.421390517619159
 30
0.0
 40
0.3
 50
90.0
 51
179.99999999999989
  0
LINE
  5
86F
  8
0
 10
60.991890948892092
 20
92.721390517621785
 30
0.0
 11
60.991890948892092
 21
93.421390517619059
 31
0.0
  0
LINE
  5
870
  8
0
 10
60.991890948892092
 20
92.806977283552172
 30
0.0
 11
60.991890948892092
 21
93.421390517619059
 31
0.0
  0
ARC
  5
871
  8
0
 10
65.141890948892183
 20
103.0559576243699
 30
0.0
 40
3.0
 50
135.00000000000011
 51
180.0
  0
ARC
  5
872
  8
0
 10
65.141890948892183
 20
103.0559576243699
 30
0.0
 40
3.0
 50
135.00000000000011
 51
180.0
  0
ARC
  5
873
  8
0
 10
65.141890948892183
 20
100.78682341087909
 30
0.0
 40
3.0
 50
180.00000000000011
 51
225.00000000000011
  0
ARC
  5
874
  8
0
 10
65.141890948892183
 20
100.78682341087909
 30
0.0
 40
3.0
 50
180.00000000000011
 51
225.00000000000011
  0
LINE
  5
875
  8
0
 10
63.998085293238319
 20
95.142403967142812
 30
0.0
 11
61.747778399197053
 21
97.392710861184085
 31
0.0
  0
LINE
  5
876
  8
0
 10
63.998085293238319
 20
95.142403967142812
 30
0.0
 11
61.747778399197053
 21
97.392710861184085
 31
0.0
  0
LINE
  5
877
  8
0
 10
63.998085293238319
 20
108.70037706810611
 30
0.0
 11
61.747778399197159
 21
106.45007017406481
 31
0.0
  0
LINE
  5
878
  8
0
 10
63.998085293238319
 20
108.70037706810611
 30
0.0
 11
61.747778399197159
 21
106.45007017406481
 31
0.0
  0
LINE
  5
879
  8
0
 10
62.141890948892183
 20
100.78682341087909
 30
0.0
 11
62.141890948892183
 21
101.9213905176245
 31
0.0
  0
LINE
  5
87A
  8
0
 10
62.141890948892183
 20
100.78682341087909
 30
0.0
 11
62.141890948892183
 21
101.9213905176245
 31
0.0
  0
ARC
  5
87B
  8
0
 10
59.626458055637443
 20
95.271390517624425
 30
0.0
 40
3.0
 50
45.0
 51
89.999999999999915
  0
ARC
  5
87C
  8
0
 10
59.626458055637443
 20
95.271390517624425
 30
0.0
 40
3.0
 50
45.0
 51
89.999999999999915
  0
LINE
  5
87D
  8
0
 10
59.626458055637443
 20
98.271390517624425
 30
0.0
 11
58.491890948892042
 21
98.271390517624425
 31
0.0
  0
LINE
  5
87E
  8
0
 10
59.626458055637443
 20
98.271390517624425
 30
0.0
 11
58.491890948892042
 21
98.271390517624425
 31
0.0
  0
ARC
  5
87F
  8
0
 10
59.626458055637443
 20
108.57139051762449
 30
0.0
 40
3.0
 50
270.00000000000011
 51
315.0
  0
ARC
  5
880
  8
0
 10
59.626458055637443
 20
108.57139051762449
 30
0.0
 40
3.0
 50
270.00000000000011
 51
315.0
  0
LINE
  5
881
  8
0
 10
59.626458055637443
 20
105.57139051762449
 30
0.0
 11
58.491890948892042
 21
105.57139051762449
 31
0.0
  0
LINE
  5
882
  8
0
 10
59.626458055637443
 20
105.57139051762449
 30
0.0
 11
58.491890948892042
 21
105.57139051762449
 31
0.0
  0
LINE
  5
883
  8
0
 10
62.141890948892183
 20
103.0559576243699
 30
0.0
 11
62.141890948892183
 21
101.9213905176245
 31
0.0
  0
LINE
  5
884
  8
0
 10
62.141890948892183
 20
103.0559576243699
 30
0.0
 11
62.141890948892183
 21
101.9213905176245
 31
0.0
  0
LINE
  5
885
  8
0
 10
65.270877499373796
 20
96.415196173278304
 30
0.0
 11
63.020570605332409
 21
98.665503067319435
 31
0.0
  0
LINE
  5
886
  8
0
 10
65.270877499373796
 20
96.415196173278304
 30
0.0
 11
63.020570605332409
 21
98.665503067319435
 31
0.0
  0
ARC
  5
887
  8
0
 10
63.40947933498466
 20
94.553802131531896
 30
0.0
 40
0.8324116139073831
 50
359.99999999998431
 51
44.99979934721194
  0
ARC
  5
888
  8
0
 10
63.40947933498466
 20
94.553802131531896
 30
0.0
 40
0.8324116139073831
 50
359.99999999998431
 51
44.99979934721194
  0
ARC
  5
889
  8
0
 10
66.991890948892092
 20
99.121390517619105
 30
0.0
 40
0.3
 50
90.0
 51
180.0
  0
ARC
  5
88A
  8
0
 10
66.991890948892092
 20
99.121390517619105
 30
0.0
 40
0.3
 50
90.0
 51
180.0
  0
ARC
  5
88B
  8
0
 10
65.859479334984712
 20
97.003802131531955
 30
0.0
 40
0.8324116139073831
 50
225.0002006527881
 51
270.00000000001569
  0
ARC
  5
88C
  8
0
 10
65.859479334984712
 20
97.003802131531955
 30
0.0
 40
0.8324116139073831
 50
225.0002006527881
 51
270.00000000001569
  0
ARC
  5
88D
  8
0
 10
65.859479334984712
 20
97.003802131531955
 30
0.0
 40
0.8324116139073831
 50
270.00000000001569
 51
0.0001980352810538
  0
ARC
  5
88E
  8
0
 10
65.859479334984712
 20
97.003802131531955
 30
0.0
 40
0.8324116139073831
 50
270.00000000001569
 51
0.0001980352810538
  0
LINE
  5
88F
  8
0
 10
66.691890948892137
 20
97.003799254411405
 30
0.0
 11
66.691890948892137
 21
99.121390517624576
 31
0.0
  0
LINE
  5
890
  8
0
 10
66.691890948892137
 20
97.003799254411405
 30
0.0
 11
66.691890948892137
 21
99.121390517624576
 31
0.0
  0
LINE
  5
891
  8
0
 10
65.270877499373796
 20
107.4275848619707
 30
0.0
 11
63.020570605332409
 21
105.1772779679296
 31
0.0
  0
LINE
  5
892
  8
0
 10
65.270877499373796
 20
107.4275848619707
 30
0.0
 11
63.020570605332409
 21
105.1772779679296
 31
0.0
  0
ARC
  5
893
  8
0
 10
65.859479334984712
 20
106.83897890371711
 30
0.0
 40
0.8324116139073831
 50
89.999999999984325
 51
134.9997993472119
  0
ARC
  5
894
  8
0
 10
65.859479334984712
 20
106.83897890371711
 30
0.0
 40
0.8324116139073831
 50
89.999999999984325
 51
134.9997993472119
  0
LINE
  5
895
  8
0
 10
66.691890948892137
 20
106.8389817808376
 30
0.0
 11
66.691890948892137
 21
104.7213905176245
 31
0.0
  0
LINE
  5
896
  8
0
 10
66.691890948892137
 20
106.8389817808376
 30
0.0
 11
66.691890948892137
 21
104.7213905176245
 31
0.0
  0
ARC
  5
897
  8
0
 10
66.991890948892092
 20
104.721390517619
 30
0.0
 40
0.3
 50
180.0
 51
270.0
  0
ARC
  5
898
  8
0
 10
66.991890948892092
 20
104.721390517619
 30
0.0
 40
0.3
 50
180.0
 51
270.0
  0
ARC
  5
899
  8
0
 10
65.859479334984712
 20
106.83897890371711
 30
0.0
 40
0.8324116139073831
 50
359.99980196471893
 51
89.999999999984325
  0
ARC
  5
89A
  8
0
 10
65.859479334984712
 20
106.83897890371711
 30
0.0
 40
0.8324116139073831
 50
359.99980196471893
 51
89.999999999984325
  0
LINE
  5
89B
  8
0
 10
67.791890948894832
 20
104.1213905176195
 30
0.0
 11
67.791890948894832
 21
99.721390517619071
 31
0.0
  0
ARC
  5
89C
  8
0
 10
67.49189094889482
 20
99.721390517619071
 30
0.0
 40
0.3
 50
269.99999999999949
 51
359.9999999999996
1001
GENIUS_GENODEF_13
1002
{
1000
HIER
1070
     0
1002
}
1002
{
1000
MANEDIT
1070
     0
1002
}
1002
{
1000
NOSEL
1070
     0
1002
}
1002
{
1000
BEHIND
1070
     0
1002
}
1002
{
1000
REACTOR
1002
}
1001
GENIUS_GENOBJ-N-FIL_13
1002
{
1000
OWNER
1000
GEN
1002
}
  0
ARC
  5
89D
  8
0
 10
67.49189094889482
 20
104.1213905176195
 30
0.0
 40
0.3
 50
359.99999999999932
 51
90.000000000048857
1001
GENIUS_GENODEF_13
1002
{
1000
HIER
1070
     0
1002
}
1002
{
1000
MANEDIT
1070
     0
1002
}
1002
{
1000
NOSEL
1070
     0
1002
}
1002
{
1000
BEHIND
1070
     0
1002
}
1002
{
1000
REACTOR
1002
}
1001
GENIUS_GENOBJ-N-FIL_13
1002
{
1000
OWNER
1000
GEN
1002
}
  0
ARC
  5
89E
  8
0
 10
66.49189094889482
 20
109.9213905176218
 30
0.0
 40
2.0
 50
0.0
 51
90.0
  0
LINE
  5
89F
  8
0
 10
63.40948221210521
 20
110.1213905176245
 30
0.0
 11
61.291890948892053
 21
110.1213905176245
 31
0.0
  0
LINE
  5
8A0
  8
0
 10
63.40948221210521
 20
110.1213905176245
 30
0.0
 11
61.291890948892053
 21
110.1213905176245
 31
0.0
  0
LINE
  5
8A1
  8
0
 10
60.991890948892092
 20
111.1213905176218
 30
0.0
 11
60.991890948892092
 21
110.4213905176245
 31
0.0
  0
LINE
  5
8A2
  8
0
 10
60.991890948892092
 20
111.0358037516914
 30
0.0
 11
60.991890948892092
 21
110.4213905176245
 31
0.0
  0
ARC
  5
8A3
  8
0
 10
61.29189094889216
 20
110.4213905176244
 30
0.0
 40
0.3
 50
180.00000000000011
 51
270.0
  0
ARC
  5
8A4
  8
0
 10
61.29189094889216
 20
110.4213905176244
 30
0.0
 40
0.3
 50
180.00000000000011
 51
270.0
  0
ARC
  5
8A5
  8
0
 10
63.40947933498466
 20
109.28897890371709
 30
0.0
 40
0.8324116139073831
 50
0.0000000000156675
 51
90.00019803528113
  0
ARC
  5
8A6
  8
0
 10
63.40947933498466
 20
109.28897890371709
 30
0.0
 40
0.8324116139073831
 50
0.0000000000156675
 51
90.00019803528113
  0
LINE
  5
8A7
  8
0
 10
50.491890948894763
 20
111.9213905176218
 30
0.0
 11
55.191890948892052
 21
111.9213905176218
 31
0.0
  0
LINE
  5
8A8
  8
0
 10
66.49189094889482
 20
91.921390517621788
 30
0.0
 11
61.791890948892068
 21
91.921390517621788
 31
0.0
  0
LINE
  5
8A9
  8
0
 10
48.491890948894763
 20
93.921390517621774
 30
0.0
 11
48.491890948894763
 21
109.9213905176218
 31
0.0
  0
LINE
  5
8AA
  8
0
 10
68.49189094889482
 20
109.9213905176218
 30
0.0
 11
68.49189094889482
 21
93.921390517621774
 31
0.0
  0
LINE
  5
8AB
  8
0
 10
61.791890948892068
 20
111.9213905176218
 30
0.0
 11
66.49189094889482
 21
111.9213905176218
 31
0.0
  0
LINE
  5
8AC
  8
0
 10
55.191890948892052
 20
91.921390517621788
 30
0.0
 11
50.491890948894763
 21
91.921390517621788
 31
0.0
  0
ARC
  5
8AD
  8
0
 10
55.191890948892052
 20
111.1213905176218
 30
0.0
 40
0.8
 50
0.0
 51
90.0
1001
GENIUS_GENODEF_13
1002
{
1000
HIER
1070
     0
1002
}
1002
{
1000
MANEDIT
1070
     0
1002
}
1002
{
1000
NOSEL
1070
     0
1002
}
1002
{
1000
BEHIND
1070
     0
1002
}
1002
{
1000
REACTOR
1002
}
1001
GENIUS_GENOBJ-N-FIL_13
1002
{
1000
OWNER
1000
GEN
1002
}
  0
ARC
  5
8AE
  8
0
 10
61.791890948892068
 20
111.1213905176218
 30
0.0
 40
0.8
 50
90.0
 51
180.0
1001
GENIUS_GENODEF_13
1002
{
1000
HIER
1070
     0
1002
}
1002
{
1000
MANEDIT
1070
     0
1002
}
1002
{
1000
NOSEL
1070
     0
1002
}
1002
{
1000
BEHIND
1070
     0
1002
}
1002
{
1000
REACTOR
1002
}
1001
GENIUS_GENOBJ-N-FIL_13
1002
{
1000
OWNER
1000
GEN
1002
}
  0
ARC
  5
8AF
  8
0
 10
55.191890948892052
 20
92.721390517621785
 30
0.0
 40
0.8
 50
270.0
 51
0.0
1001
GENIUS_GENODEF_13
1002
{
1000
HIER
1070
     0
1002
}
1002
{
1000
MANEDIT
1070
     0
1002
}
1002
{
1000
NOSEL
1070
     0
1002
}
1002
{
1000
BEHIND
1070
     0
1002
}
1002
{
1000
REACTOR
1002
}
1001
GENIUS_GENOBJ-N-FIL_13
1002
{
1000
OWNER
1000
GEN
1002
}
  0
ARC
  5
8B0
  8
0
 10
61.791890948892068
 20
92.721390517621785
 30
0.0
 40
0.8
 50
180.0
 51
270.0
1001
GENIUS_GENODEF_13
1002
{
1000
HIER
1070
     0
1002
}
1002
{
1000
MANEDIT
1070
     0
1002
}
1002
{
1000
NOSEL
1070
     0
1002
}
1002
{
1000
BEHIND
1070
     0
1002
}
1002
{
1000
REACTOR
1002
}
1001
GENIUS_GENOBJ-N-FIL_13
1002
{
1000
OWNER
1000
GEN
1002
}
  0
LINE
  5
8B1
  8
0
 10
88.491890948894806
 20
111.9213905176218
 30
0.0
 11
138.49189094889479
 21
111.9213905176217
 31
0.0
  0
LINE
  5
8B3
  8
0
 10
138.49189094889479
 20
91.921390517621816
 30
0.0
 11
88.491890948894877
 21
91.921390517621788
 31
0.0
  0
LINE
  5
8B4
  8
0
 10
88.491890948894877
 20
91.921390517621788
 30
0.0
 11
88.491890948894806
 21
111.9213905176218
 31
0.0
  0
LINE
  5
8B5
  8
0
 10
48.491890948894309
 20
71.921390517621703
 30
0.0
 11
68.49189094889482
 21
71.921390517621802
 31
0.0
  0
LINE
  5
8B6
  8
0
 10
68.49189094889482
 20
71.921390517621802
 30
0.0
 11
68.491890948892006
 21
21.921390517621798
 31
0.0
  0
LINE
  5
8B8
  8
0
 10
48.491890948896163
 20
21.921390517621699
 30
0.0
 11
48.491890948894742
 21
71.921390517621703
 31
0.0
  0
LINE
  5
8B9
  8
0
 10
55.991890948892042
 20
71.921390517621802
 30
0.0
 11
55.991890948914801
 21
21.921390517621749
 31
0.0
  0
LINE
  5
8BA
  8
0
 10
60.991890948892092
 20
71.921390517621802
 30
0.0
 11
60.991890948890671
 21
21.92139051762177
 31
0.0
  0
LINE
  5
8BD
  8
0
 10
138.49189094889479
 20
91.92139051762193
 30
0.0
 11
138.49189094889479
 21
111.9213905176219
 31
0.0
  0
LINE
  5
8BE
  8
0
 10
48.491890948894572
 20
21.921390517621699
 30
0.0
 11
68.491890948895076
 21
21.921390517621798
 31
0.0
  0
LINE
  5
8BF
  8
1
 10
143.49189094889479
 20
101.9213905176217
 30
0.0
 11
83.49189094889482
 21
101.9213905176217
 31
0.0
  0
LINE
  5
8C0
  8
1
 10
58.491890948894763
 20
116.9213905176218
 30
0.0
 11
58.491890948894763
 21
86.921390517621774
 31
0.0
  0
LINE
  5
8C6
  8
0
 10
60.991890948892042
 20
71.921390517624076
 30
0.0
 11
60.991890948914801
 21
21.921390517624019
 31
0.0
  0
LINE
  5
8CA
  8
1
 10
73.49189094889482
 20
101.9213905176217
 30
0.0
 11
43.491890948894529
 21
101.9213905176218
 31
0.0
  0
LINE
  5
8CB
  8
1
 10
58.49189094889477
 20
76.921390517621774
 30
0.0
 11
58.491890948894763
 21
16.921390517621742
 31
0.0
  0
TEXT
  5
9CF
  8
0
 62
     3
 10
0.0
 20
0.0
 30
0.0
 40
10.0
  1
L5-SPH2020N3-3M
  7
STANDARD1
  0
ENDSEC
  0
EOF
