  0
SECTION
  2
HEADER
  9
$ACADVER
  1
AC1009
  9
$INSBASE
 10
0.0
 20
0.0
 30
0.0
  9
$EXTMIN
 10
0.0
 20
-1.4802182810368341
 30
0.0
  9
$EXTMAX
 10
127.0411074931497
 20
102.693345323741
 30
0.0
  9
$LIMMIN
 10
0.0
 20
0.0
  9
$LIMMAX
 10
187.5
 20
135.0
  9
$ORTHOMODE
 70
     0
  9
$REGENMODE
 70
     1
  9
$FILLMODE
 70
     1
  9
$QTEXTMODE
 70
     0
  9
$MIRRTEXT
 70
     0
  9
$DRAGMODE
 70
     2
  9
$LTSCALE
 40
5.0
  9
$OSMODE
 70
  3071
  9
$ATTMODE
 70
     1
  9
$TEXTSIZE
 40
2.5000000000000488
  9
$TRACEWID
 40
0.05
  9
$TEXTSTYLE
  7
STANDARD
  9
$CLAYER
  8
0
  9
$CELTYPE
  6
BYLAYER
  9
$CECOLOR
 62
   256
  9
$DIMSCALE
 40
0.5
  9
$DIMASZ
 40
3.0
  9
$DIMEXO
 40
2.0
  9
$DIMDLI
 40
0.38
  9
$DIMRND
 40
0.0
  9
$DIMDLE
 40
0.0
  9
$DIMEXE
 40
2.0
  9
$DIMTP
 40
0.0
  9
$DIMTM
 40
0.0
  9
$DIMTXT
 40
3.0
  9
$DIMCEN
 40
0.0
  9
$DIMTSZ
 40
0.0
  9
$DIMTOL
 70
     0
  9
$DIMLIM
 70
     0
  9
$DIMTIH
 70
     0
  9
$DIMTOH
 70
     0
  9
$DIMSE1
 70
     0
  9
$DIMSE2
 70
     0
  9
$DIMTAD
 70
     1
  9
$DIMZIN
 70
     0
  9
$DIMBLK
  1

  9
$DIMASO
 70
     0
  9
$DIMSHO
 70
     0
  9
$DIMPOST
  1

  9
$DIMAPOST
  1

  9
$DIMALT
 70
     0
  9
$DIMALTD
 70
     2
  9
$DIMALTF
 40
25.399999999999999
  9
$DIMLFAC
 40
1.0
  9
$DIMTOFL
 70
     1
  9
$DIMTVP
 40
1.6000000000000001
  9
$DIMTIX
 70
     1
  9
$DIMSOXD
 70
     0
  9
$DIMSAH
 70
     0
  9
$DIMBLK1
  1

  9
$DIMBLK2
  1

  9
$DIMSTYLE
  2
STANDARD
  9
$DIMCLRD
 70
     0
  9
$DIMCLRE
 70
     0
  9
$DIMCLRT
 70
     0
  9
$DIMTFAC
 40
1.0
  9
$DIMGAP
 40
0.09
  9
$LUNITS
 70
     2
  9
$LUPREC
 70
     4
  9
$SKETCHINC
 40
0.1
  9
$FILLETRAD
 40
0.0
  9
$AUNITS
 70
     0
  9
$AUPREC
 70
     4
  9
$MENU
  1
E:\r13\win\SUPPORT\ACAD
  9
$ELEVATION
 40
0.0
  9
$PELEVATION
 40
0.0
  9
$THICKNESS
 40
0.0
  9
$LIMCHECK
 70
     0
  9
$BLIPMODE
 70
     0
  9
$CHAMFERA
 40
0.0
  9
$CHAMFERB
 40
0.0
  9
$SKPOLY
 70
     0
  9
$TDCREATE
 40
2449840.6521643521
  9
$TDUPDATE
 40
2456597.5468495372
  9
$TDINDWG
 40
0.0028724769
  9
$TDUSRTIMER
 40
0.0028724769
  9
$USRTIMER
 70
     1
  9
$ANGBASE
 50
0.0
  9
$ANGDIR
 70
     0
  9
$PDMODE
 70
     0
  9
$PDSIZE
 40
0.0
  9
$PLINEWID
 40
0.0
  9
$COORDS
 70
     1
  9
$SPLFRAME
 70
     0
  9
$SPLINETYPE
 70
     6
  9
$SPLINESEGS
 70
     8
  9
$ATTDIA
 70
     0
  9
$ATTREQ
 70
     1
  9
$HANDLING
 70
     1
  9
$HANDSEED
  5
23E
  9
$SURFTAB1
 70
     6
  9
$SURFTAB2
 70
     6
  9
$SURFTYPE
 70
     6
  9
$SURFU
 70
     6
  9
$SURFV
 70
     6
  9
$UCSNAME
  2

  9
$UCSORG
 10
0.0
 20
0.0
 30
0.0
  9
$UCSXDIR
 10
1.0
 20
0.0
 30
0.0
  9
$UCSYDIR
 10
0.0
 20
1.0
 30
0.0
  9
$PUCSNAME
  2

  9
$PUCSORG
 10
0.0
 20
0.0
 30
0.0
  9
$PUCSXDIR
 10
1.0
 20
0.0
 30
0.0
  9
$PUCSYDIR
 10
0.0
 20
1.0
 30
0.0
  9
$USERI1
 70
     0
  9
$USERI2
 70
     1
  9
$USERI3
 70
     1
  9
$USERI4
 70
     0
  9
$USERI5
 70
     0
  9
$USERR1
 40
0.0
  9
$USERR2
 40
0.0
  9
$USERR3
 40
0.0
  9
$USERR4
 40
0.0
  9
$USERR5
 40
0.0
  9
$WORLDVIEW
 70
     1
  9
$SHADEDGE
 70
     3
  9
$SHADEDIF
 70
    70
  9
$TILEMODE
 70
     1
  9
$MAXACTVP
 70
    16
  9
$PLIMCHECK
 70
     0
  9
$PEXTMIN
 10
1.0000000000000000E+020
 20
1.0000000000000000E+020
 30
1.0000000000000000E+020
  9
$PEXTMAX
 10
-1.0000000000000000E+020
 20
-1.0000000000000000E+020
 30
-1.0000000000000000E+020
  9
$PLIMMIN
 10
0.0
 20
0.0
  9
$PLIMMAX
 10
12.0
 20
9.0
  9
$UNITMODE
 70
     0
  9
$VISRETAIN
 70
     0
  9
$PLINEGEN
 70
     0
  9
$PSLTSCALE
 70
     0
  0
ENDSEC
  0
SECTION
  2
TABLES
  0
TABLE
  2
VPORT
 70
     1
  0
VPORT
  2
*ACTIVE
 70
     0
 10
0.0
 20
0.0
 11
1.0
 21
1.0
 12
93.74713919532617
 22
81.430819429735848
 13
0.0
 23
0.0
 14
5.0
 24
5.0
 15
5.0
 25
5.0
 16
0.0
 26
0.0
 36
1.0
 17
0.0
 27
0.0
 37
0.0
 40
167.40500581387491
 41
1.9089595375722539
 42
50.0
 43
0.0
 44
0.0
 50
0.0
 51
0.0
 71
     0
 72
   500
 73
     1
 74
     0
 75
     0
 76
     0
 77
     0
 78
     2
  0
ENDTAB
  0
TABLE
  2
LTYPE
 70
     3
  0
LTYPE
  2
CONTINUOUS
 70
     0
  3
Solid Line
 72
    65
 73
     0
 40
0.0
  0
LTYPE
  2
CENTER
 70
     0
  3
____ _ ____ _ ____ _ ____ _ ____ _ ____ _ ____
 72
    65
 73
     4
 40
2.0
 49
1.25
 49
-0.25
 49
0.25
 49
-0.25
  0
LTYPE
  2
PHANTOM2
 70
     0
  3
___ _ _ ___ _ _ ___ _ _ ___ _ _
 72
    65
 73
     6
 40
1.25
 49
0.625
 49
-0.125
 49
0.125
 49
-0.125
 49
0.125
 49
-0.125
  0
ENDTAB
  0
TABLE
  2
LAYER
 70
     3
  0
LAYER
  2
0
 70
     0
 62
     7
  6
CONTINUOUS
  0
LAYER
  2
1
 70
     0
 62
     1
  6
CENTER
  0
LAYER
  2
3
 70
     0
 62
     3
  6
CONTINUOUS
  0
ENDTAB
  0
TABLE
  2
STYLE
 70
     2
  0
STYLE
  2
STANDARD
 70
     0
 40
0.0
 41
1.0
 50
0.0
 71
     0
 42
2.5000000000000488
  3
TXT
  4
BIGFONT
  0
STYLE
  2
STANDARD1
 70
     0
 40
0.0
 41
1.0
 50
0.0
 71
     0
 42
3.0
  3
txt
  4

  0
ENDTAB
  0
TABLE
  2
VIEW
 70
     1
  0
VIEW
  2
ALL
 70
     0
 40
135.0
 10
110.4957983193277
 20
67.5
 41
0.0
 11
0.0
 21
0.0
 31
1.0
 12
0.0
 22
0.0
 32
0.0
 42
0.0
 43
0.0
 44
0.0
 50
0.0
 71
     0
  0
ENDTAB
  0
TABLE
  2
UCS
 70
     0
  0
ENDTAB
  0
TABLE
  2
APPID
 70
     3
  0
APPID
  2
ACAD
 70
     0
  0
APPID
  2
ACAD_MLEADERVER
 70
     0
  0
APPID
  2
ACAD_NAV_VCDISPLAY
 70
     0
  0
ENDTAB
  0
TABLE
  2
DIMSTYLE
 70
     1
  0
DIMSTYLE
  2
STANDARD
 70
     0
  3

  4

  5

  6

  7

 40
1.0
 41
0.18
 42
0.0625
 43
0.38
 44
0.18
 45
0.0
 46
0.0
 47
0.0
 48
0.0
140
0.18
141
0.09
142
0.0
143
25.399999999999999
144
1.0
145
0.0
146
1.0
147
0.09
 71
     0
 72
     0
 73
     1
 74
     1
 75
     0
 76
     0
 77
     0
 78
     0
170
     0
171
     2
172
     0
173
     0
174
     0
175
     0
176
     0
177
     0
178
     0
  0
ENDTAB
  0
ENDSEC
  0
SECTION
  2
BLOCKS
  0
BLOCK
  8
0
  2
$MODEL_SPACE
 70
     0
 10
0.0
 20
0.0
 30
0.0
  3
$MODEL_SPACE
  1

  0
ENDBLK
  5
C5
  8
0
  0
BLOCK
 67
     1
  8
0
  2
$PAPER_SPACE
 70
     0
 10
0.0
 20
0.0
 30
0.0
  3
$PAPER_SPACE
  1

  0
ENDBLK
  5
C3
 67
     1
  8
0
  0
ENDSEC
  0
SECTION
  2
ENTITIES
  0
CIRCLE
  5
36
  8
0
 10
72.128089464848685
 20
95.193345323741013
 30
0.0
 40
4.7500000000000213
  0
LINE
  5
37
  8
0
 10
72.994114867928744
 20
93.693345324962365
 30
0.0
 11
71.262064060359961
 21
93.693345324962365
 31
0.0
  0
LINE
  5
38
  8
0
 10
71.262064061768882
 20
93.693345324963715
 30
0.0
 11
70.396038657984235
 21
95.193345324962365
 31
0.0
  0
LINE
  5
39
  8
0
 10
70.39603865869023
 20
95.193345323741354
 30
0.0
 11
71.262064062474366
 21
96.693345323741354
 31
0.0
  0
LINE
  5
3A
  8
0
 10
71.262064061769735
 20
96.693345322520372
 30
0.0
 11
72.994114869338517
 21
96.693345322520372
 31
0.0
  0
LINE
  5
3B
  8
0
 10
72.994114867928573
 20
96.693345322520372
 30
0.0
 11
73.86014027171322
 21
95.193345322520358
 31
0.0
  0
LINE
  5
3C
  8
0
 10
73.860140271007225
 20
95.193345323741354
 30
0.0
 11
72.99411486722309
 21
93.693345323741369
 31
0.0
  0
CIRCLE
  5
3D
  8
0
 10
72.128089464848685
 20
95.193345323741013
 30
0.0
 40
1.8
  0
LINE
  5
3E
  8
0
 10
62.628089464848728
 20
97.693345323740999
 30
0.0
 11
62.628089464848728
 21
92.693345323740999
 31
0.0
  0
LINE
  5
3F
  8
0
 10
63.878089464848728
 20
100.193345323741
 30
0.0
 11
63.878089464848728
 21
97.693345323740999
 31
0.0
  0
LINE
  5
40
  8
0
 10
62.628089464848728
 20
97.693345323740999
 30
0.0
 11
63.878089464848728
 21
97.693345323740999
 31
0.0
  0
LINE
  5
41
  8
0
 10
62.628089464848728
 20
92.693345323740999
 30
0.0
 11
63.878089464848728
 21
92.693345323740999
 31
0.0
  0
LINE
  5
42
  8
0
 10
63.878089464848728
 20
92.693345323740999
 30
0.0
 11
63.878089464848728
 21
90.193345323740999
 31
0.0
  0
LINE
  5
43
  8
0
 10
80.378089464848713
 20
92.693345323740999
 30
0.0
 11
80.378089464848713
 21
90.193345323740999
 31
0.0
  0
LINE
  5
44
  8
0
 10
81.628089464848713
 20
92.693345323740999
 30
0.0
 11
80.378089464848713
 21
92.693345323740999
 31
0.0
  0
LINE
  5
45
  8
0
 10
81.628089464848713
 20
97.693345323740999
 30
0.0
 11
80.378089464848713
 21
97.693345323740999
 31
0.0
  0
LINE
  5
46
  8
0
 10
80.378089464848713
 20
100.193345323741
 30
0.0
 11
80.378089464848713
 21
97.693345323740999
 31
0.0
  0
LINE
  5
47
  8
0
 10
81.628089464848713
 20
97.693345323740999
 30
0.0
 11
81.628089464848713
 21
92.693345323740999
 31
0.0
  0
LINE
  5
48
  8
0
 10
63.878089464848728
 20
90.193345323740999
 30
0.0
 11
80.378089464848713
 21
90.193345323740999
 31
0.0
  0
LINE
  5
49
  8
0
 10
63.878089464848728
 20
100.193345323741
 30
0.0
 11
80.378089464848713
 21
100.193345323741
 31
0.0
  0
LINE
  5
4A
  8
1
 10
72.128089464848728
 20
87.693345323740999
 30
0.0
 11
72.128089464848756
 21
102.693345323741
 31
0.0
  0
LINE
  5
4B
  8
1
 10
60.128089464848728
 20
95.193345323740999
 30
0.0
 11
84.128089464848713
 21
95.193345323740999
 31
0.0
  0
LINE
  5
4C
  8
0
 10
124.5411074931496
 20
42.715572304102011
 30
0.0
 11
119.5411074931497
 21
42.715572304102011
 31
0.0
  0
LINE
  5
4D
  8
0
 10
120.4411074931496
 20
41.815572304101977
 30
0.0
 11
119.5411074931497
 21
42.715572304102011
 31
0.0
  0
LINE
  5
4E
  8
0
 10
124.5411074931496
 20
42.715572304102011
 30
0.0
 11
123.6411074931496
 21
41.815572304101977
 31
0.0
  0
LINE
  5
4F
  8
0
 10
123.6411074931496
 20
41.815572304101977
 30
0.0
 11
120.4411074931496
 21
41.815572304101977
 31
0.0
  0
LINE
  5
50
  8
0
 10
124.5411074931496
 20
53.815572304102027
 30
0.0
 11
124.5411074931496
 21
42.715572304102011
 31
0.0
  0
LINE
  5
51
  8
3
 10
124.1081074931499
 20
49.315572304101991
 30
0.0
 11
124.1081074931499
 21
42.282572304102239
 31
0.0
  0
LINE
  5
52
  8
3
 10
119.9741074931495
 20
49.315572304101991
 30
0.0
 11
119.9741074931494
 21
42.282572304102189
 31
0.0
  0
LINE
  5
53
  8
0
 10
119.5411074931496
 20
53.815572304102027
 30
0.0
 11
119.5411074931497
 21
42.715572304102011
 31
0.0
  0
LINE
  5
54
  8
0
 10
126.7911074931497
 20
54.415572304101723
 30
0.0
 11
126.7911074931497
 21
53.815572304102012
 31
0.0
  0
LINE
  5
55
  8
0
 10
117.2911074931497
 20
54.415572304101943
 30
0.0
 11
126.7911074931497
 21
54.415572304102
 31
0.0
  0
LINE
  5
56
  8
0
 10
117.2911074931497
 20
54.415572304101723
 30
0.0
 11
117.2911074931497
 21
53.815572304102012
 31
0.0
  0
LINE
  5
57
  8
0
 10
120.2411074931517
 20
56.815572304101998
 30
0.0
 11
123.8411074931485
 21
56.815572304101998
 31
0.0
  0
ARC
  5
58
  8
0
 10
122.0411074931496
 20
51.590051470768202
 30
0.0
 40
5.526849733763715
 50
30.746149365275429
 51
70.993051520779673
  0
ARC
  5
59
  8
0
 10
122.0411074931496
 20
51.590051470768202
 30
0.0
 40
5.526849733763715
 50
109.0069484792203
 51
149.2538506347241
  0
LINE
  5
5A
  8
1
 10
122.0411074931496
 20
39.315572304101948
 30
0.0
 11
122.0411074931497
 21
59.315572304101998
 31
0.0
  0
LINE
  5
5B
  8
0
 10
117.0411074931497
 20
53.815572304101991
 30
0.0
 11
127.0411074931497
 21
53.815572304101991
 31
0.0
  0
LINE
  5
5C
  8
0
 10
124.5411074931497
 20
49.315572304101991
 30
0.0
 11
124.5411074931497
 21
53.815572304101991
 31
0.0
  0
LINE
  5
5D
  8
0
 10
119.5411074931497
 20
49.315572304101991
 30
0.0
 11
119.5411074931497
 21
53.815572304101991
 31
0.0
  0
LINE
  5
5E
  8
0
 10
119.5411074931497
 20
49.315572304101991
 30
0.0
 11
124.5411074931497
 21
49.315572304101991
 31
0.0
  0
LINE
  5
5F
  8
0
 10
117.0411074931497
 20
52.715572304101968
 30
0.0
 11
119.5411074931497
 21
52.715572304101983
 31
0.0
  0
LINE
  5
60
  8
0
 10
117.0411074931497
 20
53.815572304101991
 30
0.0
 11
117.0411074931497
 21
52.715572304101968
 31
0.0
  0
LINE
  5
61
  8
0
 10
127.0411074931497
 20
53.815572304101991
 30
0.0
 11
127.0411074931497
 21
52.715572304101968
 31
0.0
  0
LINE
  5
62
  8
0
 10
124.5411074931497
 20
52.715572304101983
 30
0.0
 11
127.0411074931497
 21
52.715572304101968
 31
0.0
  0
ARC
  5
63
  8
0
 10
72.128089464848614
 20
51.590051470768209
 30
0.0
 40
5.526849733763715
 50
109.0069484792203
 51
149.2538506347241
  0
ARC
  5
64
  8
0
 10
72.128089464848614
 20
51.590051470768209
 30
0.0
 40
5.526849733763715
 50
30.746149365275429
 51
70.993051520779673
  0
LINE
  5
65
  8
0
 10
70.328089464850706
 20
56.815572304102012
 30
0.0
 11
73.928089464847545
 21
56.815572304102012
 31
0.0
  0
LINE
  5
66
  8
0
 10
67.378089464848699
 20
54.415572304101723
 30
0.0
 11
67.378089464848699
 21
53.815572304102012
 31
0.0
  0
LINE
  5
67
  8
0
 10
67.378089464848699
 20
54.41557230410195
 30
0.0
 11
76.878089464848699
 21
54.415572304102
 31
0.0
  0
LINE
  5
68
  8
0
 10
76.878089464848699
 20
54.415572304101723
 30
0.0
 11
76.878089464848699
 21
53.815572304102012
 31
0.0
  0
LINE
  5
69
  8
0
 10
69.628089464848642
 20
52.715572304101983
 30
0.0
 11
69.628089464848671
 21
42.715572304102011
 31
0.0
  0
LINE
  5
6A
  8
3
 10
70.061089464848493
 20
51.815572304101643
 30
0.0
 11
70.061089464848465
 21
42.282572304102189
 31
0.0
  0
LINE
  5
6B
  8
3
 10
74.195089464848877
 20
51.815572304101643
 30
0.0
 11
74.195089464848877
 21
42.282572304102253
 31
0.0
  0
LINE
  5
6C
  8
0
 10
74.628089464848671
 20
52.715572304101983
 30
0.0
 11
74.628089464848671
 21
42.715572304102011
 31
0.0
  0
LINE
  5
6D
  8
0
 10
73.728089464848665
 20
41.815572304101977
 30
0.0
 11
70.528089464848676
 21
41.815572304101977
 31
0.0
  0
LINE
  5
6E
  8
0
 10
74.628089464848671
 20
51.815572304101643
 30
0.0
 11
69.628089464848671
 21
51.815572304101643
 31
0.0
  0
LINE
  5
6F
  8
0
 10
74.628089464848671
 20
42.715572304102011
 30
0.0
 11
73.728089464848665
 21
41.815572304101977
 31
0.0
  0
LINE
  5
70
  8
0
 10
70.528089464848676
 20
41.815572304101977
 30
0.0
 11
69.628089464848671
 21
42.715572304102011
 31
0.0
  0
LINE
  5
71
  8
0
 10
74.628089464848671
 20
42.715572304102011
 30
0.0
 11
69.628089464848671
 21
42.715572304102011
 31
0.0
  0
LINE
  5
72
  8
0
 10
63.878089464848728
 20
53.794592249876906
 30
0.0
 11
63.878089464848728
 21
52.715572304101997
 31
0.0
  0
ARC
  5
73
  8
0
 10
64.128089464848713
 20
52.315572304101991
 30
0.0
 40
1.5
 50
90.0
 51
180.0
  0
ARC
  5
74
  8
0
 10
64.128089464848713
 20
52.315572304101991
 30
0.0
 40
0.3999999999999999
 50
90.0
 51
180.0
  0
ARC
  5
75
  8
0
 10
80.128089464848713
 20
52.315572304101991
 30
0.0
 40
0.3999999999999999
 50
0.0
 51
90.0
  0
ARC
  5
76
  8
0
 10
80.128089464848713
 20
52.315572304101991
 30
0.0
 40
1.5
 50
0.0
 51
90.0
  0
LINE
  5
77
  8
0
 10
63.878089464848671
 20
52.715572304101983
 30
0.0
 11
80.378089464848713
 21
52.715572304101997
 31
0.0
  0
LINE
  5
78
  8
0
 10
80.378089464848713
 20
53.794592249876906
 30
0.0
 11
80.378089464848713
 21
52.715572304101997
 31
0.0
  0
LINE
  5
79
  8
0
 10
64.128089464848713
 20
53.815572304101998
 30
0.0
 11
80.128089464848713
 21
53.815572304101998
 31
0.0
  0
LINE
  5
7A
  8
0
 10
63.728089464848701
 20
52.315572304101991
 30
0.0
 11
63.728089464848701
 21
51.315572304101998
 31
0.0
  0
LINE
  5
7B
  8
0
 10
69.527512612081182
 20
51.393455000273413
 30
0.0
 11
69.062632524166418
 21
52.390393566013728
 31
0.0
  0
LINE
  5
7C
  8
0
 10
65.008445900415353
 20
50.499895295769072
 30
0.0
 11
69.062632524166389
 21
52.390393566013749
 31
0.0
  0
LINE
  5
7D
  8
0
 10
65.473326380001197
 20
49.50295691266799
 30
0.0
 11
69.527512612081154
 21
51.39345500027342
 31
0.0
  0
ARC
  5
7E
  8
0
 10
64.628089464848728
 20
51.315572304102048
 30
0.0
 40
0.9
 50
180.0
 51
294.99999999999989
  0
ARC
  5
7F
  8
0
 10
64.628089464848728
 20
51.315572304102048
 30
0.0
 40
2.0
 50
179.9999999999998
 51
294.99999999999989
  0
LINE
  5
80
  8
0
 10
62.628089464848728
 20
52.315572304101991
 30
0.0
 11
62.628089464848728
 21
51.315571770981911
 31
0.0
  0
LINE
  5
81
  8
0
 10
81.628089464848699
 20
52.315572304101991
 30
0.0
 11
81.628089464848699
 21
51.315572304102062
 31
0.0
  0
ARC
  5
82
  8
0
 10
79.628089464848685
 20
51.315572304102048
 30
0.0
 40
2.0
 50
245.00000000000011
 51
0.000000000000229
  0
ARC
  5
83
  8
0
 10
79.628089464848671
 20
51.315572304102048
 30
0.0
 40
0.9
 50
245.00000000000011
 51
0.0000000000000254
  0
LINE
  5
84
  8
0
 10
78.782852941367281
 20
49.502956730028757
 30
0.0
 11
74.728666317616245
 21
51.39345500027342
 31
0.0
  0
LINE
  5
85
  8
0
 10
79.247733029282045
 20
50.499895295769072
 30
0.0
 11
75.193546405531009
 21
52.390393566013749
 31
0.0
  0
LINE
  5
86
  8
0
 10
74.728666317616245
 20
51.393455000273413
 30
0.0
 11
75.193546405531009
 21
52.390393566013728
 31
0.0
  0
LINE
  5
87
  8
0
 10
80.528089464848705
 20
52.315572304101991
 30
0.0
 11
80.528089464848705
 21
51.315572304101998
 31
0.0
  0
LINE
  5
88
  8
1
 10
72.128089464848685
 20
39.315572304101948
 30
0.0
 11
72.128089464848685
 21
59.315572304102012
 31
0.0
  0
TEXT
  5
1AD
  8
0
 62
     3
 10
0.0
 20
0.0
 30
0.0
 40
5.0
  1
L5-SJT5
  7
STANDARD1
  0
ENDSEC
  0
EOF
