  0
SECTION
  2
HEADER
  9
$ACADVER
  1
AC1009
  9
$INSBASE
 10
0.0
 20
0.0
 30
0.0
  9
$EXTMIN
 10
0.0
 20
-2.960436562073669
 30
0.0
  9
$EXTMAX
 10
298.92585219065262
 20
173.539346280312
 30
0.0
  9
$LIMMIN
 10
0.0
 20
0.0
  9
$LIMMAX
 10
375.0
 20
270.0
  9
$ORTHOMODE
 70
     1
  9
$REGENMODE
 70
     1
  9
$FILLMODE
 70
     1
  9
$QTEXTMODE
 70
     0
  9
$MIRRTEXT
 70
     0
  9
$DRAGMODE
 70
     2
  9
$LTSCALE
 40
10.0
  9
$OSMODE
 70
  3071
  9
$ATTMODE
 70
     1
  9
$TEXTSIZE
 40
0.2
  9
$TRACEWID
 40
0.05
  9
$TEXTSTYLE
  7
STANDARD
  9
$CLAYER
  8
0
  9
$CELTYPE
  6
BYLAYER
  9
$CECOLOR
 62
   256
  9
$DIMSCALE
 40
1.0
  9
$DIMASZ
 40
3.0
  9
$DIMEXO
 40
2.0
  9
$DIMDLI
 40
0.3799999999999999
  9
$DIMRND
 40
0.0
  9
$DIMDLE
 40
0.0
  9
$DIMEXE
 40
2.0
  9
$DIMTP
 40
0.0
  9
$DIMTM
 40
0.0
  9
$DIMTXT
 40
3.2000000000000002
  9
$DIMCEN
 40
0.09
  9
$DIMTSZ
 40
0.0
  9
$DIMTOL
 70
     0
  9
$DIMLIM
 70
     0
  9
$DIMTIH
 70
     0
  9
$DIMTOH
 70
     0
  9
$DIMSE1
 70
     0
  9
$DIMSE2
 70
     0
  9
$DIMTAD
 70
     1
  9
$DIMZIN
 70
     0
  9
$DIMBLK
  1

  9
$DIMASO
 70
     0
  9
$DIMSHO
 70
     0
  9
$DIMPOST
  1

  9
$DIMAPOST
  1

  9
$DIMALT
 70
     0
  9
$DIMALTD
 70
     2
  9
$DIMALTF
 40
25.399999999999999
  9
$DIMLFAC
 40
1.0
  9
$DIMTOFL
 70
     0
  9
$DIMTVP
 40
0.0
  9
$DIMTIX
 70
     0
  9
$DIMSOXD
 70
     0
  9
$DIMSAH
 70
     0
  9
$DIMBLK1
  1

  9
$DIMBLK2
  1

  9
$DIMSTYLE
  2
STANDARD
  9
$DIMCLRD
 70
     0
  9
$DIMCLRE
 70
     0
  9
$DIMCLRT
 70
     0
  9
$DIMTFAC
 40
1.0
  9
$DIMGAP
 40
0.09
  9
$LUNITS
 70
     2
  9
$LUPREC
 70
     4
  9
$SKETCHINC
 40
0.1
  9
$FILLETRAD
 40
0.6
  9
$AUNITS
 70
     0
  9
$AUPREC
 70
     0
  9
$MENU
  1
ACAD-3
  9
$ELEVATION
 40
0.0
  9
$PELEVATION
 40
0.0
  9
$THICKNESS
 40
0.0
  9
$LIMCHECK
 70
     0
  9
$BLIPMODE
 70
     0
  9
$CHAMFERA
 40
0.0
  9
$CHAMFERB
 40
0.0
  9
$SKPOLY
 70
     0
  9
$TDCREATE
 40
2450898.6822864581
  9
$TDUPDATE
 40
2456597.5466857748
  9
$TDINDWG
 40
0.0027720718
  9
$TDUSRTIMER
 40
0.0027720718
  9
$USRTIMER
 70
     1
  9
$ANGBASE
 50
0.0
  9
$ANGDIR
 70
     0
  9
$PDMODE
 70
     0
  9
$PDSIZE
 40
0.0
  9
$PLINEWID
 40
0.0
  9
$COORDS
 70
     1
  9
$SPLFRAME
 70
     0
  9
$SPLINETYPE
 70
     6
  9
$SPLINESEGS
 70
     8
  9
$ATTDIA
 70
     0
  9
$ATTREQ
 70
     1
  9
$HANDLING
 70
     1
  9
$HANDSEED
  5
248
  9
$SURFTAB1
 70
     6
  9
$SURFTAB2
 70
     6
  9
$SURFTYPE
 70
     6
  9
$SURFU
 70
     6
  9
$SURFV
 70
     6
  9
$UCSNAME
  2

  9
$UCSORG
 10
0.0
 20
0.0
 30
0.0
  9
$UCSXDIR
 10
1.0
 20
0.0
 30
0.0
  9
$UCSYDIR
 10
0.0
 20
1.0
 30
0.0
  9
$PUCSNAME
  2

  9
$PUCSORG
 10
0.0
 20
0.0
 30
0.0
  9
$PUCSXDIR
 10
1.0
 20
0.0
 30
0.0
  9
$PUCSYDIR
 10
0.0
 20
1.0
 30
0.0
  9
$USERI1
 70
     0
  9
$USERI2
 70
     1
  9
$USERI3
 70
     0
  9
$USERI4
 70
     0
  9
$USERI5
 70
     0
  9
$USERR1
 40
0.0
  9
$USERR2
 40
0.0
  9
$USERR3
 40
0.0
  9
$USERR4
 40
0.0
  9
$USERR5
 40
0.0
  9
$WORLDVIEW
 70
     1
  9
$SHADEDGE
 70
     3
  9
$SHADEDIF
 70
    70
  9
$TILEMODE
 70
     1
  9
$MAXACTVP
 70
    16
  9
$PLIMCHECK
 70
     0
  9
$PEXTMIN
 10
1.0000000000000000E+020
 20
1.0000000000000000E+020
 30
1.0000000000000000E+020
  9
$PEXTMAX
 10
-1.0000000000000000E+020
 20
-1.0000000000000000E+020
 30
-1.0000000000000000E+020
  9
$PLIMMIN
 10
0.0
 20
0.0
  9
$PLIMMAX
 10
12.0
 20
9.0
  9
$UNITMODE
 70
     0
  9
$VISRETAIN
 70
     0
  9
$PLINEGEN
 70
     1
  9
$PSLTSCALE
 70
     0
  0
ENDSEC
  0
SECTION
  2
TABLES
  0
TABLE
  2
VPORT
 70
     1
  0
VPORT
  2
*ACTIVE
 70
     0
 10
0.0
 20
0.0
 11
1.0
 21
1.0
 12
187.49427839065231
 22
162.8616388594717
 13
0.0
 23
0.0
 14
10.0
 24
10.0
 15
10.0
 25
10.0
 16
0.0
 26
0.0
 36
1.0
 17
0.0
 27
0.0
 37
0.0
 40
334.81001162774987
 41
1.9089595375722539
 42
50.0
 43
0.0
 44
0.0
 50
0.0
 51
0.0
 71
     0
 72
  1000
 73
     1
 74
     0
 75
     0
 76
     0
 77
     0
 78
     0
  0
ENDTAB
  0
TABLE
  2
LTYPE
 70
     3
  0
LTYPE
  2
CONTINUOUS
 70
     0
  3
Solid Line
 72
    65
 73
     0
 40
0.0
  0
LTYPE
  2
CENTER
 70
     0
  3
____ _ ____ _ ____ _ ____ _ ____ _ ____ _ ____
 72
    65
 73
     4
 40
2.0
 49
1.25
 49
-0.25
 49
0.25
 49
-0.25
  0
LTYPE
  2
PHANTOM2
 70
     0
  3
___ _ _ ___ _ _ ___ _ _ ___ _ _
 72
    65
 73
     6
 40
1.25
 49
0.625
 49
-0.125
 49
0.125
 49
-0.125
 49
0.125
 49
-0.125
  0
ENDTAB
  0
TABLE
  2
LAYER
 70
     2
  0
LAYER
  2
0
 70
     0
 62
     7
  6
CONTINUOUS
  0
LAYER
  2
1
 70
     0
 62
     1
  6
CENTER
  0
ENDTAB
  0
TABLE
  2
STYLE
 70
     2
  0
STYLE
  2
STANDARD
 70
     0
 40
0.0
 41
1.0
 50
0.0
 71
     0
 42
0.2
  3
TXT
  4
BIGFONT
  0
STYLE
  2
STANDARD1
 70
     0
 40
0.0
 41
1.0
 50
0.0
 71
     0
 42
3.0
  3
txt
  4

  0
ENDTAB
  0
TABLE
  2
VIEW
 70
     0
  0
ENDTAB
  0
TABLE
  2
UCS
 70
     0
  0
ENDTAB
  0
TABLE
  2
APPID
 70
     5
  0
APPID
  2
ACAD
 70
     0
  0
APPID
  2
GENIUS_GENODEF_13
 70
     0
  0
APPID
  2
GENIUS_GENOBJ-N-FIL_13
 70
     0
  0
APPID
  2
ACAD_MLEADERVER
 70
     0
  0
APPID
  2
ACAD_NAV_VCDISPLAY
 70
     0
  0
ENDTAB
  0
TABLE
  2
DIMSTYLE
 70
     1
  0
DIMSTYLE
  2
STANDARD
 70
     0
  3

  4

  5

  6

  7

 40
1.0
 41
0.18
 42
0.0625
 43
0.38
 44
0.18
 45
0.0
 46
0.0
 47
0.0
 48
0.0
140
0.18
141
0.09
142
0.0
143
25.399999999999999
144
1.0
145
0.0
146
1.0
147
0.09
 71
     0
 72
     0
 73
     1
 74
     1
 75
     0
 76
     0
 77
     0
 78
     0
170
     0
171
     2
172
     0
173
     0
174
     0
175
     0
176
     0
177
     0
178
     0
  0
ENDTAB
  0
ENDSEC
  0
SECTION
  2
BLOCKS
  0
BLOCK
  8
0
  2
$MODEL_SPACE
 70
     0
 10
0.0
 20
0.0
 30
0.0
  3
$MODEL_SPACE
  1

  0
ENDBLK
  5
2C
  8
0
  0
BLOCK
 67
     1
  8
0
  2
$PAPER_SPACE
 70
     0
 10
0.0
 20
0.0
 30
0.0
  3
$PAPER_SPACE
  1

  0
ENDBLK
  5
2A
 67
     1
  8
0
  0
ENDSEC
  0
SECTION
  2
ENTITIES
  0
LINE
  5
30
  8
0
 10
98.129527621885785
 20
114.33858889573941
 30
0.0
 11
93.12952762188587
 21
114.33858889573941
 31
0.0
  0
ARC
  5
31
  8
0
 10
95.629527621885785
 20
114.8635888957362
 30
0.0
 40
0.7249999999976869
 50
226.3971810271222
 51
313.60281897287769
  0
LINE
  5
32
  8
0
  6
CONTINUOUS
 62
     7
 10
101.1295276218859
 20
112.5393462802524
 30
0.0
 11
90.129527621885615
 21
112.5393462802523
 31
0.0
  0
LINE
  5
33
  8
0
  6
CONTINUOUS
 62
     7
 10
98.129527621885785
 20
118.0393462802524
 30
0.0
 11
93.129527621885856
 21
118.0393462802524
 31
0.0
  0
LINE
  5
34
  8
0
  6
CONTINUOUS
 62
     7
 10
102.8295276218857
 20
109.0393462802528
 30
0.0
 11
88.429527621885754
 21
109.0393462802528
 31
0.0
  0
LINE
  5
35
  8
0
  6
CONTINUOUS
 62
     7
 10
97.429527621885725
 20
118.0393462802524
 30
0.0
 11
93.829527621885774
 21
118.0393462802524
 31
0.0
  0
LINE
  5
36
  8
0
  6
CONTINUOUS
 62
     7
 10
93.129527621885856
 20
115.1722938053651
 30
0.0
 11
98.129527621885785
 21
115.1722938053652
 31
0.0
  0
LINE
  5
37
  8
0
  6
CONTINUOUS
 62
     7
 10
90.379527621885828
 20
100.5393462802528
 30
0.0
 11
100.8795276218857
 21
100.5393462802528
 31
0.0
  0
LINE
  5
38
  8
0
  6
CONTINUOUS
 62
     7
 10
93.12952762188587
 20
113.23934628025241
 30
0.0
 11
93.129527621885856
 21
118.0393462802524
 31
0.0
  0
LINE
  5
39
  8
1
  6
CENTER
 62
     1
 10
95.629527621885785
 20
121.0393462802524
 30
0.0
 11
95.629527621885785
 21
97.539346280252843
 31
0.0
  0
LINE
  5
3A
  8
0
  6
CONTINUOUS
 62
     7
 10
88.129527621885785
 20
108.7393462802528
 30
0.0
 11
88.129527621885785
 21
102.7893462802528
 31
0.0
  0
LINE
  5
3B
  8
0
  6
CONTINUOUS
 62
     7
 10
88.129527621885785
 20
102.7893462802528
 30
0.0
 11
88.129527621885785
 21
100.8393462802524
 31
0.0
  0
ARC
  5
3C
  8
0
  6
CONTINUOUS
 62
     7
 10
88.429527621885754
 20
100.8393462802524
 30
0.0
 40
0.3
 50
180.0
 51
269.99999999999989
  0
LINE
  5
3D
  8
0
  6
CONTINUOUS
 62
     7
 10
88.429527621885754
 20
100.5393462802524
 30
0.0
 11
90.379527621885828
 21
100.5393462802524
 31
0.0
  0
LINE
  5
3E
  8
0
  6
CONTINUOUS
 62
     7
 10
89.629527621885757
 20
112.0393462802523
 30
0.0
 11
89.629527621885757
 21
111.5643462802511
 31
0.0
  0
LINE
  5
3F
  8
0
  6
CONTINUOUS
 62
     7
 10
89.629527621885615
 20
112.0393462802523
 30
0.0
 11
89.629527621885615
 21
111.538588895755
 31
0.0
  0
LINE
  5
40
  8
0
 10
92.629527621885771
 20
111.538588895755
 30
0.0
 11
89.629527621885615
 21
111.538588895755
 31
0.0
  0
ARC
  5
41
  8
0
  6
CONTINUOUS
 62
     7
 10
88.429527621885754
 20
108.7393462802528
 30
0.0
 40
0.3
 50
90.0
 51
179.99999999999989
  0
LINE
  5
42
  8
0
  6
CONTINUOUS
 62
     7
 10
92.629527621885771
 20
111.538588895755
 30
0.0
 11
92.629527621885771
 21
109.0393462802528
 31
0.0
  0
ARC
  5
43
  8
0
  6
CONTINUOUS
 62
     7
 10
90.129527621885615
 20
112.0393462802523
 30
0.0
 40
0.5
 50
90.000000000000554
 51
179.99999999999841
  0
ARC
  5
44
  8
0
  6
CONTINUOUS
 62
     7
 10
92.429527621885853
 20
113.23934628025241
 30
0.0
 40
0.7
 50
270.00000000000028
 51
0.0
  0
LINE
  5
45
  8
0
  6
CONTINUOUS
 62
     7
 10
98.129527621885785
 20
113.23934628025241
 30
0.0
 11
98.129527621885785
 21
118.0393462802524
 31
0.0
  0
LINE
  5
46
  8
0
  6
CONTINUOUS
 62
     7
 10
103.1295276218857
 20
108.7393462802528
 30
0.0
 11
103.1295276218857
 21
102.7893462802528
 31
0.0
  0
LINE
  5
47
  8
0
  6
CONTINUOUS
 62
     7
 10
103.1295276218857
 20
102.7893462802528
 30
0.0
 11
103.1295276218857
 21
100.8393462802524
 31
0.0
  0
LINE
  5
48
  8
0
  6
CONTINUOUS
 62
     7
 10
100.8795276218857
 20
100.5393462802524
 30
0.0
 11
102.8295276218857
 21
100.5393462802524
 31
0.0
  0
ARC
  5
49
  8
0
  6
CONTINUOUS
 62
     7
 10
102.8295276218857
 20
100.8393462802524
 30
0.0
 40
0.3
 50
270.0
 51
0.0
  0
LINE
  5
4A
  8
0
  6
CONTINUOUS
 62
     7
 10
101.6295276218856
 20
112.0393462802524
 30
0.0
 11
101.6295276218856
 21
111.5643462802491
 31
0.0
  0
LINE
  5
4B
  8
0
  6
CONTINUOUS
 62
     7
 10
101.6295276218859
 20
112.0393462802524
 30
0.0
 11
101.6295276218859
 21
111.538588895755
 31
0.0
  0
LINE
  5
4C
  8
0
 10
101.6295276218859
 20
111.538588895755
 30
0.0
 11
98.629527621885785
 21
111.538588895755
 31
0.0
  0
LINE
  5
4D
  8
0
  6
CONTINUOUS
 62
     7
 10
98.629527621885785
 20
111.538588895755
 30
0.0
 11
98.629527621885771
 21
109.0393462802528
 31
0.0
  0
ARC
  5
4E
  8
0
  6
CONTINUOUS
 62
     7
 10
102.8295276218857
 20
108.7393462802528
 30
0.0
 40
0.3
 50
0.0
 51
90.0
  0
ARC
  5
4F
  8
0
  6
CONTINUOUS
 62
     7
 10
98.829527621885802
 20
113.23934628025241
 30
0.0
 40
0.7
 50
180.00000000000031
 51
270.00000000000028
  0
ARC
  5
50
  8
0
  6
CONTINUOUS
 62
     7
 10
101.1295276218859
 20
112.0393462802524
 30
0.0
 40
0.5
 50
0.0
 51
90.000000000000483
  0
LINE
  5
51
  8
0
 10
144.6325845955966
 20
115.1722938053647
 30
0.0
 11
147.1295276219447
 21
118.0393462802521
 31
0.0
  0
LINE
  5
52
  8
0
 10
152.1295276219447
 20
118.0393462802521
 30
0.0
 11
154.6295276219478
 21
115.1722938053648
 31
0.0
  0
LINE
  5
53
  8
1
  6
CENTER
 62
     1
 10
149.6295276219455
 20
121.0393462802521
 30
0.0
 11
149.6295276219455
 21
97.539346280252545
 31
0.0
  0
LINE
  5
54
  8
0
  6
CONTINUOUS
 62
     7
 10
151.6295276218857
 20
109.0393462802307
 30
0.0
 11
151.6295276218857
 21
100.8393462802523
 31
0.0
  0
LINE
  5
55
  8
0
  6
CONTINUOUS
 62
     7
 10
147.1295276219752
 20
102.3393462802519
 30
0.0
 11
147.12952762197509
 21
107.23934628023019
 31
0.0
  0
LINE
  5
56
  8
0
  6
CONTINUOUS
 62
     7
 10
150.1295276219156
 20
107.23934628023019
 30
0.0
 11
150.1295276219156
 21
102.3393462802524
 31
0.0
  0
LINE
  5
57
  8
0
  6
CONTINUOUS
 62
     7
 10
145.6295276219453
 20
100.8393462802524
 30
0.0
 11
145.62952762194519
 21
109.0393462802304
 31
0.0
  0
LINE
  5
58
  8
0
  6
CONTINUOUS
 62
     7
 10
151.32952762188569
 20
100.5393462802526
 30
0.0
 11
145.92952762194531
 21
100.5393462802524
 31
0.0
  0
ARC
  5
59
  8
0
  6
CONTINUOUS
 62
     7
 10
145.92952762194531
 20
100.8393462802524
 30
0.0
 40
0.3
 50
180.00000000000071
 51
270.00000000000171
  0
ARC
  5
5A
  8
0
  6
CONTINUOUS
 62
     7
 10
151.32952762188569
 20
100.8393462802523
 30
0.0
 40
0.3
 50
270.0
 51
0.0
  0
ARC
  5
5B
  8
0
  6
CONTINUOUS
 62
     7
 10
149.8295276219155
 20
102.3393462802524
 30
0.0
 40
0.3
 50
270.00000000000961
 51
359.99999999999972
1001
GENIUS_GENODEF_13
1002
{
1000
HIER
1070
     0
1002
}
1002
{
1000
MANEDIT
1070
     0
1002
}
1002
{
1000
NOSEL
1070
     0
1002
}
1002
{
1000
BEHIND
1070
     0
1002
}
1002
{
1000
REACTOR
1002
}
1001
GENIUS_GENOBJ-N-FIL_13
1002
{
1000
OWNER
1000
GEN
1002
}
  0
LINE
  5
5C
  8
0
  6
CONTINUOUS
 62
     7
 10
149.82952762191559
 20
102.0393462802527
 30
0.0
 11
147.4295276219753
 21
102.03934628025171
 31
0.0
  0
ARC
  5
5D
  8
0
  6
CONTINUOUS
 62
     7
 10
147.42952762197521
 20
102.3393462802519
 30
0.0
 40
0.3
 50
180.0000000000006
 51
270.0000000000087
1001
GENIUS_GENODEF_13
1002
{
1000
HIER
1070
     0
1002
}
1002
{
1000
MANEDIT
1070
     0
1002
}
1002
{
1000
NOSEL
1070
     0
1002
}
1002
{
1000
BEHIND
1070
     0
1002
}
1002
{
1000
REACTOR
1002
}
1001
GENIUS_GENOBJ-N-FIL_13
1002
{
1000
OWNER
1000
GEN
1002
}
  0
LINE
  5
5E
  8
0
 10
144.63258459559671
 20
114.33858889573941
 30
0.0
 11
154.6295276219478
 21
114.33858889573941
 31
0.0
  0
LINE
  5
5F
  8
0
  6
CONTINUOUS
 62
     7
 10
145.37952762188581
 20
111.3885888957672
 30
0.0
 11
145.92346160471101
 21
110.84465491294181
 31
0.0
  0
LINE
  5
60
  8
0
  6
CONTINUOUS
 62
     7
 10
154.8295184657255
 20
112.5393462802311
 30
0.0
 11
143.42877023742699
 21
112.5393462802311
 31
0.0
  0
LINE
  5
61
  8
0
  6
CONTINUOUS
 62
     7
 10
154.8295276218856
 20
109.039346280231
 30
0.0
 11
143.42877023742699
 21
109.0393462802303
 31
0.0
  0
LINE
  5
62
  8
0
  6
CONTINUOUS
 62
     7
 10
143.12952762188581
 20
112.2393462802316
 30
0.0
 11
143.1295276218857
 21
109.3393462802315
 31
0.0
  0
ARC
  5
63
  8
0
  6
CONTINUOUS
 62
     7
 10
144.97952762188589
 20
110.9507209301198
 30
0.0
 40
0.15
 50
224.99999999999079
 51
0.000000000004252
1001
GENIUS_GENODEF_13
1002
{
1000
HIER
1070
     0
1002
}
1002
{
1000
MANEDIT
1070
     0
1002
}
1002
{
1000
NOSEL
1070
     0
1002
}
1002
{
1000
BEHIND
1070
     0
1002
}
1002
{
1000
REACTOR
1002
}
1001
GENIUS_GENOBJ-N-FIL_13
1002
{
1000
OWNER
1000
GEN
1002
}
  0
LINE
  5
64
  8
0
  6
CONTINUOUS
 62
     7
 10
144.32952762188279
 20
111.3885888957673
 30
0.0
 11
144.87346160470781
 21
110.84465491294191
 31
0.0
  0
LINE
  5
65
  8
0
  6
CONTINUOUS
 62
     7
 10
144.07952762188279
 20
110.9507209301199
 30
0.0
 11
144.07952762188279
 21
111.4885888957639
 31
0.0
  0
LINE
  5
66
  8
0
  6
CONTINUOUS
 62
     7
 10
144.32952762188279
 20
111.3885888957673
 30
0.0
 11
144.32952762188279
 21
111.4885888957639
 31
0.0
  0
LINE
  5
67
  8
0
  6
CONTINUOUS
 62
     7
 10
144.17952762188281
 20
111.58858889576391
 30
0.0
 11
144.22952762188271
 21
111.58858889576391
 31
0.0
  0
LINE
  5
68
  8
0
  6
CONTINUOUS
 62
     7
 10
145.12952762188581
 20
110.9507209301198
 30
0.0
 11
145.12952762188581
 21
111.4885888957638
 31
0.0
  0
LINE
  5
69
  8
0
  6
CONTINUOUS
 62
     7
 10
145.37952762188581
 20
111.3885888957672
 30
0.0
 11
145.37952762188581
 21
111.4885888957638
 31
0.0
  0
LINE
  5
6A
  8
0
  6
CONTINUOUS
 62
     7
 10
145.22952762188581
 20
111.58858889576381
 30
0.0
 11
145.2795276218859
 21
111.58858889576381
 31
0.0
  0
ARC
  5
6B
  8
0
  6
CONTINUOUS
 62
     7
 10
144.17952762188281
 20
111.4885888957639
 30
0.0
 40
0.1
 50
90.000000000000185
 51
180.00000000000011
1001
GENIUS_GENODEF_13
1002
{
1000
HIER
1070
     0
1002
}
1002
{
1000
MANEDIT
1070
     0
1002
}
1002
{
1000
NOSEL
1070
     0
1002
}
1002
{
1000
BEHIND
1070
     0
1002
}
1002
{
1000
REACTOR
1002
}
1001
GENIUS_GENOBJ-N-FIL_13
1002
{
1000
OWNER
1000
GEN
1002
}
  0
ARC
  5
6C
  8
0
  6
CONTINUOUS
 62
     7
 10
144.22952762188271
 20
111.4885888957639
 30
0.0
 40
0.1
 50
0.0000000000001809
 51
90.000000000000185
1001
GENIUS_GENODEF_13
1002
{
1000
HIER
1070
     0
1002
}
1002
{
1000
MANEDIT
1070
     0
1002
}
1002
{
1000
NOSEL
1070
     0
1002
}
1002
{
1000
BEHIND
1070
     0
1002
}
1002
{
1000
REACTOR
1002
}
1001
GENIUS_GENOBJ-N-FIL_13
1002
{
1000
OWNER
1000
GEN
1002
}
  0
ARC
  5
6D
  8
0
  6
CONTINUOUS
 62
     7
 10
145.22952762188581
 20
111.4885888957638
 30
0.0
 40
0.1
 50
90.000000000000185
 51
180.00000000000011
1001
GENIUS_GENODEF_13
1002
{
1000
HIER
1070
     0
1002
}
1002
{
1000
MANEDIT
1070
     0
1002
}
1002
{
1000
NOSEL
1070
     0
1002
}
1002
{
1000
BEHIND
1070
     0
1002
}
1002
{
1000
REACTOR
1002
}
1001
GENIUS_GENOBJ-N-FIL_13
1002
{
1000
OWNER
1000
GEN
1002
}
  0
ARC
  5
6E
  8
0
  6
CONTINUOUS
 62
     7
 10
145.2795276218859
 20
111.4885888957638
 30
0.0
 40
0.1
 50
0.0000000000001809
 51
90.000000000000185
1001
GENIUS_GENODEF_13
1002
{
1000
HIER
1070
     0
1002
}
1002
{
1000
MANEDIT
1070
     0
1002
}
1002
{
1000
NOSEL
1070
     0
1002
}
1002
{
1000
BEHIND
1070
     0
1002
}
1002
{
1000
REACTOR
1002
}
1001
GENIUS_GENOBJ-N-FIL_13
1002
{
1000
OWNER
1000
GEN
1002
}
  0
LINE
  5
6F
  8
0
  6
CONTINUOUS
 62
     7
 10
143.12952762188581
 20
111.53858889576109
 30
0.0
 11
143.82346160470479
 21
110.84465491294191
 31
0.0
  0
ARC
  5
70
  8
0
  6
CONTINUOUS
 62
     7
 10
143.92952762188281
 20
110.9507209301199
 30
0.0
 40
0.15
 50
224.9999999999925
 51
0.0000000000001809
1001
GENIUS_GENODEF_13
1002
{
1000
HIER
1070
     0
1002
}
1002
{
1000
MANEDIT
1070
     0
1002
}
1002
{
1000
NOSEL
1070
     0
1002
}
1002
{
1000
BEHIND
1070
     0
1002
}
1002
{
1000
REACTOR
1002
}
1001
GENIUS_GENOBJ-N-FIL_13
1002
{
1000
OWNER
1000
GEN
1002
}
  0
ARC
  5
71
  8
0
  6
CONTINUOUS
 62
     7
 10
143.4287702374269
 20
109.3393462802306
 30
0.0
 40
0.3
 50
179.99999999999969
 51
270.0
1001
GENIUS_GENODEF_13
1002
{
1000
HIER
1070
     0
1002
}
1002
{
1000
MANEDIT
1070
     0
1002
}
1002
{
1000
NOSEL
1070
     0
1002
}
1002
{
1000
BEHIND
1070
     0
1002
}
1002
{
1000
REACTOR
1002
}
1001
GENIUS_GENOBJ-N-FIL_13
1002
{
1000
OWNER
1000
GEN
1002
}
  0
LINE
  5
72
  8
0
 10
144.6325845955966
 20
115.1722938053647
 30
0.0
 11
144.6325845955966
 21
114.33858889573941
 31
0.0
  0
ARC
  5
73
  8
0
  6
CONTINUOUS
 62
     7
 10
143.4295276218858
 20
112.2393462802316
 30
0.0
 40
0.3
 50
89.998251302187995
 51
180.00000000000091
1001
GENIUS_GENODEF_13
1002
{
1000
HIER
1070
     0
1002
}
1002
{
1000
MANEDIT
1070
     0
1002
}
1002
{
1000
NOSEL
1070
     0
1002
}
1002
{
1000
BEHIND
1070
     0
1002
}
1002
{
1000
REACTOR
1002
}
1001
GENIUS_GENOBJ-N-FIL_13
1002
{
1000
OWNER
1000
GEN
1002
}
  0
LINE
  5
74
  8
0
  6
CONTINUOUS
 62
     7
 10
155.12952762188581
 20
112.2393462802312
 30
0.0
 11
155.1295276218857
 21
109.3393462802311
 31
0.0
  0
LINE
  5
75
  8
0
  6
CONTINUOUS
 62
     7
 10
147.22952762189209
 20
111.538588895755
 30
0.0
 11
151.03028500639769
 21
111.5385888957548
 31
0.0
  0
ARC
  5
76
  8
0
  6
CONTINUOUS
 62
     7
 10
149.82952762191559
 20
107.23934628023019
 30
0.0
 40
0.3
 50
359.99999999999972
 51
90.0
1001
GENIUS_GENODEF_13
1002
{
1000
HIER
1070
     0
1002
}
1002
{
1000
MANEDIT
1070
     0
1002
}
1002
{
1000
NOSEL
1070
     0
1002
}
1002
{
1000
BEHIND
1070
     0
1002
}
1002
{
1000
REACTOR
1002
}
1001
GENIUS_GENOBJ-N-FIL_13
1002
{
1000
OWNER
1000
GEN
1002
}
  0
LINE
  5
77
  8
0
  6
CONTINUOUS
 62
     7
 10
149.82952762191559
 20
107.5393462802304
 30
0.0
 11
147.4295276219751
 21
107.5393462802304
 31
0.0
  0
ARC
  5
78
  8
0
  6
CONTINUOUS
 62
     7
 10
146.02952762188889
 20
110.9507209301198
 30
0.0
 40
0.15
 50
225.00000000000011
 51
0.0000000000001809
1001
GENIUS_GENODEF_13
1002
{
1000
HIER
1070
     0
1002
}
1002
{
1000
MANEDIT
1070
     0
1002
}
1002
{
1000
NOSEL
1070
     0
1002
}
1002
{
1000
BEHIND
1070
     0
1002
}
1002
{
1000
REACTOR
1002
}
1001
GENIUS_GENOBJ-N-FIL_13
1002
{
1000
OWNER
1000
GEN
1002
}
  0
ARC
  5
79
  8
0
  6
CONTINUOUS
 62
     7
 10
147.07952762189211
 20
110.9507209301198
 30
0.0
 40
0.15
 50
224.99999999999079
 51
0.0000000000001809
1001
GENIUS_GENODEF_13
1002
{
1000
HIER
1070
     0
1002
}
1002
{
1000
MANEDIT
1070
     0
1002
}
1002
{
1000
NOSEL
1070
     0
1002
}
1002
{
1000
BEHIND
1070
     0
1002
}
1002
{
1000
REACTOR
1002
}
1001
GENIUS_GENOBJ-N-FIL_13
1002
{
1000
OWNER
1000
GEN
1002
}
  0
LINE
  5
7A
  8
0
  6
CONTINUOUS
 62
     7
 10
146.279527621889
 20
111.58858889576381
 30
0.0
 11
146.3295276218889
 21
111.58858889576381
 31
0.0
  0
LINE
  5
7B
  8
0
  6
CONTINUOUS
 62
     7
 10
146.42952762188889
 20
111.3885888957672
 30
0.0
 11
146.42952762188889
 21
111.4885888957638
 31
0.0
  0
LINE
  5
7C
  8
0
  6
CONTINUOUS
 62
     7
 10
146.42952762188889
 20
111.3885888957672
 30
0.0
 11
146.97346160471409
 21
110.84465491294191
 31
0.0
  0
LINE
  5
7D
  8
0
  6
CONTINUOUS
 62
     7
 10
146.17952762188889
 20
110.9507209301198
 30
0.0
 11
146.17952762188889
 21
111.4885888957638
 31
0.0
  0
ARC
  5
7E
  8
0
  6
CONTINUOUS
 62
     7
 10
146.3295276218889
 20
111.4885888957638
 30
0.0
 40
0.1
 50
0.0000000000001809
 51
90.000000000000185
1001
GENIUS_GENODEF_13
1002
{
1000
HIER
1070
     0
1002
}
1002
{
1000
MANEDIT
1070
     0
1002
}
1002
{
1000
NOSEL
1070
     0
1002
}
1002
{
1000
BEHIND
1070
     0
1002
}
1002
{
1000
REACTOR
1002
}
1001
GENIUS_GENOBJ-N-FIL_13
1002
{
1000
OWNER
1000
GEN
1002
}
  0
ARC
  5
7F
  8
0
  6
CONTINUOUS
 62
     7
 10
146.279527621889
 20
111.4885888957638
 30
0.0
 40
0.1
 50
90.000000000000185
 51
180.00000000000011
1001
GENIUS_GENODEF_13
1002
{
1000
HIER
1070
     0
1002
}
1002
{
1000
MANEDIT
1070
     0
1002
}
1002
{
1000
NOSEL
1070
     0
1002
}
1002
{
1000
BEHIND
1070
     0
1002
}
1002
{
1000
REACTOR
1002
}
1001
GENIUS_GENOBJ-N-FIL_13
1002
{
1000
OWNER
1000
GEN
1002
}
  0
LINE
  5
80
  8
0
  6
CONTINUOUS
 62
     7
 10
147.22952762189209
 20
110.9507209301198
 30
0.0
 11
147.22952762189209
 21
111.53858889575589
 31
0.0
  0
ARC
  5
81
  8
0
  6
CONTINUOUS
 62
     7
 10
147.4295276219751
 20
107.23934628023019
 30
0.0
 40
0.3
 50
90.0
 51
180.0000000000004
1001
GENIUS_GENODEF_13
1002
{
1000
HIER
1070
     0
1002
}
1002
{
1000
MANEDIT
1070
     0
1002
}
1002
{
1000
NOSEL
1070
     0
1002
}
1002
{
1000
BEHIND
1070
     0
1002
}
1002
{
1000
REACTOR
1002
}
1001
GENIUS_GENOBJ-N-FIL_13
1002
{
1000
OWNER
1000
GEN
1002
}
  0
ARC
  5
82
  8
0
  6
CONTINUOUS
 62
     7
 10
153.280285006404
 20
110.9507209301198
 30
0.0
 40
0.15
 50
179.99999999999591
 51
315.00000000000932
1001
GENIUS_GENODEF_13
1002
{
1000
HIER
1070
     0
1002
}
1002
{
1000
MANEDIT
1070
     0
1002
}
1002
{
1000
NOSEL
1070
     0
1002
}
1002
{
1000
BEHIND
1070
     0
1002
}
1002
{
1000
REACTOR
1002
}
1001
GENIUS_GENOBJ-N-FIL_13
1002
{
1000
OWNER
1000
GEN
1002
}
  0
LINE
  5
83
  8
0
  6
CONTINUOUS
 62
     7
 10
153.9302850064071
 20
111.3885888957673
 30
0.0
 11
153.38635102358199
 21
110.84465491294191
 31
0.0
  0
LINE
  5
84
  8
0
  6
CONTINUOUS
 62
     7
 10
154.1802850064071
 20
110.9507209301199
 30
0.0
 11
154.1802850064071
 21
111.4885888957639
 31
0.0
  0
LINE
  5
85
  8
0
  6
CONTINUOUS
 62
     7
 10
153.9302850064071
 20
111.3885888957673
 30
0.0
 11
153.9302850064071
 21
111.4885888957639
 31
0.0
  0
LINE
  5
86
  8
0
  6
CONTINUOUS
 62
     7
 10
154.080285006407
 20
111.58858889576391
 30
0.0
 11
154.0302850064071
 21
111.58858889576391
 31
0.0
  0
LINE
  5
87
  8
0
  6
CONTINUOUS
 62
     7
 10
153.13028500640399
 20
110.9507209301198
 30
0.0
 11
153.13028500640399
 21
111.4885888957637
 31
0.0
  0
LINE
  5
88
  8
0
  6
CONTINUOUS
 62
     7
 10
152.88028500640399
 20
111.3885888957671
 30
0.0
 11
152.88028500640399
 21
111.4885888957637
 31
0.0
  0
LINE
  5
89
  8
0
  6
CONTINUOUS
 62
     7
 10
153.030285006404
 20
111.58858889576381
 30
0.0
 11
152.9802850064039
 21
111.58858889576381
 31
0.0
  0
ARC
  5
8A
  8
0
  6
CONTINUOUS
 62
     7
 10
154.080285006407
 20
111.4885888957639
 30
0.0
 40
0.1
 50
0.0
 51
90.0
1001
GENIUS_GENODEF_13
1002
{
1000
HIER
1070
     0
1002
}
1002
{
1000
MANEDIT
1070
     0
1002
}
1002
{
1000
NOSEL
1070
     0
1002
}
1002
{
1000
BEHIND
1070
     0
1002
}
1002
{
1000
REACTOR
1002
}
1001
GENIUS_GENOBJ-N-FIL_13
1002
{
1000
OWNER
1000
GEN
1002
}
  0
ARC
  5
8B
  8
0
  6
CONTINUOUS
 62
     7
 10
154.0302850064071
 20
111.4885888957639
 30
0.0
 40
0.1
 50
90.0
 51
180.0
1001
GENIUS_GENODEF_13
1002
{
1000
HIER
1070
     0
1002
}
1002
{
1000
MANEDIT
1070
     0
1002
}
1002
{
1000
NOSEL
1070
     0
1002
}
1002
{
1000
BEHIND
1070
     0
1002
}
1002
{
1000
REACTOR
1002
}
1001
GENIUS_GENOBJ-N-FIL_13
1002
{
1000
OWNER
1000
GEN
1002
}
  0
ARC
  5
8C
  8
0
  6
CONTINUOUS
 62
     7
 10
153.030285006404
 20
111.4885888957637
 30
0.0
 40
0.1
 50
0.0
 51
90.0
1001
GENIUS_GENODEF_13
1002
{
1000
HIER
1070
     0
1002
}
1002
{
1000
MANEDIT
1070
     0
1002
}
1002
{
1000
NOSEL
1070
     0
1002
}
1002
{
1000
BEHIND
1070
     0
1002
}
1002
{
1000
REACTOR
1002
}
1001
GENIUS_GENOBJ-N-FIL_13
1002
{
1000
OWNER
1000
GEN
1002
}
  0
ARC
  5
8D
  8
0
  6
CONTINUOUS
 62
     7
 10
152.9802850064039
 20
111.4885888957637
 30
0.0
 40
0.1
 50
90.0
 51
180.0
1001
GENIUS_GENODEF_13
1002
{
1000
HIER
1070
     0
1002
}
1002
{
1000
MANEDIT
1070
     0
1002
}
1002
{
1000
NOSEL
1070
     0
1002
}
1002
{
1000
BEHIND
1070
     0
1002
}
1002
{
1000
REACTOR
1002
}
1001
GENIUS_GENOBJ-N-FIL_13
1002
{
1000
OWNER
1000
GEN
1002
}
  0
LINE
  5
8E
  8
0
  6
CONTINUOUS
 62
     7
 10
155.13028500640399
 20
111.53858889576109
 30
0.0
 11
154.4363510235851
 21
110.84465491294191
 31
0.0
  0
ARC
  5
8F
  8
0
  6
CONTINUOUS
 62
     7
 10
154.330285006407
 20
110.9507209301199
 30
0.0
 40
0.15
 50
180.0
 51
315.00000000000767
1001
GENIUS_GENODEF_13
1002
{
1000
HIER
1070
     0
1002
}
1002
{
1000
MANEDIT
1070
     0
1002
}
1002
{
1000
NOSEL
1070
     0
1002
}
1002
{
1000
BEHIND
1070
     0
1002
}
1002
{
1000
REACTOR
1002
}
1001
GENIUS_GENOBJ-N-FIL_13
1002
{
1000
OWNER
1000
GEN
1002
}
  0
LINE
  5
90
  8
0
  6
CONTINUOUS
 62
     7
 10
152.88028500640399
 20
111.3885888957671
 30
0.0
 11
152.3363510235788
 21
110.84465491294181
 31
0.0
  0
ARC
  5
91
  8
0
  6
CONTINUOUS
 62
     7
 10
151.1802850063977
 20
110.9507209301198
 30
0.0
 40
0.15
 50
180.0
 51
315.00000000000932
1001
GENIUS_GENODEF_13
1002
{
1000
HIER
1070
     0
1002
}
1002
{
1000
MANEDIT
1070
     0
1002
}
1002
{
1000
NOSEL
1070
     0
1002
}
1002
{
1000
BEHIND
1070
     0
1002
}
1002
{
1000
REACTOR
1002
}
1001
GENIUS_GENOBJ-N-FIL_13
1002
{
1000
OWNER
1000
GEN
1002
}
  0
LINE
  5
92
  8
0
  6
CONTINUOUS
 62
     7
 10
151.03028500639769
 20
110.9507209301198
 30
0.0
 11
151.03028500639769
 21
111.53858889575579
 31
0.0
  0
LINE
  5
93
  8
0
  6
CONTINUOUS
 62
     7
 10
151.98028500640089
 20
111.58858889576381
 30
0.0
 11
151.93028500640091
 21
111.58858889576381
 31
0.0
  0
LINE
  5
94
  8
0
  6
CONTINUOUS
 62
     7
 10
151.83028500640091
 20
111.3885888957671
 30
0.0
 11
151.83028500640091
 21
111.4885888957637
 31
0.0
  0
LINE
  5
95
  8
0
  6
CONTINUOUS
 62
     7
 10
151.83028500640091
 20
111.3885888957671
 30
0.0
 11
151.28635102357569
 21
110.84465491294191
 31
0.0
  0
LINE
  5
96
  8
0
  6
CONTINUOUS
 62
     7
 10
152.08028500640091
 20
110.9507209301198
 30
0.0
 11
152.08028500640091
 21
111.4885888957637
 31
0.0
  0
ARC
  5
97
  8
0
  6
CONTINUOUS
 62
     7
 10
151.93028500640091
 20
111.4885888957637
 30
0.0
 40
0.1
 50
90.0
 51
180.0
1001
GENIUS_GENODEF_13
1002
{
1000
HIER
1070
     0
1002
}
1002
{
1000
MANEDIT
1070
     0
1002
}
1002
{
1000
NOSEL
1070
     0
1002
}
1002
{
1000
BEHIND
1070
     0
1002
}
1002
{
1000
REACTOR
1002
}
1001
GENIUS_GENOBJ-N-FIL_13
1002
{
1000
OWNER
1000
GEN
1002
}
  0
ARC
  5
98
  8
0
  6
CONTINUOUS
 62
     7
 10
151.98028500640089
 20
111.4885888957637
 30
0.0
 40
0.1
 50
0.0
 51
90.0
1001
GENIUS_GENODEF_13
1002
{
1000
HIER
1070
     0
1002
}
1002
{
1000
MANEDIT
1070
     0
1002
}
1002
{
1000
NOSEL
1070
     0
1002
}
1002
{
1000
BEHIND
1070
     0
1002
}
1002
{
1000
REACTOR
1002
}
1001
GENIUS_GENOBJ-N-FIL_13
1002
{
1000
OWNER
1000
GEN
1002
}
  0
ARC
  5
99
  8
0
  6
CONTINUOUS
 62
     7
 10
152.23028500640089
 20
110.9507209301198
 30
0.0
 40
0.15
 50
180.0
 51
315.0
1001
GENIUS_GENODEF_13
1002
{
1000
HIER
1070
     0
1002
}
1002
{
1000
MANEDIT
1070
     0
1002
}
1002
{
1000
NOSEL
1070
     0
1002
}
1002
{
1000
BEHIND
1070
     0
1002
}
1002
{
1000
REACTOR
1002
}
1001
GENIUS_GENOBJ-N-FIL_13
1002
{
1000
OWNER
1000
GEN
1002
}
  0
ARC
  5
9A
  8
0
  6
CONTINUOUS
 62
     7
 10
154.8295276218856
 20
109.3393462802311
 30
0.0
 40
0.3
 50
270.00000000000301
 51
359.99999999999687
1001
GENIUS_GENODEF_13
1002
{
1000
HIER
1070
     0
1002
}
1002
{
1000
MANEDIT
1070
     0
1002
}
1002
{
1000
NOSEL
1070
     0
1002
}
1002
{
1000
BEHIND
1070
     0
1002
}
1002
{
1000
REACTOR
1002
}
1001
GENIUS_GENOBJ-N-FIL_13
1002
{
1000
OWNER
1000
GEN
1002
}
  0
ARC
  5
9B
  8
0
 10
145.62952762197031
 20
114.86434628023
 30
0.0
 40
0.7249999999976869
 50
313.60281897266941
 51
313.60281897287769
  0
LINE
  5
9C
  8
0
 10
147.1295276219445
 20
112.5393462802311
 30
0.0
 11
147.1295276219447
 21
114.33858889573941
 31
0.0
  0
LINE
  5
9D
  8
0
 10
154.6295276219478
 20
115.1722938053648
 30
0.0
 11
154.6295276219478
 21
114.33858889573941
 31
0.0
  0
LINE
  5
9E
  8
0
 10
152.1295276219447
 20
114.33858889573941
 30
0.0
 11
152.1295276219447
 21
112.5393462802311
 31
0.0
  0
ARC
  5
9F
  8
0
  6
CONTINUOUS
 62
     7
 10
154.8295276218858
 20
112.2393462802312
 30
0.0
 40
0.3
 50
359.99999999999909
 51
90.001748697812005
1001
GENIUS_GENODEF_13
1002
{
1000
HIER
1070
     0
1002
}
1002
{
1000
MANEDIT
1070
     0
1002
}
1002
{
1000
NOSEL
1070
     0
1002
}
1002
{
1000
BEHIND
1070
     0
1002
}
1002
{
1000
REACTOR
1002
}
1001
GENIUS_GENOBJ-N-FIL_13
1002
{
1000
OWNER
1000
GEN
1002
}
  0
ARC
  5
A0
  8
0
  6
CONTINUOUS
 62
     7
 10
152.8795276219447
 20
113.2893462802311
 30
0.0
 40
0.75
 50
269.99990416076639
 51
270.0
  0
ARC
  5
A1
  8
0
  6
CONTINUOUS
 62
     7
 10
152.8795276219447
 20
113.2893462802311
 30
0.0
 40
0.75
 50
269.99990416076639
 51
270.0
  0
LINE
  5
A2
  8
0
 10
147.1295276219447
 20
118.0393462802521
 30
0.0
 11
152.1295276219447
 21
118.0393462802521
 31
0.0
  0
LINE
  5
A3
  8
0
  6
CONTINUOUS
 62
     7
 10
237.41216614151611
 20
110.5393462802504
 30
0.0
 11
234.412166141515
 21
110.53934628024911
 31
0.0
  0
LINE
  5
A4
  8
0
  6
CONTINUOUS
 62
     7
 10
246.4121661415154
 20
111.53934628024911
 30
0.0
 11
234.41216614151509
 21
111.53934628024911
 31
0.0
  0
LINE
  5
A5
  8
0
  6
CONTINUOUS
 62
     7
 10
234.9121661415148
 20
100.5393462802537
 30
0.0
 11
245.9121661415154
 21
100.5393462802537
 31
0.0
  0
LINE
  5
A6
  8
0
  6
CONTINUOUS
 62
     7
 10
232.9121661415154
 20
111.9393462802487
 30
0.0
 11
232.9121661415148
 21
102.5393462802536
 31
0.0
  0
ARC
  5
A7
  8
0
  6
CONTINUOUS
 62
     7
 10
234.91216614151469
 20
102.5393462802535
 30
0.0
 40
1.9999999999999429
 50
179.9999999999979
 51
270.00000000000171
  0
LINE
  5
A8
  8
0
  6
CONTINUOUS
 62
     7
 10
234.412166141515
 20
110.53934628024911
 30
0.0
 11
234.4121661415152
 21
112.53934628024911
 31
0.0
  0
ARC
  5
A9
  8
0
  6
CONTINUOUS
 62
     7
 10
233.51216614151539
 20
111.9393462802487
 30
0.0
 40
0.6
 50
90.000000000025523
 51
179.99999999999599
  0
LINE
  5
AA
  8
0
  6
CONTINUOUS
 62
     7
 10
234.4121661415152
 20
112.53934628024911
 30
0.0
 11
233.51216614151511
 21
112.53934628024869
 31
0.0
  0
LINE
  5
AB
  8
0
  6
CONTINUOUS
 62
     7
 10
243.41216614151531
 20
111.53934628024911
 30
0.0
 11
243.4121661415144
 21
100.5393462802536
 31
0.0
  0
LINE
  5
AC
  8
0
  6
CONTINUOUS
 62
     7
 10
237.4121661415144
 20
100.5393462802536
 30
0.0
 11
237.4121661415152
 21
111.53934628024911
 31
0.0
  0
LINE
  5
AD
  8
0
  6
CONTINUOUS
 62
     7
 10
247.91216614151531
 20
102.5393462802536
 30
0.0
 11
247.91216614151509
 21
111.9393462802491
 31
0.0
  0
LINE
  5
AE
  8
1
  6
CENTER
 62
     1
 10
240.4121661415152
 20
97.539346280253696
 30
0.0
 11
240.4121661415152
 21
115.5393462802504
 31
0.0
  0
ARC
  5
AF
  8
0
  6
CONTINUOUS
 62
     7
 10
245.9121661415154
 20
102.5393462802535
 30
0.0
 40
1.9999999999999281
 50
270.0
 51
0.0000000000020356
  0
LINE
  5
B0
  8
0
  6
CONTINUOUS
 62
     7
 10
246.4121661415152
 20
110.53934628024911
 30
0.0
 11
243.4121661415154
 21
110.53934628024911
 31
0.0
  0
LINE
  5
B1
  8
0
  6
CONTINUOUS
 62
     7
 10
237.41216614151551
 20
111.49792492402401
 30
0.0
 11
237.41216614151551
 21
111.2393462802503
 31
0.0
  0
LINE
  5
B2
  8
0
  6
CONTINUOUS
 62
     7
 10
243.4121661415154
 20
111.49792492402401
 30
0.0
 11
243.4121661415154
 21
111.2393462802503
 31
0.0
  0
LINE
  5
B3
  8
0
  6
CONTINUOUS
 62
     7
 10
246.4121661415154
 20
112.53934628024911
 30
0.0
 11
246.4121661415152
 21
110.53934628024911
 31
0.0
  0
ARC
  5
B4
  8
0
  6
CONTINUOUS
 62
     7
 10
247.31216614151501
 20
111.9393462802491
 30
0.0
 40
0.6
 50
0.0000000000016284
 51
90.0
  0
LINE
  5
B5
  8
0
  6
CONTINUOUS
 62
     7
 10
247.31216614151501
 20
112.53934628024911
 30
0.0
 11
246.4121661415154
 21
112.53934628024911
 31
0.0
  0
ARC
  5
B6
  8
0
 10
95.629527621885757
 20
164.539346280312
 30
0.0
 40
5.000000000002359
 50
60.000000000015589
 51
119.9999999999832
  0
ARC
  5
B7
  8
0
 10
95.629527621885757
 20
164.539346280312
 30
0.0
 40
5.000000000002359
 50
240.00000000001631
 51
299.99999999998442
  0
LINE
  5
B8
  8
1
  6
CENTER
 62
     1
 10
90.129527621885842
 20
164.539346280312
 30
0.0
 11
101.1295276218857
 21
164.539346280312
 31
0.0
  0
LINE
  5
B9
  8
0
  6
CONTINUOUS
 62
     7
 10
101.6295276218859
 20
170.04010366477061
 30
0.0
 11
89.629527621885615
 21
170.04010366477061
 31
0.0
  0
ARC
  5
BA
  8
0
  6
CONTINUOUS
 62
     7
 10
95.629527621885757
 20
164.539346280312
 30
0.0
 40
3.0887301627965931
 50
35.963223536923238
 51
144.03677646307429
  0
LINE
  5
BB
  8
0
  6
CONTINUOUS
 62
     7
 10
101.6295276218859
 20
158.0393462802524
 30
0.0
 11
89.629527621885586
 21
158.0393462802524
 31
0.0
  0
ARC
  5
BC
  8
0
  6
CONTINUOUS
 62
     7
 10
95.629527621885757
 20
164.539346280312
 30
0.0
 40
3.0887301627965931
 50
215.96322353692511
 51
324.03677646307682
  0
ARC
  5
BD
  8
0
  6
CONTINUOUS
 62
     7
 10
88.429527621885768
 20
160.83934628031179
 30
0.0
 40
0.3
 50
180.0
 51
270.0
  0
LINE
  5
BE
  8
1
  6
CENTER
 62
     1
 10
95.629527621885757
 20
173.539346280312
 30
0.0
 11
95.629527621885757
 21
155.539346280312
 31
0.0
  0
LINE
  5
BF
  8
0
  6
CONTINUOUS
 62
     7
 10
89.629527621885543
 20
158.0393462802524
 30
0.0
 11
89.629527621885615
 21
170.04010366477061
 31
0.0
  0
LINE
  5
C0
  8
0
  6
CONTINUOUS
 62
     7
 10
93.129527621885813
 20
160.20921926138709
 30
0.0
 11
93.129527621885856
 21
168.869473299237
 31
0.0
  0
LINE
  5
C1
  8
0
  6
CONTINUOUS
 62
     7
 10
89.629527621885586
 20
160.5393462803118
 30
0.0
 11
88.429527621885768
 21
160.5393462803118
 31
0.0
  0
LINE
  5
C2
  8
0
  6
CONTINUOUS
 62
     7
 10
88.129527621885757
 20
160.83934628031179
 30
0.0
 11
88.129527621885757
 21
166.23934628025231
 31
0.0
  0
ARC
  5
C3
  8
0
  6
CONTINUOUS
 62
     7
 10
88.429527621885725
 20
166.23934628025231
 30
0.0
 40
0.3
 50
89.999999999998877
 51
180.0
  0
LINE
  5
C4
  8
0
  6
CONTINUOUS
 62
     7
 10
89.629527621885586
 20
166.5393462802522
 30
0.0
 11
88.429527621885725
 21
166.53934628025229
 31
0.0
  0
ARC
  5
C5
  8
0
  6
CONTINUOUS
 62
     7
 10
102.8295276218857
 20
160.83934628031179
 30
0.0
 40
0.3
 50
270.0
 51
359.99999999999972
  0
LINE
  5
C6
  8
0
  6
CONTINUOUS
 62
     7
 10
101.6295276218859
 20
158.0393462802524
 30
0.0
 11
101.6295276218859
 21
170.04010366477061
 31
0.0
  0
LINE
  5
C7
  8
0
  6
CONTINUOUS
 62
     7
 10
98.129527621885757
 20
160.20921926138709
 30
0.0
 11
98.129527621885757
 21
168.869473299237
 31
0.0
  0
LINE
  5
C8
  8
0
  6
CONTINUOUS
 62
     7
 10
102.8295276218857
 20
160.5393462803118
 30
0.0
 11
101.6295276218859
 21
160.5393462803118
 31
0.0
  0
LINE
  5
C9
  8
0
  6
CONTINUOUS
 62
     7
 10
103.1295276218857
 20
160.83934628031179
 30
0.0
 11
103.1295276218857
 21
166.23934628025231
 31
0.0
  0
LINE
  5
CA
  8
0
  6
CONTINUOUS
 62
     7
 10
102.8295276218857
 20
166.53934628025229
 30
0.0
 11
101.6295276218859
 21
166.5393462802522
 31
0.0
  0
ARC
  5
CB
  8
0
  6
CONTINUOUS
 62
     7
 10
102.8295276218857
 20
166.23934628025231
 30
0.0
 40
0.3
 50
359.99999999999972
 51
90.000000000001108
  0
ARC
  5
CC
  8
0
  6
CONTINUOUS
 62
     7
 10
241.21206935462729
 20
159.53934628024911
 30
0.0
 40
2.0
 50
0.0
 51
90.0
  0
LINE
  5
CD
  8
0
  6
CONTINUOUS
 62
     7
 10
247.71206935462729
 20
152.53934628024911
 30
0.0
 11
247.71206935462729
 21
162.53934628024911
 31
0.0
  0
LINE
  5
CE
  8
0
  6
CONTINUOUS
 62
     7
 10
246.21206935462729
 20
152.53934628024911
 30
0.0
 11
246.21206935462729
 21
163.53934628024911
 31
0.0
  0
LINE
  5
CF
  8
1
  6
CENTER
 62
     1
 10
240.21206935462729
 20
149.53934628024911
 30
0.0
 11
240.21206935462729
 21
166.53934628024911
 31
0.0
  0
LINE
  5
D0
  8
0
  6
CONTINUOUS
 62
     7
 10
234.21206935462729
 20
152.53934628024911
 30
0.0
 11
234.21206935462729
 21
163.53934628024911
 31
0.0
  0
LINE
  5
D1
  8
0
  6
CONTINUOUS
 62
     7
 10
232.71206935462729
 20
152.53934628024911
 30
0.0
 11
232.71206935462729
 21
162.53934628024911
 31
0.0
  0
ARC
  5
D2
  8
0
  6
CONTINUOUS
 62
     7
 10
239.21206935462729
 20
159.53934628024911
 30
0.0
 40
2.0
 50
90.0
 51
179.99999999999989
  0
LINE
  5
D3
  8
0
  6
CONTINUOUS
 62
     7
 10
234.21206935462729
 20
160.53934628024919
 30
0.0
 11
237.48001854705711
 21
160.53934628024919
 31
0.0
  0
LINE
  5
D4
  8
0
  6
CONTINUOUS
 62
     7
 10
234.21206935462729
 20
159.53934628024919
 30
0.0
 11
237.21206935462729
 21
159.53934628024919
 31
0.0
  0
LINE
  5
D5
  8
0
  6
CONTINUOUS
 62
     7
 10
234.21206935462729
 20
158.53934628024919
 30
0.0
 11
237.21206935462729
 21
158.53934628024919
 31
0.0
  0
LINE
  5
D6
  8
0
  6
CONTINUOUS
 62
     7
 10
234.21206935462729
 20
157.53934628024919
 30
0.0
 11
237.21206935462729
 21
157.53934628024919
 31
0.0
  0
LINE
  5
D7
  8
0
  6
CONTINUOUS
 62
     7
 10
234.21206935462729
 20
155.53934628024919
 30
0.0
 11
237.21206935462729
 21
155.53934628024919
 31
0.0
  0
LINE
  5
D8
  8
0
  6
CONTINUOUS
 62
     7
 10
234.21206935462729
 20
156.53934628024919
 30
0.0
 11
237.21206935462729
 21
156.53934628024919
 31
0.0
  0
LINE
  5
D9
  8
0
  6
CONTINUOUS
 62
     7
 10
237.21206935462729
 20
152.53934628024911
 30
0.0
 11
232.71206935462729
 21
152.53934628024911
 31
0.0
  0
LINE
  5
DA
  8
0
  6
CONTINUOUS
 62
     7
 10
246.21206935462729
 20
160.53934628024919
 30
0.0
 11
242.94412016219519
 21
160.53934628024919
 31
0.0
  0
LINE
  5
DB
  8
0
  6
CONTINUOUS
 62
     7
 10
246.21206935462729
 20
159.53934628024919
 30
0.0
 11
243.21206935462729
 21
159.53934628024919
 31
0.0
  0
LINE
  5
DC
  8
0
  6
CONTINUOUS
 62
     7
 10
246.21206935462729
 20
158.53934628024919
 30
0.0
 11
243.21206935462729
 21
158.53934628024919
 31
0.0
  0
LINE
  5
DD
  8
0
  6
CONTINUOUS
 62
     7
 10
246.21206935462729
 20
157.53934628024919
 30
0.0
 11
243.21206935462729
 21
157.53934628024919
 31
0.0
  0
LINE
  5
DE
  8
0
  6
CONTINUOUS
 62
     7
 10
246.21206935462729
 20
156.53934628024919
 30
0.0
 11
243.21206935462729
 21
156.53934628024919
 31
0.0
  0
LINE
  5
DF
  8
0
  6
CONTINUOUS
 62
     7
 10
246.21206935462729
 20
155.53934628024919
 30
0.0
 11
243.21206935462729
 21
155.53934628024919
 31
0.0
  0
LINE
  5
E0
  8
0
  6
CONTINUOUS
 62
     7
 10
247.71206935462729
 20
152.53934628024911
 30
0.0
 11
243.21206935462729
 21
152.53934628024911
 31
0.0
  0
LINE
  5
E1
  8
0
  6
CONTINUOUS
 62
     7
 10
243.21206935462729
 20
152.53934628024911
 30
0.0
 11
243.21206935462729
 21
159.53934628024911
 31
0.0
  0
LINE
  5
E2
  8
0
  6
CONTINUOUS
 62
     7
 10
237.21206935462729
 20
152.53934628024911
 30
0.0
 11
237.21206935462729
 21
159.53934628024911
 31
0.0
  0
LINE
  5
E3
  8
0
  6
CONTINUOUS
 62
     7
 10
246.71206935462729
 20
163.53934628024911
 30
0.0
 11
233.71206935462729
 21
163.53934628024911
 31
0.0
  0
ARC
  5
E4
  8
0
  6
CONTINUOUS
 62
     7
 10
233.71206935462729
 20
162.53934628024911
 30
0.0
 40
1.0
 50
90.0
 51
179.99999999999989
  0
LINE
  5
E5
  8
0
  6
CONTINUOUS
 62
     7
 10
241.21206935462729
 20
161.53934628024911
 30
0.0
 11
239.21206935462729
 21
161.53934628024911
 31
0.0
  0
ARC
  5
E6
  8
0
  6
CONTINUOUS
 62
     7
 10
246.71206935462729
 20
162.53934628024911
 30
0.0
 40
1.0
 50
0.0
 51
90.0
  0
LINE
  5
F5
  8
0
  6
CONTINUOUS
 62
     7
 10
293.6121661414827
 20
112.5351373359244
 30
0.0
 11
297.5665807627895
 21
112.5351373359248
 31
0.0
  0
LINE
  5
F6
  8
0
  6
CONTINUOUS
 62
     7
 10
295.44963762383998
 20
109.83513733592891
 30
0.0
 11
293.01772953681171
 21
109.8351373359291
 31
0.0
  0
LINE
  5
F7
  8
0
  6
CONTINUOUS
 62
     7
 10
289.56486978618142
 20
111.8214897895618
 30
0.0
 11
293.6121661414827
 21
112.5351373359244
 31
0.0
  0
ARC
  5
F8
  8
0
  6
CONTINUOUS
 62
     7
 10
289.91216614151517
 20
109.8518742835373
 30
0.0
 40
2.0
 50
99.999999999998565
 51
179.99999999999301
  0
LINE
  5
F9
  8
0
  6
CONTINUOUS
 62
     7
 10
293.01772953681171
 20
109.8351373359291
 30
0.0
 11
288.49899023034862
 21
109.0383616774124
 31
0.0
  0
LINE
  5
FA
  8
0
  6
CONTINUOUS
 62
     7
 10
287.91216614151512
 20
109.5307655539185
 30
0.0
 11
287.91216614151512
 21
109.8518742835376
 31
0.0
  0
ARC
  5
FB
  8
0
  6
CONTINUOUS
 62
     7
 10
288.41216614151517
 20
109.5307655539186
 30
0.0
 40
0.5000000000000007
 50
180.00000000000159
 51
279.99999999999181
  0
LINE
  5
FC
  8
0
  6
CONTINUOUS
 62
     7
 10
296.17492121115089
 20
101.3677938665367
 30
0.0
 11
296.43444537685809
 21
108.661489158262
 31
0.0
  0
LINE
  5
FD
  8
0
  6
CONTINUOUS
 62
     7
 10
298.92585219065262
 20
110.90184230638179
 30
0.0
 11
298.25158546032827
 21
101.35003241299449
 31
0.0
  0
ARC
  5
FE
  8
0
  6
CONTINUOUS
 62
     7
 10
296.97441526043127
 20
101.3393462802545
 30
0.0
 40
0.7999999999999679
 50
177.96216209044249
 51
277.96216209044388
  0
ARC
  5
FF
  8
0
  6
CONTINUOUS
 62
     7
 10
297.4535712476648
 20
101.4063646097122
 30
0.0
 40
0.8000000000000259
 50
277.96216209043502
 51
355.96216209044292
  0
LINE
  5
100
  8
0
  6
CONTINUOUS
 62
     7
 10
297.56438652885259
 20
100.6140767999768
 30
0.0
 11
297.08523054161918
 21
100.5470584705192
 31
0.0
  0
ARC
  5
101
  8
0
  6
CONTINUOUS
 62
     7
 10
297.56658076278973
 20
111.2351373359248
 30
0.0
 40
1.2999999999999541
 50
7.9621620904404864
 51
90.000000000010033
  0
ARC
  5
102
  8
0
  6
CONTINUOUS
 62
     7
 10
295.44963762384288
 20
108.83513733592631
 30
0.0
 40
1.00000000000252
 50
350.00000000017411
 51
90.000000000166096
  0
LINE
  5
103
  8
0
  6
CONTINUOUS
 62
     7
 10
298.85404845360961
 20
111.4152121678552
 30
0.0
 11
298.92585219065262
 21
110.90184230638179
 31
0.0
  0
TEXT
  5
1B9
  8
0
 62
     3
 10
0.0
 20
0.0
 30
0.0
 40
10.0
  1
L5-MBC1506
  7
STANDARD1
  0
ENDSEC
  0
EOF
