  0
SECTION
  2
HEADER
  9
$ACADVER
  1
AC1009
  9
$INSBASE
 10
183.06818613189441
 20
146.88999220200799
 30
0.0
  9
$EXTMIN
 10
0.0
 20
-2.960436562073669
 30
0.0
  9
$EXTMAX
 10
316.6875405284764
 20
260.28499558208938
 30
0.0
  9
$LIMMIN
 10
0.0
 20
0.0
  9
$LIMMAX
 10
275.0
 20
175.0
  9
$ORTHOMODE
 70
     1
  9
$REGENMODE
 70
     1
  9
$FILLMODE
 70
     1
  9
$QTEXTMODE
 70
     0
  9
$MIRRTEXT
 70
     0
  9
$DRAGMODE
 70
     2
  9
$LTSCALE
 40
10.0
  9
$OSMODE
 70
  3071
  9
$ATTMODE
 70
     1
  9
$TEXTSIZE
 40
0.2
  9
$TRACEWID
 40
0.05
  9
$TEXTSTYLE
  7
STANDARD
  9
$CLAYER
  8
0
  9
$CELTYPE
  6
BYLAYER
  9
$CECOLOR
 62
   256
  9
$DIMSCALE
 40
1.0
  9
$DIMASZ
 40
3.0
  9
$DIMEXO
 40
0.0625
  9
$DIMDLI
 40
0.38
  9
$DIMRND
 40
0.0
  9
$DIMDLE
 40
0.0
  9
$DIMEXE
 40
0.18
  9
$DIMTP
 40
0.0
  9
$DIMTM
 40
0.0
  9
$DIMTXT
 40
3.0
  9
$DIMCEN
 40
0.09
  9
$DIMTSZ
 40
0.0
  9
$DIMTOL
 70
     0
  9
$DIMLIM
 70
     0
  9
$DIMTIH
 70
     1
  9
$DIMTOH
 70
     1
  9
$DIMSE1
 70
     0
  9
$DIMSE2
 70
     0
  9
$DIMTAD
 70
     0
  9
$DIMZIN
 70
     0
  9
$DIMBLK
  1

  9
$DIMASO
 70
     1
  9
$DIMSHO
 70
     1
  9
$DIMPOST
  1

  9
$DIMAPOST
  1

  9
$DIMALT
 70
     0
  9
$DIMALTD
 70
     2
  9
$DIMALTF
 40
25.399999999999999
  9
$DIMLFAC
 40
1.0
  9
$DIMTOFL
 70
     0
  9
$DIMTVP
 40
0.0
  9
$DIMTIX
 70
     0
  9
$DIMSOXD
 70
     0
  9
$DIMSAH
 70
     0
  9
$DIMBLK1
  1

  9
$DIMBLK2
  1

  9
$DIMSTYLE
  2
STANDARD
  9
$DIMCLRD
 70
     0
  9
$DIMCLRE
 70
     0
  9
$DIMCLRT
 70
     0
  9
$DIMTFAC
 40
1.0
  9
$DIMGAP
 40
0.09
  9
$LUNITS
 70
     2
  9
$LUPREC
 70
     4
  9
$SKETCHINC
 40
0.1
  9
$FILLETRAD
 40
0.0
  9
$AUNITS
 70
     0
  9
$AUPREC
 70
     0
  9
$MENU
  1
E:\r13\win\SUPPORT\ACAD
  9
$ELEVATION
 40
0.0
  9
$PELEVATION
 40
0.0
  9
$THICKNESS
 40
0.0
  9
$LIMCHECK
 70
     0
  9
$BLIPMODE
 70
     0
  9
$CHAMFERA
 40
0.0
  9
$CHAMFERB
 40
0.0
  9
$SKPOLY
 70
     0
  9
$TDCREATE
 40
2450442.5319562498
  9
$TDUPDATE
 40
2456597.5465642591
  9
$TDINDWG
 40
0.0007384144
  9
$TDUSRTIMER
 40
0.0007384144
  9
$USRTIMER
 70
     1
  9
$ANGBASE
 50
0.0
  9
$ANGDIR
 70
     0
  9
$PDMODE
 70
     0
  9
$PDSIZE
 40
0.0
  9
$PLINEWID
 40
0.0
  9
$COORDS
 70
     1
  9
$SPLFRAME
 70
     0
  9
$SPLINETYPE
 70
     6
  9
$SPLINESEGS
 70
     8
  9
$ATTDIA
 70
     0
  9
$ATTREQ
 70
     1
  9
$HANDLING
 70
     1
  9
$HANDSEED
  5
16CA2
  9
$SURFTAB1
 70
     6
  9
$SURFTAB2
 70
     6
  9
$SURFTYPE
 70
     6
  9
$SURFU
 70
     6
  9
$SURFV
 70
     6
  9
$UCSNAME
  2

  9
$UCSORG
 10
0.0
 20
0.0
 30
0.0
  9
$UCSXDIR
 10
1.0
 20
0.0
 30
0.0
  9
$UCSYDIR
 10
0.0
 20
1.0
 30
0.0
  9
$PUCSNAME
  2

  9
$PUCSORG
 10
0.0
 20
0.0
 30
0.0
  9
$PUCSXDIR
 10
1.0
 20
0.0
 30
0.0
  9
$PUCSYDIR
 10
0.0
 20
1.0
 30
0.0
  9
$USERI1
 70
     4
  9
$USERI2
 70
     1
  9
$USERI3
 70
     0
  9
$USERI4
 70
     0
  9
$USERI5
 70
     0
  9
$USERR1
 40
1.0
  9
$USERR2
 40
3.0
  9
$USERR3
 40
3.0
  9
$USERR4
 40
3.0
  9
$USERR5
 40
10.0
  9
$WORLDVIEW
 70
     1
  9
$SHADEDGE
 70
     3
  9
$SHADEDIF
 70
    70
  9
$TILEMODE
 70
     1
  9
$MAXACTVP
 70
    16
  9
$PLIMCHECK
 70
     0
  9
$PEXTMIN
 10
1.0000000000000000E+020
 20
1.0000000000000000E+020
 30
1.0000000000000000E+020
  9
$PEXTMAX
 10
-1.0000000000000000E+020
 20
-1.0000000000000000E+020
 30
-1.0000000000000000E+020
  9
$PLIMMIN
 10
0.0
 20
0.0
  9
$PLIMMAX
 10
12.0
 20
9.0
  9
$UNITMODE
 70
     0
  9
$VISRETAIN
 70
     0
  9
$PLINEGEN
 70
     0
  9
$PSLTSCALE
 70
     1
  0
ENDSEC
  0
SECTION
  2
TABLES
  0
TABLE
  2
VPORT
 70
     1
  0
VPORT
  2
*ACTIVE
 70
     0
 10
0.0
 20
0.0
 11
1.0
 21
1.0
 12
158.3437710015838
 22
156.96748902792891
 13
0.0
 23
0.0
 14
5.0
 24
5.0
 15
0.0
 25
0.0
 16
0.0
 26
0.0
 36
1.0
 17
0.0
 27
0.0
 37
0.0
 40
322.89457194351979
 41
1.9089595375722539
 42
50.0
 43
0.0
 44
0.0
 50
0.0
 51
0.0
 71
     0
 72
   100
 73
     1
 74
     0
 75
     0
 76
     0
 77
     0
 78
     2
  0
ENDTAB
  0
TABLE
  2
LTYPE
 70
     2
  0
LTYPE
  2
CONTINUOUS
 70
     0
  3
Solid Line
 72
    65
 73
     0
 40
0.0
  0
LTYPE
  2
PHANTOM2
 70
     0
  3
___ _ _ ___ _ _ ___ _ _ ___ _ _
 72
    65
 73
     6
 40
1.25
 49
0.625
 49
-0.125
 49
0.125
 49
-0.125
 49
0.125
 49
-0.125
  0
ENDTAB
  0
TABLE
  2
LAYER
 70
     1
  0
LAYER
  2
0
 70
     0
 62
     7
  6
CONTINUOUS
  0
ENDTAB
  0
TABLE
  2
STYLE
 70
     2
  0
STYLE
  2
STANDARD
 70
     0
 40
0.0
 41
1.0
 50
0.0
 71
     0
 42
0.2
  3
SIMPLEX
  4
BIGFONT
  0
STYLE
  2
STANDARD1
 70
     0
 40
0.0
 41
1.0
 50
0.0
 71
     0
 42
3.0
  3
txt
  4

  0
ENDTAB
  0
TABLE
  2
VIEW
 70
     0
  0
ENDTAB
  0
TABLE
  2
UCS
 70
     0
  0
ENDTAB
  0
TABLE
  2
APPID
 70
     5
  0
APPID
  2
ACAD
 70
     0
  0
APPID
  2
GENIUS_GENODEF_13
 70
     0
  0
APPID
  2
GENIUS_GENOBJ-N-FIL_13
 70
     0
  0
APPID
  2
ACAD_MLEADERVER
 70
     0
  0
APPID
  2
ACAD_NAV_VCDISPLAY
 70
     0
  0
ENDTAB
  0
TABLE
  2
DIMSTYLE
 70
     1
  0
DIMSTYLE
  2
STANDARD
 70
     0
  3

  4

  5

  6

  7

 40
1.0
 41
0.18
 42
0.0625
 43
0.38
 44
0.18
 45
0.0
 46
0.0
 47
0.0
 48
0.0
140
0.18
141
0.09
142
0.0
143
25.399999999999999
144
1.0
145
0.0
146
1.0
147
0.09
 71
     0
 72
     0
 73
     1
 74
     1
 75
     0
 76
     0
 77
     0
 78
     0
170
     0
171
     2
172
     0
173
     0
174
     0
175
     0
176
     0
177
     0
178
     0
  0
ENDTAB
  0
ENDSEC
  0
SECTION
  2
BLOCKS
  0
BLOCK
  8
0
  2
$MODEL_SPACE
 70
     0
 10
0.0
 20
0.0
 30
0.0
  3
$MODEL_SPACE
  1

  0
ENDBLK
  5
16B65
  8
0
  0
BLOCK
 67
     1
  8
0
  2
$PAPER_SPACE
 70
     0
 10
0.0
 20
0.0
 30
0.0
  3
$PAPER_SPACE
  1

  0
ENDBLK
  5
16B63
 67
     1
  8
0
  0
ENDSEC
  0
SECTION
  2
ENTITIES
  0
ARC
  5
16AD1
  8
0
  6
CONTINUOUS
 62
     3
 10
293.8409594035142
 20
196.24440822388951
 30
0.0
 40
38.500000000000078
 50
124.52936971014201
 51
174.7934767525642
  0
ARC
  5
16AD0
  8
0
  6
CONTINUOUS
 62
     7
 10
293.84095940351438
 20
196.24440822388951
 30
0.0
 40
40.000000000000092
 50
123.016961309816
 51
176.983038690184
  0
LINE
  5
16ACF
  8
0
  6
CONTINUOUS
 62
     3
 10
281.30622944122592
 20
214.95519737772901
 30
0.0
 11
273.7691362863103
 21
228.00982566342259
 31
0.0
  0
LINE
  5
16ACE
  8
0
  6
CONTINUOUS
 62
     7
 10
282.88650825341108
 20
215.21807418489971
 30
0.0
 11
274.86729344250432
 21
229.1077616741992
 31
0.0
  0
LINE
  5
16ACD
  8
0
  6
CONTINUOUS
 62
     7
 10
225.4355933391457
 20
230.10776167419959
 30
0.0
 11
225.4355933391457
 21
196.24440822388999
 31
0.0
  0
LINE
  5
16ACC
  8
0
  6
CONTINUOUS
 62
     7
 10
227.9355933391457
 20
197.74440822388999
 30
0.0
 11
227.9355933391457
 21
228.60776167419971
 31
0.0
1001
GENIUS_GENODEF_13
1002
{
1000
HIER
1070
     0
1002
}
1002
{
1000
MANEDIT
1070
     0
1002
}
1002
{
1000
NOSEL
1070
     0
1002
}
1002
{
1000
BEHIND
1070
     0
1002
}
1002
{
1000
REACTOR
1002
}
1001
GENIUS_GENOBJ-N-FIL_13
1002
{
1000
OWNER
1000
GEN
1002
}
  0
LINE
  5
16ACB
  8
0
  6
CONTINUOUS
 62
     7
 10
314.1875405284764
 20
197.74440822388999
 30
0.0
 11
314.1875405284764
 21
228.60776167419971
 31
0.0
1001
GENIUS_GENODEF_13
1002
{
1000
HIER
1070
     0
1002
}
1002
{
1000
MANEDIT
1070
     0
1002
}
1002
{
1000
NOSEL
1070
     0
1002
}
1002
{
1000
BEHIND
1070
     0
1002
}
1002
{
1000
REACTOR
1002
}
1001
GENIUS_GENOBJ-N-FIL_13
1002
{
1000
OWNER
1000
GEN
1002
}
  0
LINE
  5
16ACA
  8
0
  6
CONTINUOUS
 62
     7
 10
316.6875405284764
 20
230.10776167419959
 30
0.0
 11
316.6875405284764
 21
196.24440822388999
 31
0.0
  0
ARC
  5
16AE5
  8
0
  6
CONTINUOUS
 62
     7
 10
255.8936274814937
 20
198.24440822388951
 30
0.0
 40
1.9999999999999809
 50
176.98303869018301
 51
270.0
  0
ARC
  5
16ADF
  8
0
  6
CONTINUOUS
 62
     7
 10
255.3936274814937
 20
170.94961318320779
 30
0.0
 40
1.5
 50
90.0
 51
180.0
1001
GENIUS_GENODEF_13
1002
{
1000
HIER
1070
     0
1002
}
1002
{
1000
MANEDIT
1070
     0
1002
}
1002
{
1000
NOSEL
1070
     0
1002
}
1002
{
1000
BEHIND
1070
     0
1002
}
1002
{
1000
REACTOR
1002
}
1001
GENIUS_GENOBJ-N-FIL_13
1002
{
1000
OWNER
1000
GEN
1002
}
  0
LINE
  5
16ADC
  8
0
  6
CONTINUOUS
 62
     7
 10
253.8936274814937
 20
169.94961318320779
 30
0.0
 11
283.15445744584201
 21
169.94961318320779
 31
0.0
  0
LINE
  5
16AE0
  8
0
  6
CONTINUOUS
 62
     7
 10
253.8936274814937
 20
170.94961318320779
 30
0.0
 11
253.8936274814937
 21
169.94961318320779
 31
0.0
  0
LINE
  5
16AE3
  8
0
  6
CONTINUOUS
 62
     7
 10
225.4355933391457
 20
196.24440822388999
 30
0.0
 11
226.4355933391457
 21
196.24440822388999
 31
0.0
  0
ARC
  5
16AE1
  8
0
  6
CONTINUOUS
 62
     7
 10
226.4355933391457
 20
197.74440822388999
 30
0.0
 40
1.5
 50
270.0
 51
0.0
  0
LINE
  5
16ADB
  8
0
  6
CONTINUOUS
 62
     7
 10
281.65445744584201
 20
172.44961318320779
 30
0.0
 11
255.3936274814937
 21
172.44961318320779
 31
0.0
1001
GENIUS_GENODEF_13
1002
{
1000
HIER
1070
     0
1002
}
1002
{
1000
MANEDIT
1070
     0
1002
}
1002
{
1000
NOSEL
1070
     0
1002
}
1002
{
1000
BEHIND
1070
     0
1002
}
1002
{
1000
REACTOR
1002
}
1001
GENIUS_GENOBJ-N-FIL_13
1002
{
1000
OWNER
1000
GEN
1002
}
  0
LINE
  5
16AE6
  8
0
  6
CONTINUOUS
 62
     3
 10
273.13524263493491
 20
170.28343446682001
 30
0.0
 11
273.13524263493491
 21
172.06048425042411
 31
0.0
  0
ARC
  5
16AE7
  8
0
  6
CONTINUOUS
 62
     7
 10
281.65445744584201
 20
170.94961318320779
 30
0.0
 40
1.5
 50
0.0
 51
90.0
  0
LINE
  5
16AE8
  8
0
  6
CONTINUOUS
 62
     7
 10
283.15445744584201
 20
169.94961318320779
 30
0.0
 11
283.15445744584201
 21
170.94961318320779
 31
0.0
  0
ARC
  5
16AEE
  8
0
  6
CONTINUOUS
 62
     3
 10
293.8409594035142
 20
196.24440822388951
 30
0.0
 40
21.499999999999911
 50
127.6221428443168
 51
173.77527321235701
  0
ARC
  5
16AED
  8
0
  6
CONTINUOUS
 62
     7
 10
293.84095940351449
 20
196.24440822388951
 30
0.0
 40
19.999999999999901
 50
125.2159085704544
 51
174.7840914295457
  0
ARC
  5
16AEF
  8
0
  6
CONTINUOUS
 62
     7
 10
271.9320571033079
 20
198.24440822388951
 30
0.0
 40
2.000000000000028
 50
270.00000000001791
 51
354.78409142954649
  0
LINE
  5
16ADE
  8
0
  6
CONTINUOUS
 62
     3
 10
271.13744519732899
 20
197.74440822388951
 30
0.0
 11
256.37322487179063
 21
197.74440822388951
 31
0.0
  0
LINE
  5
16ADD
  8
0
  6
CONTINUOUS
 62
     7
 10
255.8936274814937
 20
196.24440822388951
 30
0.0
 11
271.93205710330858
 21
196.24440822388951
 31
0.0
  0
ARC
  5
16AF0
  8
0
  6
CONTINUOUS
 62
     7
 10
281.1544574458423
 20
214.21807418489971
 30
0.0
 40
1.999999999999982
 50
305.21590857045271
 51
30.000000000000551
  0
ARC
  5
16AF3
  8
0
  6
CONTINUOUS
 62
     7
 10
315.68754052847629
 20
197.74440822388999
 30
0.0
 40
1.5
 50
180.0
 51
270.0
  0
LINE
  5
16AF1
  8
0
  6
CONTINUOUS
 62
     7
 10
316.6875405284764
 20
196.24440822388999
 30
0.0
 11
315.68754052847629
 21
196.24440822388999
 31
0.0
  0
LINE
  5
16AF4
  8
0
  6
CONTINUOUS
 62
     3
 10
316.35371924486412
 20
214.21807418489959
 30
0.0
 11
314.57666946126
 21
214.21807418489959
 31
0.0
  0
ARC
  5
16AFB
  8
0
  6
CONTINUOUS
 62
     7
 10
255.3936274814937
 20
259.28499558208949
 30
0.0
 40
1.5
 50
180.0
 51
270.0
1001
GENIUS_GENODEF_13
1002
{
1000
HIER
1070
     0
1002
}
1002
{
1000
MANEDIT
1070
     0
1002
}
1002
{
1000
NOSEL
1070
     0
1002
}
1002
{
1000
BEHIND
1070
     0
1002
}
1002
{
1000
REACTOR
1002
}
1001
GENIUS_GENOBJ-N-FIL_13
1002
{
1000
OWNER
1000
GEN
1002
}
  0
LINE
  5
16AF7
  8
0
  6
CONTINUOUS
 62
     7
 10
253.8936274814937
 20
260.28499558208938
 30
0.0
 11
283.15445744584201
 21
260.28499558208938
 31
0.0
  0
LINE
  5
16AFA
  8
0
  6
CONTINUOUS
 62
     7
 10
226.4355933391457
 20
230.10776167419959
 30
0.0
 11
225.4355933391457
 21
230.10776167419959
 31
0.0
  0
ARC
  5
16AF8
  8
0
  6
CONTINUOUS
 62
     7
 10
226.4355933391457
 20
228.60776167419971
 30
0.0
 40
1.5
 50
0.0
 51
90.0
1001
GENIUS_GENODEF_13
1002
{
1000
HIER
1070
     0
1002
}
1002
{
1000
MANEDIT
1070
     0
1002
}
1002
{
1000
NOSEL
1070
     0
1002
}
1002
{
1000
BEHIND
1070
     0
1002
}
1002
{
1000
REACTOR
1002
}
1001
GENIUS_GENOBJ-N-FIL_13
1002
{
1000
OWNER
1000
GEN
1002
}
  0
LINE
  5
16AFC
  8
0
  6
CONTINUOUS
 62
     7
 10
253.8936274814937
 20
259.28499558208949
 30
0.0
 11
253.8936274814937
 21
260.28499558208938
 31
0.0
  0
ARC
  5
16AFD
  8
0
  6
CONTINUOUS
 62
     7
 10
273.1352426349352
 20
228.10776167419959
 30
0.0
 40
1.9999999999999929
 50
29.99999999998554
 51
123.01696130981669
  0
LINE
  5
16AF6
  8
0
  6
CONTINUOUS
 62
     7
 10
281.65445744584201
 20
257.78499558208938
 30
0.0
 11
255.3936274814937
 21
257.78499558208938
 31
0.0
1001
GENIUS_GENODEF_13
1002
{
1000
HIER
1070
     0
1002
}
1002
{
1000
MANEDIT
1070
     0
1002
}
1002
{
1000
NOSEL
1070
     0
1002
}
1002
{
1000
BEHIND
1070
     0
1002
}
1002
{
1000
REACTOR
1002
}
1001
GENIUS_GENOBJ-N-FIL_13
1002
{
1000
OWNER
1000
GEN
1002
}
  0
LINE
  5
16B01
  8
0
  6
CONTINUOUS
 62
     3
 10
273.13524263493491
 20
259.95117429847721
 30
0.0
 11
273.13524263493491
 21
258.1741245148732
 31
0.0
  0
ARC
  5
16B02
  8
0
  6
CONTINUOUS
 62
     7
 10
281.65445744584201
 20
259.28499558208949
 30
0.0
 40
1.5
 50
270.0
 51
0.0
  0
LINE
  5
16B03
  8
0
  6
CONTINUOUS
 62
     7
 10
283.15445744584201
 20
260.28499558208938
 30
0.0
 11
283.15445744584201
 21
259.28499558208949
 31
0.0
  0
LINE
  5
16AFF
  8
0
  6
CONTINUOUS
 62
     7
 10
315.68754052847629
 20
230.10776167419959
 30
0.0
 11
316.6875405284764
 21
230.10776167419959
 31
0.0
  0
ARC
  5
16AFE
  8
0
  6
CONTINUOUS
 62
     7
 10
315.68754052847629
 20
228.60776167419971
 30
0.0
 40
1.5
 50
90.0
 51
180.0
1001
GENIUS_GENODEF_13
1002
{
1000
HIER
1070
     0
1002
}
1002
{
1000
MANEDIT
1070
     0
1002
}
1002
{
1000
NOSEL
1070
     0
1002
}
1002
{
1000
BEHIND
1070
     0
1002
}
1002
{
1000
REACTOR
1002
}
1001
GENIUS_GENOBJ-N-FIL_13
1002
{
1000
OWNER
1000
GEN
1002
}
  0
TEXT
  5
16C14
  8
0
 62
     3
 10
0.0
 20
0.0
 30
0.0
 40
10.0
  1
L5-ECPR24D60
  7
STANDARD1
  0
ENDSEC
  0
EOF
