  0
SECTION
  2
HEADER
  9
$ACADVER
  1
AC1009
  9
$INSBASE
 10
0.0
 20
0.0
 30
0.0
  9
$EXTMIN
 10
0.0
 20
-2.960436562073669
 30
0.0
  9
$EXTMAX
 10
132.2527008747731
 20
106.79420261597561
 30
0.0
  9
$LIMMIN
 10
0.0
 20
0.0
  9
$LIMMAX
 10
275.0
 20
175.0
  9
$ORTHOMODE
 70
     1
  9
$REGENMODE
 70
     1
  9
$FILLMODE
 70
     1
  9
$QTEXTMODE
 70
     0
  9
$MIRRTEXT
 70
     0
  9
$DRAGMODE
 70
     2
  9
$LTSCALE
 40
10.0
  9
$OSMODE
 70
  3071
  9
$ATTMODE
 70
     1
  9
$TEXTSIZE
 40
0.2
  9
$TRACEWID
 40
0.05
  9
$TEXTSTYLE
  7
STANDARD
  9
$CLAYER
  8
0
  9
$CELTYPE
  6
BYLAYER
  9
$CECOLOR
 62
   256
  9
$DIMSCALE
 40
1.0
  9
$DIMASZ
 40
3.0
  9
$DIMEXO
 40
1.0
  9
$DIMDLI
 40
6.0
  9
$DIMRND
 40
0.0
  9
$DIMDLE
 40
0.0
  9
$DIMEXE
 40
1.0
  9
$DIMTP
 40
495.0
  9
$DIMTM
 40
0.0
  9
$DIMTXT
 40
3.0
  9
$DIMCEN
 40
0.0
  9
$DIMTSZ
 40
0.0
  9
$DIMTOL
 70
     0
  9
$DIMLIM
 70
     0
  9
$DIMTIH
 70
     0
  9
$DIMTOH
 70
     0
  9
$DIMSE1
 70
     0
  9
$DIMSE2
 70
     0
  9
$DIMTAD
 70
     1
  9
$DIMZIN
 70
     0
  9
$DIMBLK
  1

  9
$DIMASO
 70
     0
  9
$DIMSHO
 70
     0
  9
$DIMPOST
  1

  9
$DIMAPOST
  1

  9
$DIMALT
 70
     0
  9
$DIMALTD
 70
     2
  9
$DIMALTF
 40
25.399999999999999
  9
$DIMLFAC
 40
1.0
  9
$DIMTOFL
 70
     1
  9
$DIMTVP
 40
0.0
  9
$DIMTIX
 70
     1
  9
$DIMSOXD
 70
     0
  9
$DIMSAH
 70
     0
  9
$DIMBLK1
  1

  9
$DIMBLK2
  1

  9
$DIMSTYLE
  2
STANDARD
  9
$DIMCLRD
 70
     0
  9
$DIMCLRE
 70
     0
  9
$DIMCLRT
 70
     4
  9
$DIMTFAC
 40
1.0
  9
$DIMGAP
 40
1.0
  9
$LUNITS
 70
     2
  9
$LUPREC
 70
     4
  9
$SKETCHINC
 40
0.1
  9
$FILLETRAD
 40
0.0
  9
$AUNITS
 70
     0
  9
$AUPREC
 70
     0
  9
$MENU
  1
E:\r13\win\SUPPORT\ACAD
  9
$ELEVATION
 40
0.0
  9
$PELEVATION
 40
0.0
  9
$THICKNESS
 40
0.0
  9
$LIMCHECK
 70
     0
  9
$BLIPMODE
 70
     0
  9
$CHAMFERA
 40
0.0
  9
$CHAMFERB
 40
0.0
  9
$SKPOLY
 70
     0
  9
$TDCREATE
 40
2450653.5278402781
  9
$TDUPDATE
 40
2456597.5465236339
  9
$TDINDWG
 40
0.0348492361
  9
$TDUSRTIMER
 40
0.0348492361
  9
$USRTIMER
 70
     1
  9
$ANGBASE
 50
0.0
  9
$ANGDIR
 70
     0
  9
$PDMODE
 70
     0
  9
$PDSIZE
 40
0.0
  9
$PLINEWID
 40
0.0
  9
$COORDS
 70
     1
  9
$SPLFRAME
 70
     0
  9
$SPLINETYPE
 70
     6
  9
$SPLINESEGS
 70
     8
  9
$ATTDIA
 70
     0
  9
$ATTREQ
 70
     1
  9
$HANDLING
 70
     1
  9
$HANDSEED
  5
2D1
  9
$SURFTAB1
 70
     6
  9
$SURFTAB2
 70
     6
  9
$SURFTYPE
 70
     6
  9
$SURFU
 70
     6
  9
$SURFV
 70
     6
  9
$UCSNAME
  2

  9
$UCSORG
 10
0.0
 20
0.0
 30
0.0
  9
$UCSXDIR
 10
1.0
 20
0.0
 30
0.0
  9
$UCSYDIR
 10
0.0
 20
1.0
 30
0.0
  9
$PUCSNAME
  2

  9
$PUCSORG
 10
0.0
 20
0.0
 30
0.0
  9
$PUCSXDIR
 10
1.0
 20
0.0
 30
0.0
  9
$PUCSYDIR
 10
0.0
 20
1.0
 30
0.0
  9
$USERI1
 70
     4
  9
$USERI2
 70
     1
  9
$USERI3
 70
     0
  9
$USERI4
 70
     0
  9
$USERI5
 70
     0
  9
$USERR1
 40
1.0
  9
$USERR2
 40
3.0
  9
$USERR3
 40
3.0
  9
$USERR4
 40
3.0
  9
$USERR5
 40
10.0
  9
$WORLDVIEW
 70
     1
  9
$SHADEDGE
 70
     3
  9
$SHADEDIF
 70
    70
  9
$TILEMODE
 70
     1
  9
$MAXACTVP
 70
    16
  9
$PLIMCHECK
 70
     0
  9
$PEXTMIN
 10
1.0000000000000000E+020
 20
1.0000000000000000E+020
 30
1.0000000000000000E+020
  9
$PEXTMAX
 10
-1.0000000000000000E+020
 20
-1.0000000000000000E+020
 30
-1.0000000000000000E+020
  9
$PLIMMIN
 10
0.0
 20
0.0
  9
$PLIMMAX
 10
12.0
 20
9.0
  9
$UNITMODE
 70
     0
  9
$VISRETAIN
 70
     0
  9
$PLINEGEN
 70
     0
  9
$PSLTSCALE
 70
     0
  0
ENDSEC
  0
SECTION
  2
TABLES
  0
TABLE
  2
VPORT
 70
     1
  0
VPORT
  2
*ACTIVE
 70
     0
 10
0.0
 20
0.0
 11
1.0
 21
1.0
 12
137.495804153145
 22
105.14973110994291
 13
0.0
 23
0.0
 14
5.0
 24
5.0
 15
10.0
 25
10.0
 16
0.0
 26
0.0
 36
1.0
 17
0.0
 27
0.0
 37
0.0
 40
218.28380694200069
 41
1.9089595375722539
 42
50.0
 43
0.0
 44
0.0
 50
0.0
 51
0.0
 71
     0
 72
   100
 73
     1
 74
     0
 75
     0
 76
     0
 77
     0
 78
     0
  0
ENDTAB
  0
TABLE
  2
LTYPE
 70
     3
  0
LTYPE
  2
CONTINUOUS
 70
     0
  3
Solid Line
 72
    65
 73
     0
 40
0.0
  0
LTYPE
  2
CENTER
 70
     0
  3
____ _ ____ _ ____ _ ____ _ ____ _ ____ _ ____
 72
    65
 73
     4
 40
2.0
 49
1.25
 49
-0.25
 49
0.25
 49
-0.25
  0
LTYPE
  2
PHANTOM2
 70
     0
  3
___ _ _ ___ _ _ ___ _ _ ___ _ _
 72
    65
 73
     6
 40
1.25
 49
0.625
 49
-0.125
 49
0.125
 49
-0.125
 49
0.125
 49
-0.125
  0
ENDTAB
  0
TABLE
  2
LAYER
 70
     2
  0
LAYER
  2
0
 70
     0
 62
     7
  6
CONTINUOUS
  0
LAYER
  2
1
 70
     0
 62
     1
  6
CENTER
  0
ENDTAB
  0
TABLE
  2
STYLE
 70
     2
  0
STYLE
  2
STANDARD
 70
     0
 40
0.0
 41
1.0
 50
0.0
 71
     0
 42
0.2
  3
simplex
  4
bigfont
  0
STYLE
  2
STANDARD1
 70
     0
 40
0.0
 41
1.0
 50
0.0
 71
     0
 42
3.0
  3
txt
  4

  0
ENDTAB
  0
TABLE
  2
VIEW
 70
     0
  0
ENDTAB
  0
TABLE
  2
UCS
 70
     0
  0
ENDTAB
  0
TABLE
  2
APPID
 70
     5
  0
APPID
  2
ACAD
 70
     0
  0
APPID
  2
GENIUS_GENODEF_13
 70
     0
  0
APPID
  2
GENIUS_GENOBJ-N-FIL_13
 70
     0
  0
APPID
  2
ACAD_MLEADERVER
 70
     0
  0
APPID
  2
ACAD_NAV_VCDISPLAY
 70
     0
  0
ENDTAB
  0
TABLE
  2
DIMSTYLE
 70
     1
  0
DIMSTYLE
  2
STANDARD
 70
     0
  3

  4

  5

  6

  7

 40
1.0
 41
0.18
 42
0.0625
 43
0.38
 44
0.18
 45
0.0
 46
0.0
 47
0.0
 48
0.0
140
0.18
141
0.09
142
0.0
143
25.399999999999999
144
1.0
145
0.0
146
1.0
147
0.09
 71
     0
 72
     0
 73
     1
 74
     1
 75
     0
 76
     0
 77
     0
 78
     0
170
     0
171
     2
172
     0
173
     0
174
     0
175
     0
176
     0
177
     0
178
     0
  0
ENDTAB
  0
ENDSEC
  0
SECTION
  2
BLOCKS
  0
BLOCK
  8
0
  2
$MODEL_SPACE
 70
     0
 10
0.0
 20
0.0
 30
0.0
  3
$MODEL_SPACE
  1

  0
ENDBLK
  5
192
  8
0
  0
BLOCK
 67
     1
  8
0
  2
$PAPER_SPACE
 70
     0
 10
0.0
 20
0.0
 30
0.0
  3
$PAPER_SPACE
  1

  0
ENDBLK
  5
190
 67
     1
  8
0
  0
ENDSEC
  0
SECTION
  2
ENTITIES
  0
LINE
  5
FF
  8
1
 10
52.302700874796606
 20
106.79420261597561
 30
0.0
 11
52.302700874796606
 21
58.504010311366947
 31
0.0
  0
LINE
  5
100
  8
0
 10
61.952700874745091
 20
102.79420261597561
 30
0.0
 11
61.952700874796697
 21
88.436554506294726
 31
0.0
  0
LINE
  5
101
  8
0
 10
42.652700874796977
 20
68.34445514796181
 30
0.0
 11
42.652700874828582
 21
102.79420261597561
 31
0.0
  0
ARC
  5
102
  8
0
 10
44.652700874754913
 20
68.34445514787609
 30
0.0
 40
1.9999999999579721
 50
179.99999999754419
 51
224.999999999115
  0
LINE
  5
103
  8
0
 10
45.952700874768972
 20
82.104378453182505
 30
0.0
 11
45.952700874769192
 21
71.28402677894195
 31
0.0
  0
ARC
  5
104
  8
0
 10
51.952700874819669
 20
64.744202616085943
 30
0.0
 40
4.2499999999886313
 50
270.00000000031258
 51
30.00000000818147
  0
ARC
  5
105
  8
0
 10
51.952700874765547
 20
65.994202616097652
 30
0.0
 40
5.5000000000003411
 50
224.99958741121191
 51
270.00000000080519
  0
LINE
  5
106
  8
0
 10
49.414097912456413
 20
66.99420261612994
 30
0.0
 11
55.416802489652888
 21
66.994202616580708
 31
0.0
  0
LINE
  5
107
  8
0
 10
48.063585572894993
 20
62.10514332511746
 30
0.0
 11
43.23848731238953
 21
66.930241585554583
 31
0.0
  0
ARC
  5
108
  8
0
 10
49.952700874768958
 20
71.284026779005274
 30
0.0
 40
3.9999999999997722
 50
180.00000000090691
 51
225.0000000008456
  0
LINE
  5
109
  8
0
 10
47.124273750064582
 20
68.455599654217451
 30
0.0
 11
47.999884349365942
 21
67.579989054274677
 31
0.0
  0
ARC
  5
10A
  8
0
 10
49.414097912257013
 20
68.994202616129584
 30
0.0
 40
1.999999999999694
 50
224.99999997901239
 51
270.00000000571248
  0
ARC
  5
10B
  8
0
 10
55.416802489671767
 20
66.744202616580594
 30
0.0
 40
0.25
 50
30.000000008184241
 51
90.000000004325088
1001
GENIUS_GENODEF_13
1002
{
1000
HIER
1070
     0
1002
}
1002
{
1000
MANEDIT
1070
     0
1002
}
1002
{
1000
NOSEL
1070
     0
1002
}
1002
{
1000
BEHIND
1070
     0
1002
}
1002
{
1000
REACTOR
1002
}
1001
GENIUS_GENOBJ-N-FIL_13
1002
{
1000
OWNER
1000
GEN
1002
}
  0
LINE
  5
10C
  8
0
 10
60.452700874870366
 20
86.936554506289269
 30
0.0
 11
56.639198036521833
 21
86.936554506102027
 31
0.0
  0
ARC
  5
10D
  8
0
 10
49.952700874769192
 20
82.104378453119054
 30
0.0
 40
4.0000000000001918
 50
134.99999999915181
 51
179.99999999909119
  0
LINE
  5
10E
  8
0
 10
56.139198036534111
 20
86.394202615503843
 30
0.0
 11
49.414097912456178
 21
86.394202615994729
 31
0.0
  0
LINE
  5
10F
  8
0
 10
47.99988434973838
 20
85.808416178222217
 30
0.0
 11
47.124273750064582
 21
84.932805577907246
 31
0.0
  0
ARC
  5
110
  8
0
 10
49.414097912257013
 20
84.394202615995198
 30
0.0
 40
1.999999999999545
 50
89.999999994293859
 51
135.00000000590421
  0
ARC
  5
111
  8
0
 10
56.139198036533202
 20
86.644202615504639
 30
0.0
 40
0.2500000000009095
 50
270.00000000020827
 51
359.99999999981748
  0
LINE
  5
112
  8
0
 10
56.389198036534111
 20
86.686554506102027
 30
0.0
 11
56.389198036534111
 21
86.644202615503843
 31
0.0
  0
ARC
  5
113
  8
0
 10
56.639198036534111
 20
86.686554506102027
 30
0.0
 40
0.25
 50
90.000000002813863
 51
179.99999999999989
  0
ARC
  5
114
  8
0
 10
60.452700874796697
 20
88.436554506289383
 30
0.0
 40
1.5
 50
270.00000000281392
 51
0.0000000002040087
  0
ARC
  5
115
  8
0
 10
44.652700874839503
 20
102.79420261596481
 30
0.0
 40
2.000000000010913
 50
90.000000001224535
 51
179.99999999969049
  0
LINE
  5
116
  8
0
 10
44.65270087479675
 20
104.79420261597561
 30
0.0
 11
59.952700874796477
 21
104.79420261597561
 31
0.0
  0
ARC
  5
117
  8
0
 10
59.952700874719852
 20
102.7942026159504
 30
0.0
 40
2.000000000025238
 50
0.000000000722948
 51
89.999999997804764
  0
LINE
  5
119
  8
0
 10
81.952700874561273
 20
37.994202616150233
 30
0.0
 11
101.2527008745019
 21
37.994202616044959
 31
0.0
  0
LINE
  5
11A
  8
0
 10
99.752700874515554
 20
40.494202616053137
 30
0.0
 11
83.452700874574916
 21
40.49420261614204
 31
0.0
  0
LINE
  5
11B
  8
0
 10
87.702700874564428
 20
40.494202616118862
 30
0.0
 11
87.702700874550786
 21
37.994202616118869
 31
0.0
  0
ARC
  5
11C
  8
0
 10
83.452700874566744
 20
38.994202616142047
 30
0.0
 40
1.5
 50
89.999999999687759
 51
179.99999999968759
  0
LINE
  5
11D
  8
0
 10
82.952700874561287
 20
37.994202616144783
 30
0.0
 11
82.952700874561287
 21
37.994202616144783
 31
0.0
  0
LINE
  5
11E
  8
0
 10
81.952700874566744
 20
38.994202616150233
 30
0.0
 11
81.952700874561273
 21
37.994202616150233
 31
0.0
  0
ARC
  5
11F
  8
0
 10
99.752700874507354
 20
38.994202616053137
 30
0.0
 40
1.5
 50
359.99999999968759
 51
89.99999999968766
  0
LINE
  5
120
  8
0
 10
89.252700874501897
 20
37.994202616110442
 30
0.0
 11
89.252700874480297
 21
33.994202616110442
 31
0.0
  0
LINE
  5
121
  8
0
 10
93.252700874501897
 20
37.994202616088621
 30
0.0
 11
93.252700874480297
 21
33.994202616088621
 31
0.0
  0
LINE
  5
122
  8
0
 10
92.752700874475295
 20
31.494202616091339
 30
0.0
 11
89.752700874458014
 21
31.49420261610771
 31
0.0
  0
LINE
  5
123
  8
0
 10
89.752700874458014
 20
31.49420261610771
 30
0.0
 11
89.252700874480297
 21
33.994202616110442
 31
0.0
  0
LINE
  5
124
  8
0
 10
92.752700874475295
 20
31.494202616091339
 30
0.0
 11
93.252700874480297
 21
33.994202616088621
 31
0.0
  0
LINE
  5
125
  8
0
 10
100.2527008745019
 20
37.994202616050423
 30
0.0
 11
100.2527008745019
 21
37.994202616050423
 31
0.0
  0
LINE
  5
126
  8
0
 10
101.2527008745019
 20
37.994202616044959
 30
0.0
 11
101.2527008745073
 21
38.994202616044959
 31
0.0
  0
LINE
  5
127
  8
1
 10
91.602700874781135
 20
106.7942026159746
 30
0.0
 11
91.602700874781149
 21
58.504010311361263
 31
0.0
  0
LINE
  5
128
  8
0
 10
123.7527008747963
 20
104.79420261604891
 30
0.0
 11
123.7527008746754
 21
60.494202616170661
 31
0.0
  0
LINE
  5
129
  8
0
 10
121.25270087467941
 20
61.994202616178391
 30
0.0
 11
121.2527008747922
 21
103.29420261605669
 31
0.0
  0
LINE
  5
12A
  8
0
 10
81.952700874829006
 20
102.79420261599221
 30
0.0
 11
81.952700874751258
 21
88.436554506311296
 31
0.0
  0
LINE
  5
12B
  8
0
 10
101.25270087471461
 20
68.34445514794325
 30
0.0
 11
101.2527008747455
 21
102.794202615957
 31
0.0
  0
LINE
  5
12C
  8
0
 10
97.952700874767629
 20
82.104378453169971
 30
0.0
 11
97.95270087474762
 21
71.284026778929416
 31
0.0
  0
ARC
  5
12D
  8
0
 10
88.488599259836874
 20
66.744202616585227
 30
0.0
 40
0.25
 50
89.999999995570633
 51
149.99999999171149
1001
GENIUS_GENODEF_13
1002
{
1000
HIER
1070
     0
1002
}
1002
{
1000
MANEDIT
1070
     0
1002
}
1002
{
1000
NOSEL
1070
     0
1002
}
1002
{
1000
BEHIND
1070
     0
1002
}
1002
{
1000
REACTOR
1002
}
1001
GENIUS_GENOBJ-N-FIL_13
1002
{
1000
OWNER
1000
GEN
1002
}
  0
ARC
  5
12E
  8
0
 10
91.95270087468532
 20
64.744202616084323
 30
0.0
 40
4.2499999999886313
 50
149.99999999171419
 51
269.99999999958311
  0
ARC
  5
12F
  8
0
 10
91.952700874741694
 20
65.994202616096032
 30
0.0
 40
5.5000000000003411
 50
269.99999999909039
 51
315.00041258868379
  0
LINE
  5
130
  8
0
 10
96.781127999446994
 20
68.455599654207077
 30
0.0
 11
95.905517400144035
 21
67.579989054265894
 31
0.0
  0
LINE
  5
131
  8
0
 10
95.841816176605221
 20
62.105143325108791
 30
0.0
 11
100.6669144371193
 21
66.930241585537061
 31
0.0
  0
LINE
  5
132
  8
0
 10
94.491303837052655
 20
66.994202616123658
 30
0.0
 11
88.488599259856187
 21
66.994202616585341
 31
0.0
  0
ARC
  5
133
  8
0
 10
94.491303837255714
 20
68.994202616123303
 30
0.0
 40
1.999999999999694
 50
269.99999999418321
 51
315.00000002088331
  0
ARC
  5
134
  8
0
 10
93.952700874747833
 20
71.284026779000015
 30
0.0
 40
3.9999999999997722
 50
314.99999999904998
 51
359.99999999898881
  0
ARC
  5
135
  8
0
 10
99.252700874756655
 20
68.344455147861169
 30
0.0
 40
1.9999999999579721
 50
315.00000000078069
 51
0.0000000023514731
  0
LINE
  5
136
  8
0
 10
87.766203713010214
 20
86.39420261550984
 30
0.0
 11
94.49130383708814
 21
86.394202615988462
 31
0.0
  0
ARC
  5
137
  8
0
 10
83.452700874751258
 20
88.436554506303224
 30
0.0
 40
1.5
 50
179.99999999969171
 51
269.99999999708177
  0
LINE
  5
138
  8
0
 10
83.452700874674861
 20
86.936554506303111
 30
0.0
 11
87.266203713023401
 21
86.936554506108934
 31
0.0
  0
ARC
  5
139
  8
0
 10
87.266203713010654
 20
86.686554506108934
 30
0.0
 40
0.25
 50
359.99999999989581
 51
89.999999997081829
  0
LINE
  5
13A
  8
0
 10
87.516203713010668
 20
86.686554506108465
 30
0.0
 11
87.516203713010668
 21
86.644202615510295
 31
0.0
  0
ARC
  5
13B
  8
0
 10
87.766203713011578
 20
86.644202615510636
 30
0.0
 40
0.2500000000009095
 50
180.0000000000781
 51
269.99999999968742
  0
ARC
  5
13C
  8
0
 10
93.952700874767402
 20
82.104378453113796
 30
0.0
 40
4.0000000000001918
 50
0.0000000008044513
 51
45.000000000743839
  0
LINE
  5
13D
  8
0
 10
95.905517399804808
 20
85.808416178213434
 30
0.0
 11
96.781127999477008
 21
84.932805577896858
 31
0.0
  0
ARC
  5
13E
  8
0
 10
94.491303837283681
 20
84.394202615988917
 30
0.0
 40
1.999999999999545
 50
44.99999999399153
 51
90.000000005601834
  0
ARC
  5
13F
  8
0
 10
122.7527008746795
 20
61.994202616174292
 30
0.0
 40
1.5
 50
179.9999999998432
 51
269.9999999997911
1001
GENIUS_GENODEF_13
1002
{
1000
HIER
1070
     0
1002
}
1002
{
1000
MANEDIT
1070
     0
1002
}
1002
{
1000
NOSEL
1070
     0
1002
}
1002
{
1000
BEHIND
1070
     0
1002
}
1002
{
1000
REACTOR
1002
}
1001
GENIUS_GENOBJ-N-FIL_13
1002
{
1000
OWNER
1000
GEN
1002
}
  0
LINE
  5
140
  8
0
 10
122.75270087467401
 20
60.494202616174299
 30
0.0
 11
123.7527008746754
 21
60.494202616170661
 31
0.0
  0
LINE
  5
141
  8
1
 10
132.2527008746724
 20
67.178203002736851
 30
0.0
 11
119.2527008746936
 21
67.178203002772364
 31
0.0
  0
LINE
  5
142
  8
0
 10
123.7527008746963
 20
68.228464946605271
 30
0.0
 11
127.75270087467599
 21
68.228464946590606
 31
0.0
  0
LINE
  5
143
  8
0
 10
123.7527008747029
 20
66.158275300928807
 30
0.0
 11
127.75270087444
 21
66.158275300914255
 31
0.0
  0
LINE
  5
144
  8
0
 10
123.7527008746786
 20
61.994202616170661
 30
0.0
 11
123.7527008746795
 21
61.994202616170661
 31
0.0
  0
LINE
  5
145
  8
0
 10
123.7527008746892
 20
65.694202616401725
 30
0.0
 11
123.75270087468969
 21
65.694202616401725
 31
0.0
  0
LINE
  5
146
  8
0
 10
123.75270087476591
 20
92.794202616048963
 30
0.0
 11
127.75270087476591
 21
92.794202616034426
 31
0.0
  0
LINE
  5
147
  8
0
 10
123.752700874749
 20
87.694202615856824
 30
0.0
 11
123.75270087474949
 21
87.694202615856824
 31
0.0
  0
LINE
  5
148
  8
0
 10
99.252700874780999
 20
104.7942026159607
 30
0.0
 11
83.952700874781272
 21
104.7942026159885
 31
0.0
  0
ARC
  5
149
  8
0
 10
83.952700874854258
 20
102.7942026159633
 30
0.0
 40
2.000000000025238
 50
90.000000002090928
 51
179.9999999991727
  0
ARC
  5
14A
  8
0
 10
99.252700874734614
 20
102.7942026159499
 30
0.0
 40
2.000000000010913
 50
0.0000000002051839
 51
89.999999998671186
  0
ARC
  5
14B
  8
0
 10
122.7527008747922
 20
103.2942026160526
 30
0.0
 40
1.5
 50
89.999999999791086
 51
179.9999999998432
1001
GENIUS_GENODEF_13
1002
{
1000
HIER
1070
     0
1002
}
1002
{
1000
MANEDIT
1070
     0
1002
}
1002
{
1000
NOSEL
1070
     0
1002
}
1002
{
1000
BEHIND
1070
     0
1002
}
1002
{
1000
REACTOR
1002
}
1001
GENIUS_GENOBJ-N-FIL_13
1002
{
1000
OWNER
1000
GEN
1002
}
  0
LINE
  5
14C
  8
1
 10
132.2527008747731
 20
94.794202616025302
 30
0.0
 11
119.252700874769
 21
94.794202616025302
 31
0.0
  0
LINE
  5
14D
  8
0
 10
123.7527008747804
 20
96.794202616048977
 30
0.0
 11
127.7527008747804
 21
96.794202616034426
 31
0.0
  0
LINE
  5
14E
  8
0
 10
123.7527008747922
 20
103.29420261604901
 30
0.0
 11
123.75270087479269
 21
103.29420261604901
 31
0.0
  0
LINE
  5
14F
  8
0
 10
123.7527008747963
 20
104.79420261604891
 30
0.0
 11
122.7527008747977
 21
104.7942026160526
 31
0.0
  0
LINE
  5
150
  8
0
 10
127.75270087476591
 20
92.794202616034426
 30
0.0
 11
130.25270087473771
 21
93.294202616016804
 31
0.0
  0
LINE
  5
151
  8
0
 10
130.25270087466939
 20
66.308275300907866
 30
0.0
 11
130.2527008746753
 21
68.048130704576778
 31
0.0
  0
LINE
  5
152
  8
0
 10
127.7527008746833
 20
66.158275300911299
 30
0.0
 11
130.252700874684
 21
66.308275300908889
 31
0.0
  0
LINE
  5
153
  8
0
 10
127.75270087467599
 20
68.228464946590606
 30
0.0
 11
130.25270087468419
 21
68.048130704576096
 31
0.0
  0
LINE
  5
154
  8
0
 10
130.2527008747677
 20
93.294202616022801
 30
0.0
 11
130.25270087477861
 21
96.294202616027832
 31
0.0
  0
LINE
  5
155
  8
0
 10
127.7527008747804
 20
96.794202616034426
 30
0.0
 11
130.2527008747486
 21
96.294202616033843
 31
0.0
  0
LINE
  5
161
  8
1
 10
91.602700874781135
 20
42.494202616097589
 30
0.0
 11
91.602700874781135
 21
29.494202616097621
 31
0.0
  0
TEXT
  5
243
  8
0
 62
     3
 10
0.0
 20
0.0
 30
0.0
 40
10.0
  1
L5-ECPC4419
  7
STANDARD1
  0
ENDSEC
  0
EOF
