  0
SECTION
  2
HEADER
  9
$ACADVER
  1
AC1009
  9
$INSBASE
 10
146.8517570293786
 20
431.91452535003123
 30
0.0
  9
$EXTMIN
 10
0.0
 20
-2.960436562073669
 30
0.0
  9
$EXTMAX
 10
267.25282668169342
 20
531.4333923620552
 30
0.0
  9
$LIMMIN
 10
0.0
 20
0.0
  9
$LIMMAX
 10
275.0
 20
175.0
  9
$ORTHOMODE
 70
     1
  9
$REGENMODE
 70
     1
  9
$FILLMODE
 70
     1
  9
$QTEXTMODE
 70
     0
  9
$MIRRTEXT
 70
     0
  9
$DRAGMODE
 70
     2
  9
$LTSCALE
 40
10.0
  9
$OSMODE
 70
  3071
  9
$ATTMODE
 70
     1
  9
$TEXTSIZE
 40
0.2
  9
$TRACEWID
 40
0.05
  9
$TEXTSTYLE
  7
STANDARD
  9
$CLAYER
  8
0
  9
$CELTYPE
  6
BYLAYER
  9
$CECOLOR
 62
   256
  9
$DIMSCALE
 40
1.0
  9
$DIMASZ
 40
3.0
  9
$DIMEXO
 40
0.0625
  9
$DIMDLI
 40
0.38
  9
$DIMRND
 40
0.0
  9
$DIMDLE
 40
0.0
  9
$DIMEXE
 40
0.18
  9
$DIMTP
 40
0.0
  9
$DIMTM
 40
0.0
  9
$DIMTXT
 40
3.0
  9
$DIMCEN
 40
0.09
  9
$DIMTSZ
 40
0.0
  9
$DIMTOL
 70
     0
  9
$DIMLIM
 70
     0
  9
$DIMTIH
 70
     1
  9
$DIMTOH
 70
     1
  9
$DIMSE1
 70
     0
  9
$DIMSE2
 70
     0
  9
$DIMTAD
 70
     0
  9
$DIMZIN
 70
     0
  9
$DIMBLK
  1

  9
$DIMASO
 70
     1
  9
$DIMSHO
 70
     1
  9
$DIMPOST
  1

  9
$DIMAPOST
  1

  9
$DIMALT
 70
     0
  9
$DIMALTD
 70
     2
  9
$DIMALTF
 40
25.399999999999999
  9
$DIMLFAC
 40
1.0
  9
$DIMTOFL
 70
     0
  9
$DIMTVP
 40
0.0
  9
$DIMTIX
 70
     0
  9
$DIMSOXD
 70
     0
  9
$DIMSAH
 70
     0
  9
$DIMBLK1
  1

  9
$DIMBLK2
  1

  9
$DIMSTYLE
  2
STANDARD
  9
$DIMCLRD
 70
     0
  9
$DIMCLRE
 70
     0
  9
$DIMCLRT
 70
     0
  9
$DIMTFAC
 40
1.0
  9
$DIMGAP
 40
0.09
  9
$LUNITS
 70
     2
  9
$LUPREC
 70
     4
  9
$SKETCHINC
 40
0.1
  9
$FILLETRAD
 40
0.0
  9
$AUNITS
 70
     0
  9
$AUPREC
 70
     0
  9
$MENU
  1
E:\r13\win\SUPPORT\ACAD
  9
$ELEVATION
 40
0.0
  9
$PELEVATION
 40
0.0
  9
$THICKNESS
 40
0.0
  9
$LIMCHECK
 70
     0
  9
$BLIPMODE
 70
     0
  9
$CHAMFERA
 40
0.0
  9
$CHAMFERB
 40
0.0
  9
$SKPOLY
 70
     0
  9
$TDCREATE
 40
2450442.660232292
  9
$TDUPDATE
 40
2456597.5464853588
  9
$TDINDWG
 40
0.0007337153
  9
$TDUSRTIMER
 40
0.0007337153
  9
$USRTIMER
 70
     1
  9
$ANGBASE
 50
0.0
  9
$ANGDIR
 70
     0
  9
$PDMODE
 70
     0
  9
$PDSIZE
 40
0.0
  9
$PLINEWID
 40
0.0
  9
$COORDS
 70
     1
  9
$SPLFRAME
 70
     0
  9
$SPLINETYPE
 70
     6
  9
$SPLINESEGS
 70
     8
  9
$ATTDIA
 70
     0
  9
$ATTREQ
 70
     1
  9
$HANDLING
 70
     1
  9
$HANDSEED
  5
57A7
  9
$SURFTAB1
 70
     6
  9
$SURFTAB2
 70
     6
  9
$SURFTYPE
 70
     6
  9
$SURFU
 70
     6
  9
$SURFV
 70
     6
  9
$UCSNAME
  2

  9
$UCSORG
 10
0.0
 20
0.0
 30
0.0
  9
$UCSXDIR
 10
1.0
 20
0.0
 30
0.0
  9
$UCSYDIR
 10
0.0
 20
1.0
 30
0.0
  9
$PUCSNAME
  2

  9
$PUCSORG
 10
0.0
 20
0.0
 30
0.0
  9
$PUCSXDIR
 10
1.0
 20
0.0
 30
0.0
  9
$PUCSYDIR
 10
0.0
 20
1.0
 30
0.0
  9
$USERI1
 70
     4
  9
$USERI2
 70
     1
  9
$USERI3
 70
     0
  9
$USERI4
 70
     0
  9
$USERI5
 70
     0
  9
$USERR1
 40
1.0
  9
$USERR2
 40
3.0
  9
$USERR3
 40
3.0
  9
$USERR4
 40
3.0
  9
$USERR5
 40
10.0
  9
$WORLDVIEW
 70
     1
  9
$SHADEDGE
 70
     3
  9
$SHADEDIF
 70
    70
  9
$TILEMODE
 70
     1
  9
$MAXACTVP
 70
    16
  9
$PLIMCHECK
 70
     0
  9
$PEXTMIN
 10
1.0000000000000000E+020
 20
1.0000000000000000E+020
 30
1.0000000000000000E+020
  9
$PEXTMAX
 10
-1.0000000000000000E+020
 20
-1.0000000000000000E+020
 30
-1.0000000000000000E+020
  9
$PLIMMIN
 10
0.0
 20
0.0
  9
$PLIMMAX
 10
12.0
 20
9.0
  9
$UNITMODE
 70
     0
  9
$VISRETAIN
 70
     0
  9
$PLINEGEN
 70
     0
  9
$PSLTSCALE
 70
     1
  0
ENDSEC
  0
SECTION
  2
TABLES
  0
TABLE
  2
VPORT
 70
     1
  0
VPORT
  2
*ACTIVE
 70
     0
 10
0.0
 20
0.0
 11
1.0
 21
1.0
 12
137.49580415314509
 22
321.69567659754449
 13
0.0
 23
0.0
 14
5.0
 24
5.0
 15
0.0
 25
0.0
 16
0.0
 26
0.0
 36
1.0
 17
0.0
 27
0.0
 37
0.0
 40
655.48620204241922
 41
1.9089595375722539
 42
50.0
 43
0.0
 44
0.0
 50
0.0
 51
0.0
 71
     0
 72
   100
 73
     1
 74
     0
 75
     0
 76
     0
 77
     0
 78
     0
  0
ENDTAB
  0
TABLE
  2
LTYPE
 70
     2
  0
LTYPE
  2
CONTINUOUS
 70
     0
  3
Solid Line
 72
    65
 73
     0
 40
0.0
  0
LTYPE
  2
PHANTOM2
 70
     0
  3
___ _ _ ___ _ _ ___ _ _ ___ _ _
 72
    65
 73
     6
 40
1.25
 49
0.625
 49
-0.125
 49
0.125
 49
-0.125
 49
0.125
 49
-0.125
  0
ENDTAB
  0
TABLE
  2
LAYER
 70
     1
  0
LAYER
  2
0
 70
     0
 62
     7
  6
CONTINUOUS
  0
ENDTAB
  0
TABLE
  2
STYLE
 70
     2
  0
STYLE
  2
STANDARD
 70
     0
 40
0.0
 41
1.0
 50
0.0
 71
     0
 42
0.2
  3
SIMPLEX
  4
BIGFONT
  0
STYLE
  2
STANDARD1
 70
     0
 40
0.0
 41
1.0
 50
0.0
 71
     0
 42
3.0
  3
txt
  4

  0
ENDTAB
  0
TABLE
  2
VIEW
 70
     0
  0
ENDTAB
  0
TABLE
  2
UCS
 70
     0
  0
ENDTAB
  0
TABLE
  2
APPID
 70
     5
  0
APPID
  2
ACAD
 70
     0
  0
APPID
  2
GENIUS_GENODEF_13
 70
     0
  0
APPID
  2
GENIUS_GENOBJ-N-FIL_13
 70
     0
  0
APPID
  2
ACAD_MLEADERVER
 70
     0
  0
APPID
  2
ACAD_NAV_VCDISPLAY
 70
     0
  0
ENDTAB
  0
TABLE
  2
DIMSTYLE
 70
     1
  0
DIMSTYLE
  2
STANDARD
 70
     0
  3

  4

  5

  6

  7

 40
1.0
 41
0.18
 42
0.0625
 43
0.38
 44
0.18
 45
0.0
 46
0.0
 47
0.0
 48
0.0
140
0.18
141
0.09
142
0.0
143
25.399999999999999
144
1.0
145
0.0
146
1.0
147
0.09
 71
     0
 72
     0
 73
     1
 74
     1
 75
     0
 76
     0
 77
     0
 78
     0
170
     0
171
     2
172
     0
173
     0
174
     0
175
     0
176
     0
177
     0
178
     0
  0
ENDTAB
  0
ENDSEC
  0
SECTION
  2
BLOCKS
  0
BLOCK
  8
0
  2
$MODEL_SPACE
 70
     0
 10
0.0
 20
0.0
 30
0.0
  3
$MODEL_SPACE
  1

  0
ENDBLK
  5
566A
  8
0
  0
BLOCK
 67
     1
  8
0
  2
$PAPER_SPACE
 70
     0
 10
0.0
 20
0.0
 30
0.0
  3
$PAPER_SPACE
  1

  0
ENDBLK
  5
5668
 67
     1
  8
0
  0
ENDSEC
  0
SECTION
  2
ENTITIES
  0
LINE
  5
2347
  8
0
  6
CONTINUOUS
 62
     7
 10
178.357864872531
 20
506.01369410852311
 30
0.0
 11
178.357864872531
 21
486.013694108523
 31
0.0
  0
LINE
  5
2348
  8
0
  6
CONTINUOUS
 62
     7
 10
180.85786487253091
 20
487.513694108523
 30
0.0
 11
180.85786487253091
 21
504.513694108523
 31
0.0
1001
GENIUS_GENODEF_13
1002
{
1000
HIER
1070
     0
1002
}
1002
{
1000
MANEDIT
1070
     0
1002
}
1002
{
1000
NOSEL
1070
     0
1002
}
1002
{
1000
BEHIND
1070
     0
1002
}
1002
{
1000
REACTOR
1002
}
1001
GENIUS_GENOBJ-N-FIL_13
1002
{
1000
OWNER
1000
GEN
1002
}
  0
LINE
  5
234A
  8
0
  6
CONTINUOUS
 62
     7
 10
178.357864872531
 20
486.013694108523
 30
0.0
 11
179.357864872531
 21
486.013694108523
 31
0.0
  0
ARC
  5
2349
  8
0
  6
CONTINUOUS
 62
     7
 10
179.357864872531
 20
487.513694108523
 30
0.0
 40
1.5
 50
270.0
 51
0.0
  0
ARC
  5
234B
  8
0
  6
CONTINUOUS
 62
     7
 10
179.357864872531
 20
504.513694108523
 30
0.0
 40
1.5
 50
0.0
 51
90.0
1001
GENIUS_GENODEF_13
1002
{
1000
HIER
1070
     0
1002
}
1002
{
1000
MANEDIT
1070
     0
1002
}
1002
{
1000
NOSEL
1070
     0
1002
}
1002
{
1000
BEHIND
1070
     0
1002
}
1002
{
1000
REACTOR
1002
}
1001
GENIUS_GENOBJ-N-FIL_13
1002
{
1000
OWNER
1000
GEN
1002
}
  0
LINE
  5
234C
  8
0
  6
CONTINUOUS
 62
     7
 10
179.357864872531
 20
506.01369410852311
 30
0.0
 11
178.357864872531
 21
506.01369410852311
 31
0.0
  0
LINE
  5
2346
  8
0
  6
CONTINUOUS
 62
     3
 10
209.25282668169339
 20
487.513694108523
 30
0.0
 11
265.25282668169342
 21
487.513694108523
 31
0.0
  0
LINE
  5
2345
  8
0
  6
CONTINUOUS
 62
     3
 10
265.25282668169342
 20
504.513694108523
 30
0.0
 11
209.25282668169339
 21
504.513694108523
 31
0.0
  0
LINE
  5
2344
  8
0
  6
CONTINUOUS
 62
     7
 10
265.25282668169342
 20
506.01369410852311
 30
0.0
 11
209.25282668169339
 21
506.01369410852311
 31
0.0
  0
LINE
  5
2343
  8
0
  6
CONTINUOUS
 62
     7
 10
209.25282668169339
 20
486.013694108523
 30
0.0
 11
265.25282668169342
 21
486.013694108523
 31
0.0
  0
ARC
  5
234F
  8
0
  6
CONTINUOUS
 62
     7
 10
209.25282668169339
 20
488.013694108523
 30
0.0
 40
2.0
 50
180.0
 51
270.0
  0
ARC
  5
2350
  8
0
  6
CONTINUOUS
 62
     7
 10
209.25282668169339
 20
504.013694108523
 30
0.0
 40
2.0
 50
90.0
 51
180.0
  0
LINE
  5
234E
  8
0
  6
CONTINUOUS
 62
     3
 10
208.75282668169339
 20
504.013694108523
 30
0.0
 11
208.75282668169339
 21
488.013694108523
 31
0.0
  0
LINE
  5
234D
  8
0
  6
CONTINUOUS
 62
     7
 10
207.25282668169339
 20
504.013694108523
 30
0.0
 11
207.25282668169339
 21
488.013694108523
 31
0.0
  0
ARC
  5
2355
  8
0
  6
CONTINUOUS
 62
     7
 10
265.25282668169342
 20
488.013694108523
 30
0.0
 40
2.0
 50
270.0
 51
0.0
  0
ARC
  5
2356
  8
0
  6
CONTINUOUS
 62
     7
 10
265.25282668169342
 20
504.013694108523
 30
0.0
 40
2.0
 50
0.0
 51
90.0
  0
LINE
  5
2354
  8
0
  6
CONTINUOUS
 62
     3
 10
265.75282668169331
 20
488.013694108523
 30
0.0
 11
265.75282668169331
 21
504.013694108523
 31
0.0
  0
LINE
  5
2353
  8
0
  6
CONTINUOUS
 62
     7
 10
267.25282668169342
 20
488.013694108523
 30
0.0
 11
267.25282668169342
 21
504.013694108523
 31
0.0
  0
LINE
  5
2341
  8
0
  6
CONTINUOUS
 62
     7
 10
267.25282668169342
 20
531.4333923620552
 30
0.0
 11
207.25282668169339
 21
531.4333923620552
 31
0.0
  0
LINE
  5
2342
  8
0
  6
CONTINUOUS
 62
     7
 10
208.75282668169339
 20
528.93339236205532
 30
0.0
 11
265.75282668169331
 21
528.93339236205532
 31
0.0
1001
GENIUS_GENODEF_13
1002
{
1000
HIER
1070
     0
1002
}
1002
{
1000
MANEDIT
1070
     0
1002
}
1002
{
1000
NOSEL
1070
     0
1002
}
1002
{
1000
BEHIND
1070
     0
1002
}
1002
{
1000
REACTOR
1002
}
1001
GENIUS_GENOBJ-N-FIL_13
1002
{
1000
OWNER
1000
GEN
1002
}
  0
LINE
  5
2352
  8
0
  6
CONTINUOUS
 62
     7
 10
207.25282668169339
 20
531.4333923620552
 30
0.0
 11
207.25282668169339
 21
530.43339236205532
 31
0.0
  0
ARC
  5
2351
  8
0
  6
CONTINUOUS
 62
     7
 10
208.75282668169339
 20
530.43339236205532
 30
0.0
 40
1.5
 50
180.0
 51
270.0
  0
ARC
  5
2358
  8
0
  6
CONTINUOUS
 62
     7
 10
265.75282668169331
 20
530.43339236205532
 30
0.0
 40
1.5
 50
270.0
 51
0.0
1001
GENIUS_GENODEF_13
1002
{
1000
HIER
1070
     0
1002
}
1002
{
1000
MANEDIT
1070
     0
1002
}
1002
{
1000
NOSEL
1070
     0
1002
}
1002
{
1000
BEHIND
1070
     0
1002
}
1002
{
1000
REACTOR
1002
}
1001
GENIUS_GENOBJ-N-FIL_13
1002
{
1000
OWNER
1000
GEN
1002
}
  0
LINE
  5
2357
  8
0
  6
CONTINUOUS
 62
     7
 10
267.25282668169342
 20
530.43339236205532
 30
0.0
 11
267.25282668169342
 21
531.4333923620552
 31
0.0
  0
TEXT
  5
5719
  8
0
 62
     3
 10
0.0
 20
0.0
 30
0.0
 40
10.0
  1
L5-ECP6020
  7
STANDARD1
  0
ENDSEC
  0
EOF
