  0
SECTION
  2
HEADER
  9
$ACADVER
  1
AC1009
  9
$INSBASE
 10
0.0
 20
0.0
 30
0.0
  9
$EXTMIN
 10
0.0
 20
-2.960436562073669
 30
0.0
  9
$EXTMAX
 10
121.3747258058239
 20
121.37472580462961
 30
0.0
  9
$LIMMIN
 10
0.0
 20
0.0
  9
$LIMMAX
 10
275.0
 20
175.0
  9
$ORTHOMODE
 70
     1
  9
$REGENMODE
 70
     1
  9
$FILLMODE
 70
     1
  9
$QTEXTMODE
 70
     0
  9
$MIRRTEXT
 70
     0
  9
$DRAGMODE
 70
     2
  9
$LTSCALE
 40
5.0
  9
$OSMODE
 70
    37
  9
$ATTMODE
 70
     1
  9
$TEXTSIZE
 40
0.2
  9
$TRACEWID
 40
0.05
  9
$TEXTSTYLE
  7
STANDARD
  9
$CLAYER
  8
0
  9
$CELTYPE
  6
BYLAYER
  9
$CECOLOR
 62
   256
  9
$DIMSCALE
 40
1.0
  9
$DIMASZ
 40
3.0
  9
$DIMEXO
 40
0.0625
  9
$DIMDLI
 40
0.38
  9
$DIMRND
 40
0.0
  9
$DIMDLE
 40
0.0
  9
$DIMEXE
 40
0.18
  9
$DIMTP
 40
0.0
  9
$DIMTM
 40
0.0
  9
$DIMTXT
 40
3.0
  9
$DIMCEN
 40
0.09
  9
$DIMTSZ
 40
0.0
  9
$DIMTOL
 70
     0
  9
$DIMLIM
 70
     0
  9
$DIMTIH
 70
     0
  9
$DIMTOH
 70
     0
  9
$DIMSE1
 70
     0
  9
$DIMSE2
 70
     0
  9
$DIMTAD
 70
     1
  9
$DIMZIN
 70
     8
  9
$DIMBLK
  1

  9
$DIMASO
 70
     1
  9
$DIMSHO
 70
     1
  9
$DIMPOST
  1

  9
$DIMAPOST
  1

  9
$DIMALT
 70
     0
  9
$DIMALTD
 70
     2
  9
$DIMALTF
 40
25.399999999999999
  9
$DIMLFAC
 40
1.0
  9
$DIMTOFL
 70
     0
  9
$DIMTVP
 40
0.0
  9
$DIMTIX
 70
     0
  9
$DIMSOXD
 70
     0
  9
$DIMSAH
 70
     0
  9
$DIMBLK1
  1

  9
$DIMBLK2
  1

  9
$DIMSTYLE
  2
STANDARD
  9
$DIMCLRD
 70
     4
  9
$DIMCLRE
 70
     4
  9
$DIMCLRT
 70
     4
  9
$DIMTFAC
 40
1.0
  9
$DIMGAP
 40
1.0
  9
$LUNITS
 70
     2
  9
$LUPREC
 70
     1
  9
$SKETCHINC
 40
0.1
  9
$FILLETRAD
 40
2.0
  9
$AUNITS
 70
     0
  9
$AUPREC
 70
     0
  9
$MENU
  1
E:\r13\win\SUPPORT\ACAD
  9
$ELEVATION
 40
0.0
  9
$PELEVATION
 40
0.0
  9
$THICKNESS
 40
0.0
  9
$LIMCHECK
 70
     0
  9
$BLIPMODE
 70
     0
  9
$CHAMFERA
 40
0.0
  9
$CHAMFERB
 40
0.0
  9
$SKPOLY
 70
     0
  9
$TDCREATE
 40
2450445.4774082182
  9
$TDUPDATE
 40
2458009.4306591898
  9
$TDINDWG
 40
0.2732611921
  9
$TDUSRTIMER
 40
0.2732611921
  9
$USRTIMER
 70
     1
  9
$ANGBASE
 50
0.0
  9
$ANGDIR
 70
     0
  9
$PDMODE
 70
     0
  9
$PDSIZE
 40
0.0
  9
$PLINEWID
 40
0.0
  9
$COORDS
 70
     1
  9
$SPLFRAME
 70
     0
  9
$SPLINETYPE
 70
     6
  9
$SPLINESEGS
 70
     8
  9
$ATTDIA
 70
     0
  9
$ATTREQ
 70
     1
  9
$HANDLING
 70
     1
  9
$HANDSEED
  5
61D8E
  9
$SURFTAB1
 70
     6
  9
$SURFTAB2
 70
     6
  9
$SURFTYPE
 70
     6
  9
$SURFU
 70
     6
  9
$SURFV
 70
     6
  9
$UCSNAME
  2

  9
$UCSORG
 10
0.0
 20
0.0
 30
0.0
  9
$UCSXDIR
 10
1.0
 20
0.0
 30
0.0
  9
$UCSYDIR
 10
0.0
 20
1.0
 30
0.0
  9
$PUCSNAME
  2

  9
$PUCSORG
 10
0.0
 20
0.0
 30
0.0
  9
$PUCSXDIR
 10
1.0
 20
0.0
 30
0.0
  9
$PUCSYDIR
 10
0.0
 20
1.0
 30
0.0
  9
$USERI1
 70
     4
  9
$USERI2
 70
     1
  9
$USERI3
 70
     0
  9
$USERI4
 70
     0
  9
$USERI5
 70
     0
  9
$USERR1
 40
1.0
  9
$USERR2
 40
3.0
  9
$USERR3
 40
3.0
  9
$USERR4
 40
3.0
  9
$USERR5
 40
10.0
  9
$WORLDVIEW
 70
     1
  9
$SHADEDGE
 70
     3
  9
$SHADEDIF
 70
    70
  9
$TILEMODE
 70
     1
  9
$MAXACTVP
 70
    16
  9
$PLIMCHECK
 70
     0
  9
$PEXTMIN
 10
1.0000000000000000E+020
 20
1.0000000000000000E+020
 30
1.0000000000000000E+020
  9
$PEXTMAX
 10
-1.0000000000000000E+020
 20
-1.0000000000000000E+020
 30
-1.0000000000000000E+020
  9
$PLIMMIN
 10
0.0
 20
0.0
  9
$PLIMMAX
 10
12.0
 20
9.0
  9
$UNITMODE
 70
     0
  9
$VISRETAIN
 70
     0
  9
$PLINEGEN
 70
     0
  9
$PSLTSCALE
 70
     1
  0
ENDSEC
  0
SECTION
  2
TABLES
  0
TABLE
  2
VPORT
 70
     1
  0
VPORT
  2
*ACTIVE
 70
     0
 10
0.0
 20
0.0
 11
1.0
 21
1.0
 12
172.54273504273499
 22
95.0
 13
0.0
 23
0.0
 14
5.0
 24
5.0
 15
0.0
 25
0.0
 16
0.0
 26
0.0
 36
1.0
 17
0.0
 27
0.0
 37
0.0
 40
190.0
 41
1.816239316239316
 42
50.0
 43
0.0
 44
0.0
 50
0.0
 51
0.0
 71
     0
 72
   100
 73
     1
 74
     0
 75
     0
 76
     0
 77
     0
 78
     0
  0
ENDTAB
  0
TABLE
  2
LTYPE
 70
     3
  0
LTYPE
  2
CONTINUOUS
 70
     0
  3
Solid Line
 72
    65
 73
     0
 40
0.0
  0
LTYPE
  2
CENTER
 70
     0
  3
____ _ ____ _ ____ _ ____ _ ____ _ ____ _ ____
 72
    65
 73
     4
 40
2.0
 49
1.25
 49
-0.25
 49
0.25
 49
-0.25
  0
LTYPE
  2
PHANTOM2
 70
     0
  3
___ _ _ ___ _ _ ___ _ _ ___ _ _
 72
    65
 73
     6
 40
1.25
 49
0.625
 49
-0.125
 49
0.125
 49
-0.125
 49
0.125
 49
-0.125
  0
ENDTAB
  0
TABLE
  2
LAYER
 70
     2
  0
LAYER
  2
0
 70
     0
 62
     7
  6
CONTINUOUS
  0
LAYER
  2
1
 70
     0
 62
     1
  6
CENTER
  0
ENDTAB
  0
TABLE
  2
STYLE
 70
     2
  0
STYLE
  2
STANDARD
 70
     0
 40
0.0
 41
1.0
 50
0.0
 71
     0
 42
0.2
  3
SIMPLEX
  4
BIGFONT
  0
STYLE
  2
STANDARD1
 70
     0
 40
0.0
 41
1.0
 50
0.0
 71
     0
 42
3.0
  3
txt
  4

  0
ENDTAB
  0
TABLE
  2
VIEW
 70
     0
  0
ENDTAB
  0
TABLE
  2
UCS
 70
     0
  0
ENDTAB
  0
TABLE
  2
APPID
 70
     8
  0
APPID
  2
ACAD
 70
     0
  0
APPID
  2
ACAD_MLEADERVER
 70
     0
  0
APPID
  2
ACAD_NAV_VCDISPLAY
 70
     0
  0
APPID
  2
GENIUS_GENODEF_13
 70
     0
  0
APPID
  2
GENIUS_GENOBJ-N-FIL_13
 70
     0
  0
APPID
  2
ACAD_EXEMPT_FROM_CAD_STANDARDS
 70
     0
  0
APPID
  2
ACAD_DSTYLE_DIMJAG
 70
     0
  0
APPID
  2
ACAD_DSTYLE_DIMTALN
 70
     0
  0
ENDTAB
  0
TABLE
  2
DIMSTYLE
 70
     1
  0
DIMSTYLE
  2
STANDARD
 70
     0
  3

  4

  5

  6

  7

 40
1.0
 41
0.18
 42
0.0625
 43
0.38
 44
0.18
 45
0.0
 46
0.0
 47
0.0
 48
0.0
140
0.18
141
0.09
142
0.0
143
25.399999999999999
144
1.0
145
0.0
146
1.0
147
0.09
 71
     0
 72
     0
 73
     1
 74
     1
 75
     0
 76
     0
 77
     0
 78
     0
170
     0
171
     2
172
     0
173
     0
174
     0
175
     0
176
     0
177
     0
178
     0
  0
ENDTAB
  0
ENDSEC
  0
SECTION
  2
BLOCKS
  0
BLOCK
  8
0
  2
$MODEL_SPACE
 70
     0
 10
0.0
 20
0.0
 30
0.0
  3
$MODEL_SPACE
  1

  0
ENDBLK
  5
60F0B
  8
0
  0
BLOCK
 67
     1
  8
0
  2
$PAPER_SPACE
 70
     0
 10
0.0
 20
0.0
 30
0.0
  3
$PAPER_SPACE
  1

  0
ENDBLK
  5
60F09
 67
     1
  8
0
  0
ENDSEC
  0
SECTION
  2
ENTITIES
  0
ARC
  5
1FAC
  8
0
 10
32.539487757903451
 20
31.5
 30
0.0
 40
1.5
 50
224.99999999999969
 51
314.99999999596889
  0
LINE
  5
1F9A
  8
0
 10
70.22827919510452
 20
70.603004999734367
 30
0.0
 11
30.771720804895281
 21
31.146446609524901
 31
0.0
  0
LINE
  5
1F9B
  8
0
 10
70.935385977603644
 20
67.774577871016234
 30
0.0
 11
33.600147929609207
 21
30.43933982814497
 31
0.0
  0
LINE
  5
1F9D
  8
0
 10
69.500000000000014
 20
71.374725804629634
 30
0.0
 11
31.000000000000011
 21
71.374725804629634
 31
0.0
  0
LINE
  5
1F9E
  8
0
 10
30.000000000000021
 20
70.374725804629634
 30
0.0
 11
29.999999999999901
 21
31.874725804629641
 31
0.0
  0
ARC
  5
1FA0
  8
0
 10
30.500000000000021
 20
31.874725804629641
 30
0.0
 40
0.5
 50
180.0
 51
270.0
  0
LINE
  5
1FA1
  8
0
 10
31.000000000000011
 20
31.374725804629641
 30
0.0
 11
30.500000000000021
 21
31.374725804629641
 31
0.0
  0
LINE
  5
1F9F
  8
0
 10
31.478827586123561
 20
30.439339828220231
 30
0.0
 11
30.771720804897331
 21
31.146446609522851
 31
0.0
  0
ARC
  5
1FAE
  8
0
 10
31.000000000000011
 20
70.374725804629634
 30
0.0
 40
1.0
 50
90.0
 51
180.0
  0
ARC
  5
1FB5
  8
0
 10
69.874725805823815
 20
68.835238042796036
 30
0.0
 40
1.5
 50
315.00000000000023
 51
45.00000000000059
  0
LINE
  5
1FB1
  8
0
 10
51.015075759508207
 20
71.667619023443123
 30
0.0
 11
51.72218254069476
 21
72.374725804629648
 31
0.0
  0
LINE
  5
1FB3
  8
1
 10
52.722182540694817
 20
70.667619023443095
 30
0.0
 11
50.66152236891493
 21
72.728279195222939
 31
0.0
  0
LINE
  5
1FB2
  8
0
 10
51.288203104679191
 20
71.374725804629634
 30
0.0
 11
51.015075759508207
 21
71.667619023443123
 31
0.0
  0
LINE
  5
1FB4
  8
0
 10
52.79455125071938
 20
71.374725804629648
 30
0.0
 11
51.72218254069476
 21
72.374725804629648
 31
0.0
  0
LINE
  5
1FB9
  8
0
 10
65.707106781186539
 20
72.374725804629648
 30
0.0
 11
64.999999999999986
 21
71.667619023443095
 31
0.0
  0
LINE
  5
1FB7
  8
1
 10
66.707106781186511
 20
70.667619023443123
 30
0.0
 11
64.646446609406624
 21
72.728279195222839
 31
0.0
  0
LINE
  5
1FB8
  8
0
 10
65.273127345170948
 20
71.374725804629648
 30
0.0
 11
64.999999999999986
 21
71.667619023443095
 31
0.0
  0
LINE
  5
1FB6
  8
0
 10
66.77947549121113
 20
71.374725804629634
 30
0.0
 11
65.707106781186539
 21
72.374725804629648
 31
0.0
  0
LINE
  5
1FBB
  8
0
 10
70.000000000000014
 20
70.374725804629634
 30
0.0
 11
70.000000000000014
 21
70.874725804629634
 31
0.0
  0
LINE
  5
1FBA
  8
0
 10
70.935385977603588
 20
69.895898214575823
 30
0.0
 11
70.228279195035284
 21
70.603004999803602
 31
0.0
  0
ARC
  5
1FBD
  8
0
 10
69.500000000000014
 20
70.874725804629634
 30
0.0
 40
0.5
 50
0.0
 51
90.0
  0
ARC
  5
1FD0
  8
0
 10
119.3747258058237
 20
32.0
 30
0.0
 40
2.0
 50
270.0
 51
0.0
  0
ARC
  5
1FC6
  8
0
 10
103.3747258058239
 20
32.0
 30
0.0
 40
2.0
 50
180.0
 51
270.0
  0
LINE
  5
1FC1
  8
1
 10
111.3747258058238
 20
27.0
 30
0.0
 11
111.3747258058238
 21
75.374725804629662
 31
0.0
  0
LINE
  5
1FC0
  8
0
 10
119.3747258058237
 20
30.0
 30
0.0
 11
103.3747258058239
 21
30.0
 31
0.0
  0
LINE
  5
1FCF
  8
0
 10
121.3747258058238
 20
32.0
 30
0.0
 11
121.3747258058238
 21
69.674725804629588
 31
0.0
  0
LINE
  5
1FC3
  8
0
 10
101.3747258058238
 20
69.674725804629702
 30
0.0
 11
101.3747258058238
 21
32.0
 31
0.0
  0
LINE
  5
1FCA
  8
0
 10
113.8747258058238
 20
72.374725804629648
 30
0.0
 11
108.8747258058238
 21
72.374725804629648
 31
0.0
  0
LINE
  5
1FBF
  8
0
 10
119.6747258058239
 20
71.374725804629634
 30
0.0
 11
103.0747258058238
 21
71.374725804629634
 31
0.0
  0
LINE
  5
1FBE
  8
0
 10
119.3747258058238
 20
70.603004999734367
 30
0.0
 11
103.3747258058237
 21
70.603004999734367
 31
0.0
  0
ARC
  5
1FC9
  8
0
 10
103.0747258058238
 20
69.674725804629702
 30
0.0
 40
1.7
 50
90.0
 51
180.0
  0
ARC
  5
1FC7
  8
0
 10
103.3747258058237
 20
68.603004999734367
 30
0.0
 40
2.0
 50
90.0
 51
180.0
  0
LINE
  5
1FCB
  8
0
 10
108.8747258058238
 20
71.374725804629634
 30
0.0
 11
108.8747258058238
 21
72.374725804629648
 31
0.0
  0
ARC
  5
1FD5
  8
0
 10
119.6747258058239
 20
69.674725804629588
 30
0.0
 40
1.7
 50
0.0
 51
90.0
  0
ARC
  5
1FD3
  8
0
 10
119.3747258058238
 20
68.603004999734367
 30
0.0
 40
2.0
 50
0.0
 51
90.0
  0
LINE
  5
1FCC
  8
0
 10
113.8747258058238
 20
71.374725804629634
 30
0.0
 11
113.8747258058238
 21
72.374725804629648
 31
0.0
  0
TEXT
  5
60FBC
  8
0
 62
     3
 10
0.0
 20
0.0
 30
0.0
 40
10.0
  1
L5-BZN40
  7
STANDARD1
  0
LINE
  5
61828
  8
0
 10
29.999999999999972
 20
119.6747258046296
 30
0.0
 11
29.999999999999972
 21
103.07472580462959
 31
0.0
  0
LINE
  5
61829
  8
0
 10
70.000000000000014
 20
119.6747258046296
 30
0.0
 11
70.000000000000014
 21
103.07472580462959
 31
0.0
  0
LINE
  5
6182A
  8
0
 10
71.374725805823815
 20
119.37472580462961
 30
0.0
 11
71.374725805823815
 21
103.37472580462961
 31
0.0
  0
LINE
  5
6183C
  8
0
 10
31.699999999999982
 20
121.37472580462961
 30
0.0
 11
69.374725805823815
 21
121.37472580462961
 31
0.0
  0
LINE
  5
6183D
  8
0
 10
31.699999999999982
 20
101.37472580462961
 30
0.0
 11
69.374725805823815
 21
101.37472580462961
 31
0.0
  0
ARC
  5
61841
  8
0
 10
31.699999999999982
 20
119.6747258046296
 30
0.0
 40
1.7
 50
90.0
 51
180.0
  0
ARC
  5
61844
  8
0
 10
31.699999999999982
 20
103.07472580462959
 30
0.0
 40
1.7
 50
180.0
 51
270.0
  0
ARC
  5
61845
  8
0
 10
68.300000000000026
 20
119.6747258046296
 30
0.0
 40
1.7
 50
0.0
 51
90.0
  0
ARC
  5
61846
  8
0
 10
68.300000000000026
 20
103.07472580462959
 30
0.0
 40
1.7
 50
270.0
 51
0.0
  0
ARC
  5
61847
  8
0
 10
69.374725805823815
 20
119.37472580462961
 30
0.0
 40
2.0
 50
0.0
 51
90.0
  0
ARC
  5
61848
  8
0
 10
69.374725805823815
 20
103.37472580462961
 30
0.0
 40
2.0
 50
270.0
 51
0.0
  0
LINE
  5
61849
  8
1
 10
74.374725805823815
 20
111.37472580462961
 30
0.0
 11
25.999999997156419
 21
111.37472580462961
 31
0.0
  0
LINE
  5
6189E
  8
0
 10
29.70710677844
 20
50.359650045298913
 30
0.0
 11
28.99999999715644
 21
49.652543264209392
 31
0.0
  0
LINE
  5
6189F
  8
0
 10
29.999999997216001
 20
50.086522700087698
 30
0.0
 11
29.70710677844
 21
50.359650045298913
 31
0.0
  0
LINE
  5
618A0
  8
1
 10
30.707106781089479
 20
48.652543261091367
 30
0.0
 11
28.646446606708668
 21
50.713203436037688
 31
0.0
  0
LINE
  5
618A1
  8
0
 10
29.99999999700929
 20
48.580174554047517
 30
0.0
 11
28.99999999715644
 21
49.652543264209392
 31
0.0
  0
LINE
  5
618A2
  8
0
 10
29.999999995090221
 20
34.595250313555773
 30
0.0
 11
28.99999999523736
 21
35.667619023717613
 31
0.0
  0
LINE
  5
618A3
  8
1
 10
30.70710678108944
 20
34.667619018680647
 30
0.0
 11
28.646446604789649
 21
36.728279195545952
 31
0.0
  0
LINE
  5
618A4
  8
0
 10
29.999999995296921
 20
36.101598459595948
 30
0.0
 11
29.707106776520948
 21
36.374725804807127
 31
0.0
  0
LINE
  5
618A5
  8
0
 10
28.99999999523736
 20
35.667619023717613
 30
0.0
 11
29.707106776520948
 21
36.374725804807127
 31
0.0
  0
LINE
  5
618F0
  8
0
 10
28.99999999715644
 20
113.87472580462961
 30
0.0
 11
29.999999999999989
 21
113.87472580462961
 31
0.0
  0
LINE
  5
618F1
  8
0
 10
28.999999997156451
 20
108.87472580462961
 30
0.0
 11
29.999999999999989
 21
108.87472580462961
 31
0.0
  0
LINE
  5
618F2
  8
0
 10
28.99999999715644
 20
108.87472580462961
 30
0.0
 11
28.99999999715644
 21
113.87472580462961
 31
0.0
  0
LINE
  5
618F3
  8
0
 10
29.70710677844
 20
113.87472580462961
 30
0.0
 11
29.70710677844
 21
108.87472580462961
 31
0.0
  0
LINE
  5
61905
  8
1
 10
40.000000000000178
 20
116.5247258046296
 30
0.0
 11
40.000000000000149
 21
106.2247258046296
 31
0.0
  0
LINE
  5
61906
  8
1
 10
28.499999999999989
 20
61.374725804629627
 30
0.0
 11
33.499999999999993
 21
61.374725804629627
 31
0.0
  0
LINE
  5
61907
  8
1
 10
60.000000000000178
 20
116.5247258046296
 30
0.0
 11
60.000000000000149
 21
106.2247258046296
 31
0.0
  0
LINE
  5
61908
  8
1
 10
28.499999999999929
 20
41.374725804629627
 30
0.0
 11
33.499999999999929
 21
41.374725804629627
 31
0.0
  0
CIRCLE
  5
61909
  8
0
 10
40.000000000000149
 20
111.37472580462961
 30
0.0
 40
2.649999999999999
  0
CIRCLE
  5
6190A
  8
0
 10
60.000000000000149
 20
111.37472580462961
 30
0.0
 40
2.649999999999999
  0
LINE
  5
61910
  8
1
 10
60.000000000000007
 20
72.874725804629634
 30
0.0
 11
59.999999999999993
 21
67.874725804629634
 31
0.0
  0
LINE
  5
61911
  8
1
 10
40.000000000000007
 20
72.874725804629634
 30
0.0
 11
39.999999999999993
 21
67.874725804629634
 31
0.0
  0
LINE
  5
61916
  8
0
 10
33.999999999999957
 20
118.87472580462961
 30
0.0
 11
33.999999999999957
 21
103.87472580462961
 31
0.0
  0
LINE
  5
61917
  8
0
 10
29.999999999999961
 20
119.37472580462961
 30
0.0
 11
33.999999999999957
 21
118.87472580462961
 31
0.0
  0
LINE
  5
61918
  8
0
 10
33.999999999999957
 20
103.87472580462961
 30
0.0
 11
29.999999999999961
 21
103.37472580462961
 31
0.0
  0
LINE
  5
61922
  8
0
 10
65.000000000000043
 20
113.87472580462961
 30
0.0
 11
65.000000000000043
 21
108.87472580462961
 31
0.0
  0
LINE
  5
61923
  8
0
 10
65.707106781186596
 20
113.87472580462961
 30
0.0
 11
65.707106781186596
 21
108.87472580462961
 31
0.0
  0
LINE
  5
61924
  8
0
 10
66.77947549121113
 20
113.87472580462961
 30
0.0
 11
66.77947549121113
 21
108.87472580462961
 31
0.0
  0
LINE
  5
61925
  8
0
 10
66.77947549121113
 20
113.87472580462961
 30
0.0
 11
65.000000000000043
 21
113.87472580462961
 31
0.0
  0
LINE
  5
61926
  8
0
 10
66.77947549121113
 20
108.87472580462961
 30
0.0
 11
65.000000000000043
 21
108.87472580462961
 31
0.0
  0
LINE
  5
61927
  8
0
 10
68.000000000000043
 20
114.87472580462961
 30
0.0
 11
64.500000000000043
 21
114.87472580462961
 31
0.0
  0
LINE
  5
61928
  8
0
 10
68.000000000000043
 20
107.87472580462961
 30
0.0
 11
64.500000000000043
 21
107.87472580462961
 31
0.0
  0
LINE
  5
61929
  8
0
 10
68.000000000000043
 20
114.87472580462961
 30
0.0
 11
68.000000000000043
 21
107.87472580462961
 31
0.0
  0
LINE
  5
6192A
  8
0
 10
64.500000000000043
 20
114.87472580462961
 30
0.0
 11
64.500000000000043
 21
107.87472580462961
 31
0.0
  0
LINE
  5
6192B
  8
0
 10
51.01507575950837
 20
113.87472580462961
 30
0.0
 11
51.01507575950837
 21
108.87472580462961
 31
0.0
  0
LINE
  5
6192C
  8
0
 10
51.722182540694931
 20
113.87472580462961
 30
0.0
 11
51.722182540694931
 21
108.87472580462961
 31
0.0
  0
LINE
  5
6192D
  8
0
 10
52.794551250719472
 20
113.87472580462961
 30
0.0
 11
52.794551250719472
 21
108.87472580462961
 31
0.0
  0
LINE
  5
6192E
  8
0
 10
52.794551250719472
 20
113.87472580462961
 30
0.0
 11
51.01507575950837
 21
113.87472580462961
 31
0.0
  0
LINE
  5
6192F
  8
0
 10
52.794551250719472
 20
108.87472580462961
 30
0.0
 11
51.01507575950837
 21
108.87472580462961
 31
0.0
  0
LINE
  5
61930
  8
0
 10
54.01507575950837
 20
114.87472580462961
 30
0.0
 11
50.515075759508377
 21
114.87472580462961
 31
0.0
  0
LINE
  5
61931
  8
0
 10
54.01507575950837
 20
107.87472580462961
 30
0.0
 11
50.515075759508377
 21
107.87472580462961
 31
0.0
  0
LINE
  5
61932
  8
0
 10
54.01507575950837
 20
114.87472580462961
 30
0.0
 11
54.01507575950837
 21
107.87472580462961
 31
0.0
  0
LINE
  5
61933
  8
0
 10
50.515075759508377
 20
114.87472580462961
 30
0.0
 11
50.515075759508377
 21
107.87472580462961
 31
0.0
  0
ENDSEC
  0
EOF
