  0
SECTION
  2
HEADER
  9
$ACADVER
  1
AC1009
  9
$INSBASE
 10
0.0
 20
0.0
 30
0.0
  9
$EXTMIN
 10
0.0
 20
-2.960436562073669
 30
0.0
  9
$EXTMAX
 10
131.36654057755189
 20
123.63210113517211
 30
0.0
  9
$LIMMIN
 10
0.0
 20
0.0
  9
$LIMMAX
 10
375.0
 20
278.0
  9
$ORTHOMODE
 70
     1
  9
$REGENMODE
 70
     1
  9
$FILLMODE
 70
     1
  9
$QTEXTMODE
 70
     0
  9
$MIRRTEXT
 70
     0
  9
$DRAGMODE
 70
     2
  9
$LTSCALE
 40
10.0
  9
$OSMODE
 70
  3071
  9
$ATTMODE
 70
     1
  9
$TEXTSIZE
 40
0.2
  9
$TRACEWID
 40
0.05
  9
$TEXTSTYLE
  7
STANDARD
  9
$CLAYER
  8
0
  9
$CELTYPE
  6
BYLAYER
  9
$CECOLOR
 62
   256
  9
$DIMSCALE
 40
1.0
  9
$DIMASZ
 40
3.0
  9
$DIMEXO
 40
1.0
  9
$DIMDLI
 40
6.0
  9
$DIMRND
 40
0.0
  9
$DIMDLE
 40
0.0
  9
$DIMEXE
 40
1.0
  9
$DIMTP
 40
495.0
  9
$DIMTM
 40
0.0
  9
$DIMTXT
 40
3.0
  9
$DIMCEN
 40
0.0
  9
$DIMTSZ
 40
0.0
  9
$DIMTOL
 70
     0
  9
$DIMLIM
 70
     0
  9
$DIMTIH
 70
     0
  9
$DIMTOH
 70
     0
  9
$DIMSE1
 70
     0
  9
$DIMSE2
 70
     0
  9
$DIMTAD
 70
     1
  9
$DIMZIN
 70
     0
  9
$DIMBLK
  1

  9
$DIMASO
 70
     0
  9
$DIMSHO
 70
     0
  9
$DIMPOST
  1

  9
$DIMAPOST
  1

  9
$DIMALT
 70
     0
  9
$DIMALTD
 70
     2
  9
$DIMALTF
 40
25.399999999999999
  9
$DIMLFAC
 40
1.0
  9
$DIMTOFL
 70
     1
  9
$DIMTVP
 40
0.0
  9
$DIMTIX
 70
     1
  9
$DIMSOXD
 70
     0
  9
$DIMSAH
 70
     0
  9
$DIMBLK1
  1

  9
$DIMBLK2
  1

  9
$DIMSTYLE
  2
STANDARD
  9
$DIMCLRD
 70
     0
  9
$DIMCLRE
 70
     0
  9
$DIMCLRT
 70
     4
  9
$DIMTFAC
 40
1.0
  9
$DIMGAP
 40
1.0
  9
$LUNITS
 70
     2
  9
$LUPREC
 70
     4
  9
$SKETCHINC
 40
0.1
  9
$FILLETRAD
 40
0.0
  9
$AUNITS
 70
     0
  9
$AUPREC
 70
     0
  9
$MENU
  1
C:\R13\WIN\SUPPORT\ACAD-I
  9
$ELEVATION
 40
0.0
  9
$PELEVATION
 40
0.0
  9
$THICKNESS
 40
0.0
  9
$LIMCHECK
 70
     0
  9
$BLIPMODE
 70
     0
  9
$CHAMFERA
 40
0.0
  9
$CHAMFERB
 40
0.0
  9
$SKPOLY
 70
     0
  9
$TDCREATE
 40
2450834.4199027782
  9
$TDUPDATE
 40
2456597.5462863999
  9
$TDINDWG
 40
0.0518256481
  9
$TDUSRTIMER
 40
0.0518256481
  9
$USRTIMER
 70
     1
  9
$ANGBASE
 50
0.0
  9
$ANGDIR
 70
     0
  9
$PDMODE
 70
     0
  9
$PDSIZE
 40
0.0
  9
$PLINEWID
 40
0.0
  9
$COORDS
 70
     1
  9
$SPLFRAME
 70
     0
  9
$SPLINETYPE
 70
     6
  9
$SPLINESEGS
 70
     8
  9
$ATTDIA
 70
     0
  9
$ATTREQ
 70
     1
  9
$HANDLING
 70
     1
  9
$HANDSEED
  5
1180
  9
$SURFTAB1
 70
     6
  9
$SURFTAB2
 70
     6
  9
$SURFTYPE
 70
     6
  9
$SURFU
 70
     6
  9
$SURFV
 70
     6
  9
$UCSNAME
  2

  9
$UCSORG
 10
0.0
 20
0.0
 30
0.0
  9
$UCSXDIR
 10
1.0
 20
0.0
 30
0.0
  9
$UCSYDIR
 10
0.0
 20
1.0
 30
0.0
  9
$PUCSNAME
  2

  9
$PUCSORG
 10
0.0
 20
0.0
 30
0.0
  9
$PUCSXDIR
 10
1.0
 20
0.0
 30
0.0
  9
$PUCSYDIR
 10
0.0
 20
1.0
 30
0.0
  9
$USERI1
 70
     4
  9
$USERI2
 70
     1
  9
$USERI3
 70
     0
  9
$USERI4
 70
     0
  9
$USERI5
 70
     0
  9
$USERR1
 40
1.0
  9
$USERR2
 40
3.0
  9
$USERR3
 40
3.0
  9
$USERR4
 40
3.0
  9
$USERR5
 40
10.0
  9
$WORLDVIEW
 70
     1
  9
$SHADEDGE
 70
     3
  9
$SHADEDIF
 70
    70
  9
$TILEMODE
 70
     1
  9
$MAXACTVP
 70
    16
  9
$PLIMCHECK
 70
     0
  9
$PEXTMIN
 10
1.0000000000000000E+020
 20
1.0000000000000000E+020
 30
1.0000000000000000E+020
  9
$PEXTMAX
 10
-1.0000000000000000E+020
 20
-1.0000000000000000E+020
 30
-1.0000000000000000E+020
  9
$PLIMMIN
 10
0.0
 20
0.0
  9
$PLIMMAX
 10
12.0
 20
9.0
  9
$UNITMODE
 70
     0
  9
$VISRETAIN
 70
     0
  9
$PLINEGEN
 70
     0
  9
$PSLTSCALE
 70
     0
  0
ENDSEC
  0
SECTION
  2
TABLES
  0
TABLE
  2
VPORT
 70
     1
  0
VPORT
  2
*ACTIVE
 70
     0
 10
0.0
 20
0.0
 11
1.0
 21
1.0
 12
187.4942783906524
 22
167.7204668657281
 13
0.0
 23
0.0
 14
10.0
 24
10.0
 15
10.0
 25
10.0
 16
0.0
 26
0.0
 36
1.0
 17
0.0
 27
0.0
 37
0.0
 40
344.62625130655709
 41
1.9089595375722539
 42
50.0
 43
0.0
 44
0.0
 50
0.0
 51
0.0
 71
     0
 72
   100
 73
     1
 74
     0
 75
     0
 76
     0
 77
     0
 78
     0
  0
ENDTAB
  0
TABLE
  2
LTYPE
 70
     3
  0
LTYPE
  2
CONTINUOUS
 70
     0
  3
Solid Line
 72
    65
 73
     0
 40
0.0
  0
LTYPE
  2
CENTER
 70
     0
  3
____ _ ____ _ ____ _ ____ _ ____ _ ____ _ ____
 72
    65
 73
     4
 40
2.0
 49
1.25
 49
-0.25
 49
0.25
 49
-0.25
  0
LTYPE
  2
PHANTOM2
 70
     0
  3
___ _ _ ___ _ _ ___ _ _ ___ _ _
 72
    65
 73
     6
 40
1.25
 49
0.625
 49
-0.125
 49
0.125
 49
-0.125
 49
0.125
 49
-0.125
  0
ENDTAB
  0
TABLE
  2
LAYER
 70
     3
  0
LAYER
  2
0
 70
     0
 62
     7
  6
CONTINUOUS
  0
LAYER
  2
1
 70
     0
 62
     1
  6
CENTER
  0
LAYER
  2
3
 70
     0
 62
     3
  6
CONTINUOUS
  0
ENDTAB
  0
TABLE
  2
STYLE
 70
     2
  0
STYLE
  2
STANDARD
 70
     0
 40
0.0
 41
1.0
 50
0.0
 71
     0
 42
0.2
  3
SIMPLEX
  4
BIGFONT
  0
STYLE
  2
STANDARD1
 70
     0
 40
0.0
 41
1.0
 50
0.0
 71
     0
 42
3.0
  3
txt
  4

  0
ENDTAB
  0
TABLE
  2
VIEW
 70
     0
  0
ENDTAB
  0
TABLE
  2
UCS
 70
     0
  0
ENDTAB
  0
TABLE
  2
APPID
 70
    30
  0
APPID
  2
ACAD
 70
     0
  0
APPID
  2
GENIUS_GENOBJ_13
 70
     0
  0
APPID
  2
GENIUS_GENODEF_13
 70
     0
  0
APPID
  2
GENIUS_GENOENT_13
 70
     0
  0
APPID
  2
GENIUS_GENOLIS_13
 70
     0
  0
APPID
  2
GENIUS_GENOREF_13
 70
     0
  0
APPID
  2
GENIUS_GENOBJ-N-TIT_13
 70
     0
  0
APPID
  2
GENIUS_GENTITLE_13
 70
     0
  0
APPID
  2
GENIUS_GENZVEED_13
 70
     0
  0
APPID
  2
GENIUS_GENOBJ-N-FIL_13
 70
     0
  0
APPID
  2
GENIUS_GENOBJ-N-CRS_13
 70
     0
  0
APPID
  2
GENIUS_GEFINERT_13
 70
     0
  0
APPID
  2
GENIUS_GENOBJ-F-INER_13
 70
     0
  0
APPID
  2
GENIUS_GENOBJ-N-ZOO_13
 70
     0
  0
APPID
  2
GENIUS_GENZOO_13
 70
     0
  0
APPID
  2
GENIUS_GENOBJ-F-TOL_13
 70
     0
  0
APPID
  2
GENIUS_GENOBJ-N-RSSYM_13
 70
     0
  0
APPID
  2
GENIUS_GENSYMENT_13
 70
     0
  0
APPID
  2
GENIUS_GENBH_13
 70
     0
  0
APPID
  2
GENIUS_GENOBJ-NBEHI-BHF_13
 70
     0
  0
APPID
  2
GENIUS_GENOBJ-NBEHI-BHB_13
 70
     0
  0
APPID
  2
GENIUS_GENOBJ-F-PART_13
 70
     0
  0
APPID
  2
GENIUS_GEFSTDP_13
 70
     0
  0
APPID
  2
GENIUS_GENOBJ-N-LEADER_13
 70
     0
  0
APPID
  2
GENIUS_GENOBJ-N-REV_13
 70
     0
  0
APPID
  2
GENIUS_GENDTOL_13
 70
     0
  0
APPID
  2
GENIUS_GENOBJ-N-REC_13
 70
     0
  0
APPID
  2
ACAD_EXEMPT_FROM_CAD_STANDARDS
 70
     0
  0
APPID
  2
ACAD_MLEADERVER
 70
     0
  0
APPID
  2
ACAD_NAV_VCDISPLAY
 70
     0
  0
ENDTAB
  0
TABLE
  2
DIMSTYLE
 70
     1
  0
DIMSTYLE
  2
STANDARD
 70
     0
  3

  4

  5

  6

  7

 40
1.0
 41
0.18
 42
0.0625
 43
0.38
 44
0.18
 45
0.0
 46
0.0
 47
0.0
 48
0.0
140
0.18
141
0.09
142
0.0
143
25.399999999999999
144
1.0
145
0.0
146
1.0
147
0.09
 71
     0
 72
     0
 73
     1
 74
     1
 75
     0
 76
     0
 77
     0
 78
     0
170
     0
171
     2
172
     0
173
     0
174
     0
175
     0
176
     0
177
     0
178
     0
  0
ENDTAB
  0
ENDSEC
  0
SECTION
  2
BLOCKS
  0
BLOCK
  8
0
  2
$MODEL_SPACE
 70
     0
 10
0.0
 20
0.0
 30
0.0
  3
$MODEL_SPACE
  1

  0
ENDBLK
  5
FC7
  8
0
  0
BLOCK
 67
     1
  8
0
  2
$PAPER_SPACE
 70
     0
 10
0.0
 20
0.0
 30
0.0
  3
$PAPER_SPACE
  1

  0
ENDBLK
  5
FC5
 67
     1
  8
0
  0
ENDSEC
  0
SECTION
  2
ENTITIES
  0
ARC
  5
AFA
  8
0
 10
69.216804936211531
 20
62.876674162874139
 30
0.0
 40
5.75
 50
302.88840004972201
 51
237.1115999503553
  0
ARC
  5
AFB
  8
0
 10
69.216804936211531
 20
62.876674162874139
 30
0.0
 40
8.0000000000001101
 50
0.0
 51
180.0
  0
ARC
  5
AFC
  8
0
 10
69.216804936211531
 20
62.876674162874139
 30
0.0
 40
6.5
 50
0.0000000000578098
 51
180.00000000005781
  0
CIRCLE
  5
AFD
  8
0
 10
69.216804936211531
 20
62.876674162874139
 30
0.0
 40
2.0
  0
ARC
  5
AFE
  8
0
 10
69.216804936211531
 20
62.876674162874139
 30
0.0
 40
4.75
 50
295.31023781886938
 51
244.6897621812052
  0
LINE
  5
B01
  8
0
 10
74.966804936211531
 20
56.376674162872213
 30
0.0
 11
63.466804936211531
 21
56.376674162872227
 31
0.0
  0
LINE
  5
B02
  8
0
 10
67.316804936218062
 20
58.626674162872227
 30
0.0
 11
71.116804936218074
 21
58.626674162872227
 31
0.0
  0
LINE
  5
B04
  8
0
 10
61.716804936221081
 20
52.876674162874139
 30
0.0
 11
76.716804936221081
 21
52.876674162874139
 31
0.0
  0
LINE
  5
B05
  8
0
 10
63.216804936218068
 20
55.876674162871858
 30
0.0
 11
75.216804936218068
 21
55.876674162871893
 31
0.0
  0
LINE
  5
B06
  8
0
 10
63.466804936211531
 20
56.376674162872227
 30
0.0
 11
63.466804936211531
 21
55.876674162871893
 31
0.0
  0
ARC
  5
B07
  8
0
 10
63.216804936218068
 20
56.3766741628719
 30
0.0
 40
0.5
 50
180.00000000005741
 51
270.0
1001
GENIUS_GENODEF_13
1002
{
1000
HIER
1070
     0
1002
}
1002
{
1000
MANEDIT
1070
     0
1002
}
1002
{
1000
NOSEL
1070
     0
1002
}
1002
{
1000
BEHIND
1070
     0
1002
}
1002
{
1000
REACTOR
1002
}
1001
GENIUS_GENOBJ-N-FIL_13
1002
{
1000
OWNER
1000
GEN
1002
}
  0
LINE
  5
B08
  8
0
 10
61.216804936211531
 20
62.876674162879588
 30
0.0
 11
61.216804936221081
 21
53.376674162873627
 31
0.0
  0
LINE
  5
B09
  8
1
 10
69.216804936211531
 20
73.37667416287448
 30
0.0
 11
69.216804936211531
 21
43.576686099958359
 31
0.0
1001
GENIUS_GENOREF_13
1005
0
  0
ARC
  5
B0A
  8
0
 10
61.716804936221081
 20
53.376674162874139
 30
0.0
 40
0.5
 50
180.00000000005741
 51
270.0
1001
GENIUS_GENODEF_13
1002
{
1000
HIER
1070
     0
1002
}
1002
{
1000
MANEDIT
1070
     0
1002
}
1002
{
1000
NOSEL
1070
     0
1002
}
1002
{
1000
BEHIND
1070
     0
1002
}
1002
{
1000
REACTOR
1002
}
1001
GENIUS_GENOBJ-N-FIL_13
1002
{
1000
OWNER
1000
GEN
1002
}
  0
LINE
  5
B0B
  8
3
 10
67.286804936218076
 20
52.876674162874139
 30
0.0
 11
67.286804936218118
 21
51.296604925688307
 31
0.0
  0
LINE
  5
B0C
  8
0
 10
66.716804936218054
 20
52.876674162874139
 30
0.0
 11
66.71680546436761
 21
51.176686037822648
 31
0.0
  0
LINE
  5
B15
  8
1
 10
79.716804936211872
 20
62.876674162874139
 30
0.0
 11
58.71680493621119
 21
62.876674162874139
 31
0.0
1001
GENIUS_GENOREF_13
1005
0
  0
LINE
  5
B16
  8
0
 10
70.716804936211531
 20
62.01064875908969
 30
0.0
 11
70.716804936211531
 21
63.742699566658551
 31
0.0
  0
LINE
  5
B17
  8
0
 10
67.716804936211531
 20
62.01064875908969
 30
0.0
 11
69.216804936211531
 21
61.144623355305271
 31
0.0
  0
LINE
  5
B18
  8
0
 10
62.716804936211531
 20
62.876674162881102
 30
0.0
 11
62.716804936218068
 21
56.37667416287141
 31
0.0
  0
ARC
  5
B19
  8
0
 10
68.911180295415221
 20
53.677132041222499
 30
0.0
 40
5.2000000000000002
 50
107.85509049823931
 51
148.72523588624659
  0
LINE
  5
B1A
  8
0
 10
69.216804936211531
 20
61.144623355305271
 30
0.0
 11
70.716804936211531
 21
62.01064875908969
 31
0.0
  0
LINE
  5
B1B
  8
0
 10
69.216804936211531
 20
64.608724970443006
 30
0.0
 11
67.716804936211531
 21
63.742699566658587
 31
0.0
  0
LINE
  5
B1C
  8
0
 10
70.716804936211531
 20
63.742699566658551
 30
0.0
 11
69.216804936211531
 21
64.608724970443006
 31
0.0
  0
LINE
  5
B1D
  8
0
 10
67.716804936211531
 20
63.742699566658587
 30
0.0
 11
67.716804936211531
 21
62.01064875908969
 31
0.0
  0
LINE
  5
B1E
  8
0
 10
74.966804936211531
 20
55.876674162871858
 30
0.0
 11
74.966804936211531
 21
56.376674162872213
 31
0.0
  0
ARC
  5
B1F
  8
0
 10
75.216804936218068
 20
56.3766741628719
 30
0.0
 40
0.5
 50
270.0
 51
0.0000000000574027
1001
GENIUS_GENODEF_13
1002
{
1000
HIER
1070
     0
1002
}
1002
{
1000
MANEDIT
1070
     0
1002
}
1002
{
1000
NOSEL
1070
     0
1002
}
1002
{
1000
BEHIND
1070
     0
1002
}
1002
{
1000
REACTOR
1002
}
1001
GENIUS_GENOBJ-N-FIL_13
1002
{
1000
OWNER
1000
GEN
1002
}
  0
LINE
  5
B20
  8
0
 10
77.216804936221081
 20
53.37667416287465
 30
0.0
 11
77.216804936211531
 21
62.876674162879588
 31
0.0
  0
LINE
  5
B21
  8
3
 10
71.146804936218075
 20
52.876674162874139
 30
0.0
 11
71.146804936218075
 21
51.296604717916217
 31
0.0
  0
ARC
  5
B25
  8
0
 10
76.716804936221081
 20
53.376674162874139
 30
0.0
 40
0.5
 50
270.0
 51
0.0000000000574027
1001
GENIUS_GENODEF_13
1002
{
1000
HIER
1070
     0
1002
}
1002
{
1000
MANEDIT
1070
     0
1002
}
1002
{
1000
NOSEL
1070
     0
1002
}
1002
{
1000
BEHIND
1070
     0
1002
}
1002
{
1000
REACTOR
1002
}
1001
GENIUS_GENOBJ-N-FIL_13
1002
{
1000
OWNER
1000
GEN
1002
}
  0
LINE
  5
B26
  8
0
 10
75.716804936218068
 20
56.376674162872369
 30
0.0
 11
75.716804936211531
 21
62.876674162878089
 31
0.0
  0
ARC
  5
B27
  8
0
 10
69.522429577020915
 20
53.677132041222499
 30
0.0
 40
5.2000000000000002
 50
31.27476411375287
 51
72.144909501760594
  0
LINE
  5
B2A
  8
0
 10
71.716804936218054
 20
51.177145729719641
 30
0.0
 11
71.716804936218054
 21
52.87667416287416
 31
0.0
  0
LINE
  5
B2D
  8
1
 10
69.216804936211759
 20
123.63210113517211
 30
0.0
 11
69.216804936211759
 21
93.832101135173048
 31
0.0
1001
GENIUS_GENOREF_13
1005
0
  0
ARC
  5
B2E
  8
0
 10
69.216804936211759
 20
104.3321011351985
 30
0.0
 40
5.75
 50
153.66867417753349
 51
26.296598779173941
  0
LINE
  5
B2F
  8
0
 10
70.716804936211759
 20
103.46607573141399
 30
0.0
 11
70.716804936211759
 21
105.1981265389829
 31
0.0
  0
LINE
  5
B30
  8
0
 10
67.716804936211744
 20
105.1981265389829
 30
0.0
 11
67.716804936211744
 21
103.46607573141399
 31
0.0
  0
CIRCLE
  5
B31
  8
0
 10
69.216804936211759
 20
104.3321011351985
 30
0.0
 40
1.8999999999999999
  0
ARC
  5
B32
  8
0
 10
69.216375606215081
 20
102.9154071847433
 30
0.0
 40
6.5031983221643062
 50
358.32794558983193
 51
181.91384666798999
  0
POLYLINE
  5
B33
  8
0
 66
     1
 10
0.0
 20
0.0
 30
0.0
 70
   128
  0
VERTEX
  5
B34
  8
0
 10
77.216804936211759
 20
102.62499435397839
 30
0.0
  0
VERTEX
  5
B35
  8
0
 10
77.080589733682913
 20
104.04117150878859
 30
0.0
  0
VERTEX
  5
B36
  8
0
 10
76.676582771446391
 20
105.40912244910911
 30
0.0
  0
VERTEX
  5
B37
  8
0
 10
76.018542022048223
 20
106.6822632463435
 30
0.0
  0
VERTEX
  5
B38
  8
0
 10
75.12887627397626
 20
107.81723861760599
 30
0.0
  0
VERTEX
  5
B39
  8
0
 10
74.037882027244663
 20
108.7753983378812
 30
0.0
  0
VERTEX
  5
B3A
  8
0
 10
72.782711782422524
 20
109.52411342708101
 30
0.0
  0
VERTEX
  5
B3B
  8
0
 10
71.406108856786489
 20
110.0378872908275
 30
0.0
  0
VERTEX
  5
B3C
  8
0
 10
69.954951811915862
 20
110.2992239763946
 30
0.0
  0
VERTEX
  5
B3D
  8
0
 10
68.478658060502767
 20
110.2992239763942
 30
0.0
  0
VERTEX
  5
B3E
  8
0
 10
67.027501015632311
 20
110.03788729082621
 30
0.0
  0
VERTEX
  5
B3F
  8
0
 10
65.650898089996616
 20
109.5241134270789
 30
0.0
  0
VERTEX
  5
B40
  8
0
 10
64.395727845174946
 20
108.7753983378784
 30
0.0
  0
VERTEX
  5
B41
  8
0
 10
63.30473359844396
 20
107.8172386176025
 30
0.0
  0
VERTEX
  5
B42
  8
0
 10
62.415067850372729
 20
106.6822632463395
 30
0.0
  0
VERTEX
  5
B43
  8
0
 10
61.757027100975328
 20
105.4091224491047
 30
0.0
  0
VERTEX
  5
B44
  8
0
 10
61.353020138739708
 20
104.041171508784
 30
0.0
  0
VERTEX
  5
B45
  8
0
 10
61.216804936211759
 20
102.62499435397361
 30
0.0
  0
SEQEND
  5
B46
  8
0
  0
LINE
  5
B47
  8
0
 10
61.216804936211759
 20
113.832101135173
 30
0.0
 11
61.216804936211759
 21
96.832101135173019
 31
0.0
  0
ARC
  5
B48
  8
0
 10
69.216804936211759
 20
104.3321011351985
 30
0.0
 40
4.7499999999936833
 50
126.12123075071629
 51
53.878769249283629
  0
LINE
  5
B49
  8
0
 10
77.216804936211759
 20
113.832101135173
 30
0.0
 11
77.216804936211872
 21
96.832101135173019
 31
0.0
  0
LINE
  5
B4A
  8
1
 10
79.716804936211815
 20
104.3321011351984
 30
0.0
 11
58.716804936211759
 21
104.3321011351985
 31
0.0
1001
GENIUS_GENOREF_13
1005
0
  0
LINE
  5
B4B
  8
0
 10
76.716804936211872
 20
96.332101135173019
 30
0.0
 11
61.716804936211759
 21
96.332101135173019
 31
0.0
  0
LINE
  5
B4C
  8
0
 10
69.216804936211759
 20
102.6000503276296
 30
0.0
 11
70.716804936211759
 21
103.46607573141399
 31
0.0
  0
ARC
  5
B4D
  8
0
 10
61.716804936211759
 20
96.832101135173019
 30
0.0
 40
0.5
 50
180.0
 51
270.0
1001
GENIUS_GENODEF_13
1002
{
1000
HIER
1070
     0
1002
}
1002
{
1000
MANEDIT
1070
     0
1002
}
1002
{
1000
NOSEL
1070
     0
1002
}
1002
{
1000
BEHIND
1070
     0
1002
}
1002
{
1000
REACTOR
1002
}
1001
GENIUS_GENOBJ-N-FIL_13
1002
{
1000
OWNER
1000
GEN
1002
}
  0
LINE
  5
B4E
  8
0
 10
62.716804936211751
 20
102.69822172705049
 30
0.0
 11
62.716804936211751
 21
96.332101135173019
 31
0.0
  0
LINE
  5
B4F
  8
0
 10
67.716804936211744
 20
103.46607573141399
 30
0.0
 11
69.216804936211759
 21
102.6000503276296
 31
0.0
  0
ARC
  5
B50
  8
0
 10
76.716804936211872
 20
96.832101135173019
 30
0.0
 40
0.5
 50
270.0
 51
0.0
1001
GENIUS_GENODEF_13
1002
{
1000
HIER
1070
     0
1002
}
1002
{
1000
MANEDIT
1070
     0
1002
}
1002
{
1000
NOSEL
1070
     0
1002
}
1002
{
1000
BEHIND
1070
     0
1002
}
1002
{
1000
REACTOR
1002
}
1001
GENIUS_GENOBJ-N-FIL_13
1002
{
1000
OWNER
1000
GEN
1002
}
  0
LINE
  5
B51
  8
0
 10
75.716804936211815
 20
102.725652229291
 30
0.0
 11
75.716804936211872
 21
96.332101135173019
 31
0.0
  0
LINE
  5
B55
  8
0
 10
71.116804936211764
 20
107.7821011351726
 30
0.0
 11
67.316804936211753
 21
107.7821011351726
 31
0.0
  0
LINE
  5
B56
  8
0
 10
71.116804936211793
 20
107.7821011351726
 30
0.0
 11
67.316804936211781
 21
107.7821011351726
 31
0.0
  0
LINE
  5
B57
  8
0
 10
76.716804936211759
 20
114.332101135173
 30
0.0
 11
61.716804936211759
 21
114.332101135173
 31
0.0
  0
LINE
  5
B58
  8
0
 10
63.46680493621173
 20
114.53210113517299
 30
0.0
 11
74.966804936211616
 21
114.53210113517299
 31
0.0
  0
LINE
  5
B59
  8
0
 10
70.716804936211759
 20
105.1981265389829
 30
0.0
 11
69.216804936211759
 21
106.0641519427673
 31
0.0
  0
LINE
  5
B5A
  8
3
 10
67.28680493621178
 20
115.9121701969196
 30
0.0
 11
67.286804936211752
 21
114.53210113517299
 31
0.0
  0
LINE
  5
B5B
  8
0
 10
66.716804936211759
 20
116.03208891876351
 30
0.0
 11
66.716804936211759
 21
114.53210113517299
 31
0.0
  0
ARC
  5
B5C
  8
0
 10
61.716804936211759
 20
113.832101135173
 30
0.0
 40
0.5
 50
90.0
 51
180.0
1001
GENIUS_GENODEF_13
1002
{
1000
HIER
1070
     0
1002
}
1002
{
1000
MANEDIT
1070
     0
1002
}
1002
{
1000
NOSEL
1070
     0
1002
}
1002
{
1000
BEHIND
1070
     0
1002
}
1002
{
1000
REACTOR
1002
}
1001
GENIUS_GENOBJ-N-FIL_13
1002
{
1000
OWNER
1000
GEN
1002
}
  0
ARC
  5
B5D
  8
0
 10
68.91118029540894
 20
112.73164325682239
 30
0.0
 40
5.2000000000000002
 50
234.43623269312249
 51
252.14490950176059
  0
LINE
  5
B5E
  8
0
 10
67.716804936211744
 20
105.1981265389829
 30
0.0
 11
69.216804936211759
 21
106.0641519427673
 31
0.0
  0
ARC
  5
B5F
  8
0
 10
63.46680493621173
 20
114.332101135173
 30
0.0
 40
0.2
 50
90.0
 51
180.0
1001
GENIUS_GENODEF_13
1002
{
1000
HIER
1070
     0
1002
}
1002
{
1000
MANEDIT
1070
     0
1002
}
1002
{
1000
NOSEL
1070
     0
1002
}
1002
{
1000
BEHIND
1070
     0
1002
}
1002
{
1000
REACTOR
1002
}
1001
GENIUS_GENOBJ-N-FIL_13
1002
{
1000
OWNER
1000
GEN
1002
}
  0
LINE
  5
B60
  8
3
 10
67.286804936211752
 20
120.53210113517331
 30
0.0
 11
67.286804936211837
 21
119.4753177234382
 31
0.0
  0
LINE
  5
B62
  8
0
 10
67.286804936211752
 20
120.53210113517331
 30
0.0
 11
66.716804936211759
 21
119.9621011351732
 31
0.0
  0
LINE
  5
B65
  8
0
 10
66.716804936211759
 20
119.9621011351732
 30
0.0
 11
66.716804936211759
 21
118.9238959955851
 31
0.0
  0
LINE
  5
B66
  8
0
 10
67.907970356157634
 20
119.9621011351732
 30
0.0
 11
66.716804936211759
 21
119.9621011351732
 31
0.0
  0
LINE
  5
B67
  8
0
 10
68.149104548219896
 20
120.53210113517331
 30
0.0
 11
67.286804936211752
 21
120.53210113517331
 31
0.0
  0
LINE
  5
B68
  8
3
 10
71.146804936211794
 20
115.9121701969196
 30
0.0
 11
71.146804936211737
 21
114.53210113517299
 31
0.0
  0
LINE
  5
B69
  8
0
 10
71.716804936211759
 20
114.53210113517299
 30
0.0
 11
71.716804936211759
 21
116.03208891876351
 31
0.0
  0
ARC
  5
B6A
  8
0
 10
76.716804936211759
 20
113.832101135173
 30
0.0
 40
0.5
 50
0.0
 51
90.0
1001
GENIUS_GENODEF_13
1002
{
1000
HIER
1070
     0
1002
}
1002
{
1000
MANEDIT
1070
     0
1002
}
1002
{
1000
NOSEL
1070
     0
1002
}
1002
{
1000
BEHIND
1070
     0
1002
}
1002
{
1000
REACTOR
1002
}
1001
GENIUS_GENOBJ-N-FIL_13
1002
{
1000
OWNER
1000
GEN
1002
}
  0
ARC
  5
B6B
  8
0
 10
69.522429577014634
 20
112.73164325682239
 30
0.0
 40
5.2000000000000002
 50
287.85509049823929
 51
305.55847924486147
  0
ARC
  5
B6C
  8
0
 10
74.966804936211588
 20
114.332101135173
 30
0.0
 40
0.2
 50
0.0000000000044782
 51
90.0
1001
GENIUS_GENODEF_13
1002
{
1000
HIER
1070
     0
1002
}
1002
{
1000
MANEDIT
1070
     0
1002
}
1002
{
1000
NOSEL
1070
     0
1002
}
1002
{
1000
BEHIND
1070
     0
1002
}
1002
{
1000
REACTOR
1002
}
1001
GENIUS_GENOBJ-N-FIL_13
1002
{
1000
OWNER
1000
GEN
1002
}
  0
LINE
  5
B6D
  8
3
 10
71.146804936211765
 20
120.53210113517331
 30
0.0
 11
71.146804936211765
 21
119.4753177234381
 31
0.0
  0
LINE
  5
B6E
  8
0
 10
71.716804936211759
 20
119.9621011351732
 30
0.0
 11
71.146804936211765
 21
120.53210113517331
 31
0.0
  0
LINE
  5
B71
  8
0
 10
71.716804936211673
 20
118.9238959955852
 30
0.0
 11
71.716804936211759
 21
119.9621011351732
 31
0.0
  0
LINE
  5
B72
  8
0
 10
71.716804936211759
 20
119.9621011351732
 30
0.0
 11
70.525639516265841
 21
119.9621011351732
 31
0.0
  0
LINE
  5
B73
  8
0
 10
71.146804936211765
 20
120.53210113517331
 30
0.0
 11
70.284505324203622
 21
120.53210113517331
 31
0.0
  0
LINE
  5
B74
  8
0
 10
121.5665405776388
 20
52.876674162884143
 30
0.0
 11
104.5665405776375
 21
52.876674162884143
 31
0.0
  0
LINE
  5
B75
  8
0
 10
104.271565830802
 20
55.671648909712331
 30
0.0
 11
119.27156583080431
 21
70.671648909714705
 31
0.0
  0
ARC
  5
B76
  8
0
 10
129.456543577552
 20
57.876674162878743
 30
0.0
 40
1.6900019999999989
 50
134.76034299999981
 51
225.23965699999991
  0
LINE
  5
B78
  8
1
 10
112.0665405776388
 20
61.230406746504151
 30
0.0
 11
112.0665405776388
 21
43.576686099958359
 31
0.0
  0
ARC
  5
B79
  8
0
 10
127.3665405775519
 20
57.876674162878743
 30
0.0
 40
1.5
 50
306.86989799999969
 51
53.130102000000349
  0
LINE
  5
B7A
  8
0
 10
122.26709572455999
 20
57.126674162878679
 30
0.0
 11
122.26709572455989
 21
68.626674162878587
 31
0.0
  0
LINE
  5
B7B
  8
0
 10
122.0665405776389
 20
70.376674162884157
 30
0.0
 11
122.0665405776387
 21
56.876674162878693
 31
0.0
  0
ARC
  5
B7C
  8
0
 10
122.0670957245601
 20
57.126674162878679
 30
0.0
 40
0.2
 50
270.0
 51
0.0
1001
GENIUS_GENODEF_13
1002
{
1000
HIER
1070
     0
1002
}
1002
{
1000
MANEDIT
1070
     0
1002
}
1002
{
1000
NOSEL
1070
     0
1002
}
1002
{
1000
BEHIND
1070
     0
1002
}
1002
{
1000
REACTOR
1002
}
1001
GENIUS_GENOBJ-N-FIL_13
1002
{
1000
OWNER
1000
GEN
1002
}
  0
ARC
  5
B7D
  8
0
 10
121.5665405776388
 20
53.37667416288415
 30
0.0
 40
0.5
 50
270.0
 51
0.0
1001
GENIUS_GENODEF_13
1002
{
1000
HIER
1070
     0
1002
}
1002
{
1000
MANEDIT
1070
     0
1002
}
1002
{
1000
NOSEL
1070
     0
1002
}
1002
{
1000
BEHIND
1070
     0
1002
}
1002
{
1000
REACTOR
1002
}
1001
GENIUS_GENOBJ-N-FIL_13
1002
{
1000
OWNER
1000
GEN
1002
}
  0
LINE
  5
B7E
  8
0
 10
128.26654057755201
 20
55.376674162878743
 30
0.0
 11
123.76654057755199
 21
55.376674162878743
 31
0.0
  0
LINE
  5
B7F
  8
0
 10
128.26654057755201
 20
56.67667416287869
 30
0.0
 11
128.26654057755201
 21
55.376674162878743
 31
0.0
  0
LINE
  5
B80
  8
0
 10
108.0665405776388
 20
51.176674162884183
 30
0.0
 11
108.0665405776388
 21
46.67667416288414
 31
0.0
  0
ARC
  5
B81
  8
0
 10
112.0665405776388
 20
44.977247162884119
 30
0.0
 40
2.6245090000000002
 50
40.354989999999901
 51
139.6450099999999
  0
LINE
  5
B82
  8
0
 10
119.5665405776388
 20
46.67667416288414
 30
0.0
 11
119.5665405776389
 21
51.176674162884183
 31
0.0
  0
LINE
  5
B83
  8
0
 10
114.0665405776388
 20
46.67667416288414
 30
0.0
 11
115.8665405776388
 21
46.67667416288414
 31
0.0
  0
LINE
  5
B84
  8
0
 10
118.26654057763881
 20
46.67667416288414
 30
0.0
 11
119.5665405776388
 21
46.67667416288414
 31
0.0
  0
ARC
  5
B85
  8
0
 10
117.0665405776389
 20
47.576674162884117
 30
0.0
 40
1.5
 50
216.86989799999961
 51
323.13010199999991
  0
ARC
  5
B86
  8
0
 10
117.0665405776389
 20
45.48667116288415
 30
0.0
 40
1.6900019999999989
 50
44.760342999999828
 51
135.23965700000011
  0
LINE
  5
B89
  8
0
 10
108.0665405776388
 20
46.67667416288414
 30
0.0
 11
110.0665405776388
 21
46.67667416288414
 31
0.0
  0
LINE
  5
B8B
  8
0
 10
122.0665405776389
 20
56.876674162878693
 30
0.0
 11
122.0665405776388
 21
53.37667416288415
 31
0.0
  0
LINE
  5
B8D
  8
0
 10
114.5665405776388
 20
52.876674162884143
 30
0.0
 11
114.5665405776388
 21
51.176674162884183
 31
0.0
  0
LINE
  5
B8E
  8
3
 10
113.9965405776389
 20
51.176674162884183
 30
0.0
 11
113.9965405776388
 21
52.876674162884143
 31
0.0
  0
LINE
  5
B8F
  8
0
 10
109.5665405776388
 20
51.176674162884183
 30
0.0
 11
109.5665405776388
 21
52.876674162884143
 31
0.0
  0
LINE
  5
B90
  8
3
 10
110.1365405776388
 20
51.176674162884183
 30
0.0
 11
110.1365405776388
 21
52.876674162884143
 31
0.0
  0
ARC
  5
B91
  8
0
 10
122.06709572456001
 20
68.626674162878587
 30
0.0
 40
0.2
 50
0.0
 51
89.999999999995111
1001
GENIUS_GENODEF_13
1002
{
1000
HIER
1070
     0
1002
}
1002
{
1000
MANEDIT
1070
     0
1002
}
1002
{
1000
NOSEL
1070
     0
1002
}
1002
{
1000
BEHIND
1070
     0
1002
}
1002
{
1000
REACTOR
1002
}
1001
GENIUS_GENOBJ-N-FIL_13
1002
{
1000
OWNER
1000
GEN
1002
}
  0
ARC
  5
B92
  8
0
 10
121.5665405776388
 20
70.376674162884157
 30
0.0
 40
0.5
 50
0.0
 51
90.0
1001
GENIUS_GENODEF_13
1002
{
1000
HIER
1070
     0
1002
}
1002
{
1000
MANEDIT
1070
     0
1002
}
1002
{
1000
NOSEL
1070
     0
1002
}
1002
{
1000
BEHIND
1070
     0
1002
}
1002
{
1000
REACTOR
1002
}
1001
GENIUS_GENOBJ-N-FIL_13
1002
{
1000
OWNER
1000
GEN
1002
}
  0
LINE
  5
B93
  8
1
 10
113.1939669867715
 20
62.876674162878743
 30
0.0
 11
131.36654057755189
 21
62.876674162878743
 31
0.0
  0
ARC
  5
B95
  8
0
 10
129.96596757755199
 20
62.876674162878743
 30
0.0
 40
2.6245090000000002
 50
130.3549900000001
 51
229.6450099999999
  0
LINE
  5
B96
  8
0
 10
128.26654057755201
 20
60.876674162878743
 30
0.0
 11
128.26654057755201
 21
59.076674162878732
 31
0.0
  0
LINE
  5
B98
  8
0
 10
123.76654057755199
 20
60.376674162878757
 30
0.0
 11
122.26709572455999
 21
60.376674162878743
 31
0.0
  0
LINE
  5
B99
  8
3
 10
123.76654057755199
 20
60.946674162878729
 30
0.0
 11
122.26709572455999
 21
60.946674162878729
 31
0.0
  0
LINE
  5
B9A
  8
0
 10
123.76654057755199
 20
66.876674162878714
 30
0.0
 11
128.26654057755201
 21
66.876674162878714
 31
0.0
  0
LINE
  5
B9B
  8
0
 10
128.26654057755201
 20
66.876674162878714
 30
0.0
 11
128.26654057755201
 21
64.876674162878743
 31
0.0
  0
LINE
  5
B9C
  8
0
 10
122.26709572455999
 20
65.376674162878743
 30
0.0
 11
123.76654057755199
 21
65.376674162878743
 31
0.0
  0
LINE
  5
B9D
  8
3
 10
123.76654057755199
 20
64.806674162878693
 30
0.0
 11
122.26709572455999
 21
64.806674162878693
 31
0.0
  0
ARC
  5
B9E
  8
0
 10
119.7665405776455
 20
70.176674162851768
 30
0.0
 40
0.7
 50
90.000000000876909
 51
134.99999999874609
1001
GENIUS_GENODEF_13
1002
{
1000
HIER
1070
     0
1002
}
1002
{
1000
MANEDIT
1070
     0
1002
}
1002
{
1000
NOSEL
1070
     0
1002
}
1002
{
1000
BEHIND
1070
     0
1002
}
1002
{
1000
REACTOR
1002
}
1001
GENIUS_GENOBJ-N-FIL_13
1002
{
1000
OWNER
1000
GEN
1002
}
  0
LINE
  5
B9F
  8
0
 10
119.7665405776348
 20
70.876674162884143
 30
0.0
 11
121.5665405776388
 21
70.876674162884143
 31
0.0
  0
LINE
  5
BA0
  8
0
 10
104.0665405776376
 20
53.376674162882892
 30
0.0
 11
104.06654057763259
 21
55.176674162879827
 31
0.0
  0
ARC
  5
BA1
  8
0
 10
104.5665405776375
 20
53.37667416288415
 30
0.0
 40
0.5
 50
180.0000000001466
 51
270.0
1001
GENIUS_GENODEF_13
1002
{
1000
HIER
1070
     0
1002
}
1002
{
1000
MANEDIT
1070
     0
1002
}
1002
{
1000
NOSEL
1070
     0
1002
}
1002
{
1000
BEHIND
1070
     0
1002
}
1002
{
1000
REACTOR
1002
}
1001
GENIUS_GENOBJ-N-FIL_13
1002
{
1000
OWNER
1000
GEN
1002
}
  0
ARC
  5
BA2
  8
0
 10
104.7665405776326
 20
55.17667416288176
 30
0.0
 40
0.700000000000003
 50
134.9999999999765
 51
180.00000000015629
  0
LINE
  5
EBD
  8
0
 10
128.26709572456079
 20
64.806674162878721
 30
0.0
 11
128.26709572456079
 21
60.94667416287875
 31
0.0
  0
LINE
  5
EC0
  8
0
 10
127.6970957245607
 20
64.195866342125143
 30
0.0
 11
127.6970957245607
 21
61.557481983632272
 31
0.0
  0
LINE
  5
EC1
  8
0
 10
128.26709572456079
 20
60.946674162878729
 30
0.0
 11
128.229325212655
 21
60.908903650972981
 31
0.0
  0
LINE
  5
EC2
  8
0
 10
128.229325212655
 20
64.844444674784526
 30
0.0
 11
128.26709572456079
 21
64.806674162878721
 31
0.0
  0
ARC
  5
1084
  8
0
 10
69.216805464367582
 20
47.32668609995833
 30
0.0
 40
1.25
 50
185.4302630750885
 51
354.56973692491073
  0
ARC
  5
1085
  8
0
 10
71.91680546436757
 20
51.076686099958323
 30
0.0
 40
0.2
 50
180.0
 51
270.0
  0
LINE
  5
1086
  8
0
 10
71.716805464367582
 20
51.176686099958332
 30
0.0
 11
71.716805464367553
 21
51.076686099958323
 31
0.0
  0
ARC
  5
1087
  8
0
 10
71.516805464367565
 20
51.176686099958332
 30
0.0
 40
0.2
 50
0.0
 51
90.0
  0
ARC
  5
1088
  8
0
 10
66.916805464367599
 20
51.17668609995831
 30
0.0
 40
0.2
 50
90.0
 51
180.0
  0
ARC
  5
1089
  8
0
 10
66.516805464367593
 20
51.076686099958323
 30
0.0
 40
0.2
 50
270.0
 51
0.0
  0
LINE
  5
108A
  8
0
 10
66.716805464367582
 20
51.17668609995831
 30
0.0
 11
66.71680546436761
 21
51.076686099958323
 31
0.0
  0
ARC
  5
108B
  8
0
 10
69.21680546436761
 20
61.108592388039789
 30
0.0
 40
10.0
 50
256.70292825279159
 51
283.29707174720932
  0
LINE
  5
108C
  8
0
 10
72.91680546436757
 20
50.876686099958299
 30
0.0
 11
71.916805464367627
 21
50.876686099958299
 31
0.0
  0
ARC
  5
108D
  8
0
 10
69.216805464367582
 20
49.37668609995832
 30
0.0
 40
2.5
 50
235.51304436426389
 51
304.48695563573608
  0
ARC
  5
108E
  8
0
 10
65.633516950810275
 20
54.002810204467039
 30
0.0
 40
8.3487206285518791
 50
306.78075546590247
 51
334.87757771521581
  0
ARC
  5
108F
  8
0
 10
72.91680546436757
 20
50.576686099958309
 30
0.0
 40
0.3
 50
336.76379688519739
 51
90.0
  0
LINE
  5
1090
  8
0
 10
65.516805464367593
 20
50.876686099958299
 30
0.0
 11
66.516805464367536
 21
50.876686099958299
 31
0.0
  0
ARC
  5
1091
  8
0
 10
72.800093977924888
 20
54.002810204467039
 30
0.0
 40
8.3487206285518791
 50
205.12242228478371
 51
233.21924453409741
  0
ARC
  5
1092
  8
0
 10
65.516805464367593
 20
50.576686099958309
 30
0.0
 40
0.3
 50
90.0
 51
203.23620311480261
  0
LINE
  5
1093
  8
0
 10
108.0665405776388
 20
50.676674162884169
 30
0.0
 11
119.5665405776388
 21
50.676674162884183
 31
0.0
  0
LINE
  5
1094
  8
0
 10
108.0665405776388
 20
50.67667416288419
 30
0.0
 11
119.5665405776388
 21
50.67667416288419
 31
0.0
  0
LINE
  5
1095
  8
0
 10
108.0665405776388
 20
51.176674162884183
 30
0.0
 11
119.5665405776388
 21
51.176674162884183
 31
0.0
  0
LINE
  5
1096
  8
0
 10
124.26654057755199
 20
55.376674162878729
 30
0.0
 11
124.26654057755199
 21
66.876674162878714
 31
0.0
  0
LINE
  5
1097
  8
0
 10
124.26654057755199
 20
55.376674162878729
 30
0.0
 11
124.26654057755199
 21
66.876674162878714
 31
0.0
  0
LINE
  5
1098
  8
0
 10
123.76654057755199
 20
55.376674162878729
 30
0.0
 11
123.76654057755199
 21
66.876674162878714
 31
0.0
  0
ARC
  5
10A4
  8
0
 10
69.216804936211759
 20
119.8820889187635
 30
0.0
 40
1.25
 50
5.4302630750893588
 51
174.56973692491059
  0
ARC
  5
10A5
  8
0
 10
71.916804936211733
 20
116.1320889187635
 30
0.0
 40
0.2
 50
90.0
 51
180.0
  0
LINE
  5
10A6
  8
0
 10
71.716804936211759
 20
116.03208891876351
 30
0.0
 11
71.71680493621173
 21
116.1320889187635
 31
0.0
  0
ARC
  5
10A7
  8
0
 10
71.516804936211742
 20
116.03208891876351
 30
0.0
 40
0.2
 50
270.0
 51
0.0
  0
ARC
  5
10A8
  8
0
 10
66.916804936211776
 20
116.03208891876351
 30
0.0
 40
0.2
 50
180.0
 51
270.0
  0
ARC
  5
10A9
  8
0
 10
66.51680493621177
 20
116.1320889187635
 30
0.0
 40
0.2
 50
0.0
 51
90.0
  0
LINE
  5
10AA
  8
0
 10
66.716804936211759
 20
116.03208891876351
 30
0.0
 11
66.716804936211787
 21
116.1320889187635
 31
0.0
  0
ARC
  5
10AB
  8
0
 10
69.216804936211787
 20
106.100182630682
 30
0.0
 40
10.0
 50
76.702928252790713
 51
103.29707174720841
  0
LINE
  5
10AC
  8
0
 10
72.916804936211747
 20
116.3320889187635
 30
0.0
 11
71.916804936211804
 21
116.3320889187635
 31
0.0
  0
ARC
  5
10AD
  8
0
 10
69.216804936211759
 20
117.8320889187635
 30
0.0
 40
2.5
 50
55.513044364264147
 51
124.4869556357358
  0
ARC
  5
10AE
  8
0
 10
65.633516422654452
 20
113.2059648142548
 30
0.0
 40
8.3487206285518791
 50
25.122422284783749
 51
53.219244534097477
  0
ARC
  5
10AF
  8
0
 10
72.916804936211747
 20
116.6320889187635
 30
0.0
 40
0.3
 50
270.0
 51
23.236203114801729
  0
LINE
  5
10B0
  8
0
 10
65.516804936211756
 20
116.3320889187635
 30
0.0
 11
66.516804936211713
 21
116.3320889187635
 31
0.0
  0
ARC
  5
10B1
  8
0
 10
72.800093449769065
 20
113.2059648142548
 30
0.0
 40
8.3487206285518791
 50
126.7807554659025
 51
154.87757771521581
  0
ARC
  5
10B2
  8
0
 10
65.516804936211756
 20
116.6320889187635
 30
0.0
 40
0.3
 50
156.7637968851983
 51
270.0
  0
TEXT
  5
111B
  8
0
 62
     3
 10
0.0
 20
0.0
 30
0.0
 40
10.0
  1
L5-AHJ
  7
STANDARD1
  0
ENDSEC
  0
EOF
