  0
SECTION
  2
HEADER
  9
$ACADVER
  1
AC1009
  9
$INSBASE
 10
0.0
 20
0.0
 30
0.0
  9
$EXTMIN
 10
0.0
 20
-2.960436562073669
 30
0.0
  9
$EXTMAX
 10
140.6553189093957
 20
124.8093833603498
 30
0.0
  9
$LIMMIN
 10
0.0
 20
0.0
  9
$LIMMAX
 10
375.0
 20
278.0
  9
$ORTHOMODE
 70
     1
  9
$REGENMODE
 70
     1
  9
$FILLMODE
 70
     1
  9
$QTEXTMODE
 70
     0
  9
$MIRRTEXT
 70
     0
  9
$DRAGMODE
 70
     2
  9
$LTSCALE
 40
10.0
  9
$OSMODE
 70
  3071
  9
$ATTMODE
 70
     1
  9
$TEXTSIZE
 40
0.2
  9
$TRACEWID
 40
0.05
  9
$TEXTSTYLE
  7
STANDARD
  9
$CLAYER
  8
0
  9
$CELTYPE
  6
BYLAYER
  9
$CECOLOR
 62
   256
  9
$DIMSCALE
 40
1.0
  9
$DIMASZ
 40
3.0
  9
$DIMEXO
 40
1.0
  9
$DIMDLI
 40
6.0
  9
$DIMRND
 40
0.0
  9
$DIMDLE
 40
0.0
  9
$DIMEXE
 40
1.0
  9
$DIMTP
 40
495.0
  9
$DIMTM
 40
0.0
  9
$DIMTXT
 40
3.0
  9
$DIMCEN
 40
0.0
  9
$DIMTSZ
 40
0.0
  9
$DIMTOL
 70
     0
  9
$DIMLIM
 70
     0
  9
$DIMTIH
 70
     0
  9
$DIMTOH
 70
     0
  9
$DIMSE1
 70
     0
  9
$DIMSE2
 70
     0
  9
$DIMTAD
 70
     1
  9
$DIMZIN
 70
     0
  9
$DIMBLK
  1

  9
$DIMASO
 70
     0
  9
$DIMSHO
 70
     0
  9
$DIMPOST
  1

  9
$DIMAPOST
  1

  9
$DIMALT
 70
     0
  9
$DIMALTD
 70
     2
  9
$DIMALTF
 40
25.399999999999999
  9
$DIMLFAC
 40
1.0
  9
$DIMTOFL
 70
     1
  9
$DIMTVP
 40
0.0
  9
$DIMTIX
 70
     1
  9
$DIMSOXD
 70
     0
  9
$DIMSAH
 70
     0
  9
$DIMBLK1
  1

  9
$DIMBLK2
  1

  9
$DIMSTYLE
  2
STANDARD
  9
$DIMCLRD
 70
     0
  9
$DIMCLRE
 70
     0
  9
$DIMCLRT
 70
     4
  9
$DIMTFAC
 40
1.0
  9
$DIMGAP
 40
1.0
  9
$LUNITS
 70
     2
  9
$LUPREC
 70
     4
  9
$SKETCHINC
 40
0.1
  9
$FILLETRAD
 40
0.0
  9
$AUNITS
 70
     0
  9
$AUPREC
 70
     0
  9
$MENU
  1
C:\R13\WIN\SUPPORT\ACAD-I
  9
$ELEVATION
 40
0.0
  9
$PELEVATION
 40
0.0
  9
$THICKNESS
 40
0.0
  9
$LIMCHECK
 70
     0
  9
$BLIPMODE
 70
     0
  9
$CHAMFERA
 40
0.0
  9
$CHAMFERB
 40
0.0
  9
$SKPOLY
 70
     0
  9
$TDCREATE
 40
2450834.4199027782
  9
$TDUPDATE
 40
2456597.5462696059
  9
$TDINDWG
 40
0.0480103819
  9
$TDUSRTIMER
 40
0.0480103819
  9
$USRTIMER
 70
     1
  9
$ANGBASE
 50
0.0
  9
$ANGDIR
 70
     0
  9
$PDMODE
 70
     0
  9
$PDSIZE
 40
0.0
  9
$PLINEWID
 40
0.0
  9
$COORDS
 70
     1
  9
$SPLFRAME
 70
     0
  9
$SPLINETYPE
 70
     6
  9
$SPLINESEGS
 70
     8
  9
$ATTDIA
 70
     0
  9
$ATTREQ
 70
     1
  9
$HANDLING
 70
     1
  9
$HANDSEED
  5
1340
  9
$SURFTAB1
 70
     6
  9
$SURFTAB2
 70
     6
  9
$SURFTYPE
 70
     6
  9
$SURFU
 70
     6
  9
$SURFV
 70
     6
  9
$UCSNAME
  2

  9
$UCSORG
 10
0.0
 20
0.0
 30
0.0
  9
$UCSXDIR
 10
1.0
 20
0.0
 30
0.0
  9
$UCSYDIR
 10
0.0
 20
1.0
 30
0.0
  9
$PUCSNAME
  2

  9
$PUCSORG
 10
0.0
 20
0.0
 30
0.0
  9
$PUCSXDIR
 10
1.0
 20
0.0
 30
0.0
  9
$PUCSYDIR
 10
0.0
 20
1.0
 30
0.0
  9
$USERI1
 70
     4
  9
$USERI2
 70
     1
  9
$USERI3
 70
     0
  9
$USERI4
 70
     0
  9
$USERI5
 70
     0
  9
$USERR1
 40
1.0
  9
$USERR2
 40
3.0
  9
$USERR3
 40
3.0
  9
$USERR4
 40
3.0
  9
$USERR5
 40
10.0
  9
$WORLDVIEW
 70
     1
  9
$SHADEDGE
 70
     3
  9
$SHADEDIF
 70
    70
  9
$TILEMODE
 70
     1
  9
$MAXACTVP
 70
    16
  9
$PLIMCHECK
 70
     0
  9
$PEXTMIN
 10
1.0000000000000000E+020
 20
1.0000000000000000E+020
 30
1.0000000000000000E+020
  9
$PEXTMAX
 10
-1.0000000000000000E+020
 20
-1.0000000000000000E+020
 30
-1.0000000000000000E+020
  9
$PLIMMIN
 10
0.0
 20
0.0
  9
$PLIMMAX
 10
12.0
 20
9.0
  9
$UNITMODE
 70
     0
  9
$VISRETAIN
 70
     0
  9
$PLINEGEN
 70
     0
  9
$PSLTSCALE
 70
     0
  0
ENDSEC
  0
SECTION
  2
TABLES
  0
TABLE
  2
VPORT
 70
     1
  0
VPORT
  2
*ACTIVE
 70
     0
 10
0.0
 20
0.0
 11
1.0
 21
1.0
 12
187.4942783906524
 22
167.7204668657281
 13
0.0
 23
0.0
 14
10.0
 24
10.0
 15
10.0
 25
10.0
 16
0.0
 26
0.0
 36
1.0
 17
0.0
 27
0.0
 37
0.0
 40
344.62625130655709
 41
1.9089595375722539
 42
50.0
 43
0.0
 44
0.0
 50
0.0
 51
0.0
 71
     0
 72
   100
 73
     1
 74
     0
 75
     0
 76
     0
 77
     0
 78
     0
  0
ENDTAB
  0
TABLE
  2
LTYPE
 70
     3
  0
LTYPE
  2
CONTINUOUS
 70
     0
  3
Solid Line
 72
    65
 73
     0
 40
0.0
  0
LTYPE
  2
CENTER
 70
     0
  3
____ _ ____ _ ____ _ ____ _ ____ _ ____ _ ____
 72
    65
 73
     4
 40
2.0
 49
1.25
 49
-0.25
 49
0.25
 49
-0.25
  0
LTYPE
  2
PHANTOM2
 70
     0
  3
___ _ _ ___ _ _ ___ _ _ ___ _ _
 72
    65
 73
     6
 40
1.25
 49
0.625
 49
-0.125
 49
0.125
 49
-0.125
 49
0.125
 49
-0.125
  0
ENDTAB
  0
TABLE
  2
LAYER
 70
     3
  0
LAYER
  2
0
 70
     0
 62
     7
  6
CONTINUOUS
  0
LAYER
  2
1
 70
     0
 62
     1
  6
CENTER
  0
LAYER
  2
3
 70
     0
 62
     3
  6
CONTINUOUS
  0
ENDTAB
  0
TABLE
  2
STYLE
 70
     2
  0
STYLE
  2
STANDARD
 70
     0
 40
0.0
 41
1.0
 50
0.0
 71
     0
 42
0.2
  3
SIMPLEX
  4
BIGFONT
  0
STYLE
  2
STANDARD1
 70
     0
 40
0.0
 41
1.0
 50
0.0
 71
     0
 42
3.0
  3
txt
  4

  0
ENDTAB
  0
TABLE
  2
VIEW
 70
     0
  0
ENDTAB
  0
TABLE
  2
UCS
 70
     0
  0
ENDTAB
  0
TABLE
  2
APPID
 70
    33
  0
APPID
  2
ACAD
 70
     0
  0
APPID
  2
GENIUS_GENOBJ_13
 70
     0
  0
APPID
  2
GENIUS_GENODEF_13
 70
     0
  0
APPID
  2
GENIUS_GENOENT_13
 70
     0
  0
APPID
  2
GENIUS_GENOLIS_13
 70
     0
  0
APPID
  2
GENIUS_GENOREF_13
 70
     0
  0
APPID
  2
GENIUS_GENOBJ-N-TIT_13
 70
     0
  0
APPID
  2
GENIUS_GENTITLE_13
 70
     0
  0
APPID
  2
GENIUS_GENZVEED_13
 70
     0
  0
APPID
  2
GENIUS_GENOBJ-N-FIL_13
 70
     0
  0
APPID
  2
GENIUS_GENOBJ-N-CRS_13
 70
     0
  0
APPID
  2
GENIUS_GEFINERT_13
 70
     0
  0
APPID
  2
GENIUS_GENOBJ-F-INER_13
 70
     0
  0
APPID
  2
GENIUS_GENOBJ-N-ZOO_13
 70
     0
  0
APPID
  2
GENIUS_GENZOO_13
 70
     0
  0
APPID
  2
GENIUS_GENOBJ-F-TOL_13
 70
     0
  0
APPID
  2
GENIUS_GENOBJ-N-RSSYM_13
 70
     0
  0
APPID
  2
GENIUS_GENSYMENT_13
 70
     0
  0
APPID
  2
GENIUS_GENBH_13
 70
     0
  0
APPID
  2
GENIUS_GENOBJ-NBEHI-BHF_13
 70
     0
  0
APPID
  2
GENIUS_GENOBJ-NBEHI-BHB_13
 70
     0
  0
APPID
  2
GENIUS_GENOBJ-F-PART_13
 70
     0
  0
APPID
  2
GENIUS_GEFSTDP_13
 70
     0
  0
APPID
  2
GENIUS_GENOBJ-N-LEADER_13
 70
     0
  0
APPID
  2
GENIUS_GENOBJ-N-REV_13
 70
     0
  0
APPID
  2
GENIUS_GENDTOL_13
 70
     0
  0
APPID
  2
GENIUS_GENOBJ-N-REC_13
 70
     0
  0
APPID
  2
GENIUS_GENFIL_13
 70
     0
  0
APPID
  2
GENIUS_GENOBJ-N-CHA_13
 70
     0
  0
APPID
  2
GENIUS_GENOBJ-N-SEC_13
 70
     0
  0
APPID
  2
ACAD_EXEMPT_FROM_CAD_STANDARDS
 70
     0
  0
APPID
  2
ACAD_MLEADERVER
 70
     0
  0
APPID
  2
ACAD_NAV_VCDISPLAY
 70
     0
  0
ENDTAB
  0
TABLE
  2
DIMSTYLE
 70
     1
  0
DIMSTYLE
  2
STANDARD
 70
     0
  3

  4

  5

  6

  7

 40
1.0
 41
0.18
 42
0.0625
 43
0.38
 44
0.18
 45
0.0
 46
0.0
 47
0.0
 48
0.0
140
0.18
141
0.09
142
0.0
143
25.399999999999999
144
1.0
145
0.0
146
1.0
147
0.09
 71
     0
 72
     0
 73
     1
 74
     1
 75
     0
 76
     0
 77
     0
 78
     0
170
     0
171
     2
172
     0
173
     0
174
     0
175
     0
176
     0
177
     0
178
     0
  0
ENDTAB
  0
ENDSEC
  0
SECTION
  2
BLOCKS
  0
BLOCK
  8
0
  2
$MODEL_SPACE
 70
     0
 10
0.0
 20
0.0
 30
0.0
  3
$MODEL_SPACE
  1

  0
ENDBLK
  5
1187
  8
0
  0
BLOCK
 67
     1
  8
0
  2
$PAPER_SPACE
 70
     0
 10
0.0
 20
0.0
 30
0.0
  3
$PAPER_SPACE
  1

  0
ENDBLK
  5
1185
 67
     1
  8
0
  0
ENDSEC
  0
SECTION
  2
ENTITIES
  0
LINE
  5
D21
  8
1
 10
76.047975387627275
 20
45.858151467104904
 30
0.0
 11
76.047975387627275
 21
71.858151467110474
 31
0.0
1001
GENIUS_GENOREF_13
1005
0
  0
CIRCLE
  5
D22
  8
0
 10
76.047975387627275
 20
61.85815146711036
 30
0.0
 40
2.0
  0
LINE
  5
D23
  8
1
 10
86.047975387627275
 20
61.85815146711036
 30
0.0
 11
66.047975387627162
 21
61.85815146711036
 31
0.0
1001
GENIUS_GENOREF_13
1005
0
  0
LINE
  5
D24
  8
0
 10
77.547975387627275
 20
60.992126063325912
 30
0.0
 11
77.547975387627275
 21
62.72417687089478
 31
0.0
  0
LINE
  5
D25
  8
0
 10
74.547975387627275
 20
60.992126063325912
 30
0.0
 11
76.047975387627275
 21
60.126100659541493
 31
0.0
  0
LINE
  5
D26
  8
0
 10
76.047975387627275
 20
60.126100659541493
 30
0.0
 11
77.547975387627275
 21
60.992126063325912
 31
0.0
  0
LINE
  5
D27
  8
0
 10
76.047975387627275
 20
63.590202274679221
 30
0.0
 11
74.547975387627275
 21
62.724176870894809
 31
0.0
  0
LINE
  5
D28
  8
0
 10
77.547975387627275
 20
62.72417687089478
 30
0.0
 11
76.047975387627275
 21
63.590202274679221
 31
0.0
  0
LINE
  5
D29
  8
0
 10
74.547975387627275
 20
62.724176870894809
 30
0.0
 11
74.547975387627275
 21
60.992126063325912
 31
0.0
  0
CIRCLE
  5
D3B
  8
0
 10
76.047975387627275
 20
61.85815146711036
 30
0.0
 40
4.75
  0
CIRCLE
  5
D3C
  8
0
 10
76.047975387627275
 20
61.85815146711036
 30
0.0
 40
5.7499999999999991
  0
LINE
  5
D3D
  8
0
 10
82.547975387633826
 20
55.358151467108591
 30
0.0
 11
82.547975387627275
 21
61.858151467114311
 31
0.0
  0
LINE
  5
D3E
  8
0
 10
69.547975387627275
 20
61.858151467117317
 30
0.0
 11
69.547975387633812
 21
55.358151467107632
 31
0.0
  0
LINE
  5
D3F
  8
0
 10
68.047975387627275
 20
61.858151467115817
 30
0.0
 11
68.047975387637337
 21
51.85815146711036
 31
0.0
  0
LINE
  5
D40
  8
0
 10
84.047975387637294
 20
51.85815146711036
 30
0.0
 11
84.047975387627275
 21
61.858151467115817
 31
0.0
  0
LINE
  5
D41
  8
0
 10
70.047975387633812
 20
54.858151467108087
 30
0.0
 11
82.047975387633812
 21
54.858151467108122
 31
0.0
  0
LINE
  5
D42
  8
0
 10
68.047975387637337
 20
51.85815146711036
 30
0.0
 11
84.047975387637337
 21
51.85815146711036
 31
0.0
  0
LINE
  5
D43
  8
0
 10
83.547975387640832
 20
47.858151467104904
 30
0.0
 11
68.547975387640861
 21
47.858151467104904
 31
0.0
  0
ARC
  5
D44
  8
0
 10
68.547975387640861
 20
48.358151467104911
 30
0.0
 40
0.5
 50
180.00000000005781
 51
270.0
1001
GENIUS_GENODEF_13
1002
{
1000
HIER
1070
     0
1002
}
1002
{
1000
MANEDIT
1070
     0
1002
}
1002
{
1000
NOSEL
1070
     0
1002
}
1002
{
1000
BEHIND
1070
     0
1002
}
1002
{
1000
REACTOR
1002
}
1001
GENIUS_GENOBJ-N-FIL_13
1002
{
1000
OWNER
1000
GEN
1002
}
  0
ARC
  5
D45
  8
0
 10
70.047975387633812
 20
55.358151467108108
 30
0.0
 40
0.5
 50
180.00000000005781
 51
270.0
1001
GENIUS_GENODEF_13
1002
{
1000
HIER
1070
     0
1002
}
1002
{
1000
MANEDIT
1070
     0
1002
}
1002
{
1000
NOSEL
1070
     0
1002
}
1002
{
1000
BEHIND
1070
     0
1002
}
1002
{
1000
REACTOR
1002
}
1001
GENIUS_GENOBJ-N-FIL_13
1002
{
1000
OWNER
1000
GEN
1002
}
  0
ARC
  5
D46
  8
0
 10
83.547975387640832
 20
48.358151467104911
 30
0.0
 40
0.5
 50
270.0
 51
0.0000000000578098
1001
GENIUS_GENODEF_13
1002
{
1000
HIER
1070
     0
1002
}
1002
{
1000
MANEDIT
1070
     0
1002
}
1002
{
1000
NOSEL
1070
     0
1002
}
1002
{
1000
BEHIND
1070
     0
1002
}
1002
{
1000
REACTOR
1002
}
1001
GENIUS_GENOBJ-N-FIL_13
1002
{
1000
OWNER
1000
GEN
1002
}
  0
ARC
  5
D47
  8
0
 10
82.047975387633812
 20
55.358151467108108
 30
0.0
 40
0.5
 50
270.0
 51
0.0000000000578098
1001
GENIUS_GENODEF_13
1002
{
1000
HIER
1070
     0
1002
}
1002
{
1000
MANEDIT
1070
     0
1002
}
1002
{
1000
NOSEL
1070
     0
1002
}
1002
{
1000
BEHIND
1070
     0
1002
}
1002
{
1000
REACTOR
1002
}
1001
GENIUS_GENOBJ-N-FIL_13
1002
{
1000
OWNER
1000
GEN
1002
}
  0
ARC
  5
D48
  8
0
 10
76.047975387627275
 20
61.85815146711036
 30
0.0
 40
6.5
 50
0.0000000000578098
 51
180.00000000005781
  0
ARC
  5
D49
  8
0
 10
76.047975387627275
 20
61.85815146711036
 30
0.0
 40
8.0000000000001101
 50
0.0
 51
180.0
  0
LINE
  5
D61
  8
0
 10
68.047975387637337
 20
51.85815146711036
 30
0.0
 11
68.047975387640861
 21
48.358151467104392
 31
0.0
  0
LINE
  5
D62
  8
0
 10
84.047975387637337
 20
51.85815146711036
 30
0.0
 11
84.047975387640847
 21
48.358151467105408
 31
0.0
  0
LINE
  5
D63
  8
0
 10
83.547975387627275
 20
115.7093833603507
 30
0.0
 11
68.547975387627275
 21
115.7093833603507
 31
0.0
  0
POLYLINE
  5
D64
  8
0
 66
     1
 10
0.0
 20
0.0
 30
0.0
 70
   128
  0
VERTEX
  5
D65
  8
0
 10
84.047975387627275
 20
104.0022765791561
 30
0.0
  0
VERTEX
  5
D66
  8
0
 10
83.911760185098444
 20
105.4184537339664
 30
0.0
  0
VERTEX
  5
D67
  8
0
 10
83.507753222861865
 20
106.7864046742869
 30
0.0
  0
VERTEX
  5
D68
  8
0
 10
82.849712473463669
 20
108.0595454715213
 30
0.0
  0
VERTEX
  5
D69
  8
0
 10
81.960046725391692
 20
109.1945208427838
 30
0.0
  0
VERTEX
  5
D6A
  8
0
 10
80.86905247866008
 20
110.15268056305899
 30
0.0
  0
VERTEX
  5
D6B
  8
0
 10
79.613882233837899
 20
110.9013956522588
 30
0.0
  0
VERTEX
  5
D6C
  8
0
 10
78.237279308201835
 20
111.41516951600519
 30
0.0
  0
VERTEX
  5
D6D
  8
0
 10
76.786122263331208
 20
111.67650620157239
 30
0.0
  0
VERTEX
  5
D6E
  8
0
 10
75.309828511918056
 20
111.6765062015719
 30
0.0
  0
VERTEX
  5
D6F
  8
0
 10
73.8586714670476
 20
111.4151695160039
 30
0.0
  0
VERTEX
  5
D70
  8
0
 10
72.482068541411877
 20
110.9013956522565
 30
0.0
  0
VERTEX
  5
D71
  8
0
 10
71.226898296590207
 20
110.1526805630559
 30
0.0
  0
VERTEX
  5
D72
  8
0
 10
70.135904049859278
 20
109.19452084277999
 30
0.0
  0
VERTEX
  5
D73
  8
0
 10
69.246238301788082
 20
108.0595454715169
 30
0.0
  0
VERTEX
  5
D74
  8
0
 10
68.588197552390739
 20
106.7864046742821
 30
0.0
  0
VERTEX
  5
D75
  8
0
 10
68.18419059015514
 20
105.4184537339613
 30
0.0
  0
VERTEX
  5
D76
  8
0
 10
68.047975387627275
 20
104.0022765791509
 30
0.0
  0
SEQEND
  5
D77
  8
0
  0
LINE
  5
D78
  8
0
 10
83.547975387627375
 20
97.709383360350714
 30
0.0
 11
68.547975387627275
 21
97.709383360350714
 31
0.0
  0
ARC
  5
D79
  8
0
 10
76.047546057630584
 20
104.292689409921
 30
0.0
 40
6.5031983221643062
 50
358.32794558983193
 51
181.91384666799041
  0
LINE
  5
D7A
  8
0
 10
68.047975387627275
 20
115.2093833603507
 30
0.0
 11
68.047975387627275
 21
98.209383360350728
 31
0.0
  0
LINE
  5
D7B
  8
0
 10
69.547975387627275
 20
104.0755039522282
 30
0.0
 11
69.547975387627275
 21
97.709383360350714
 31
0.0
  0
ARC
  5
D7C
  8
0
 10
68.547975387627275
 20
98.209383360350728
 30
0.0
 40
0.5
 50
180.0
 51
270.0
1001
GENIUS_GENODEF_13
1002
{
1000
HIER
1070
     0
1002
}
1002
{
1000
MANEDIT
1070
     0
1002
}
1002
{
1000
NOSEL
1070
     0
1002
}
1002
{
1000
BEHIND
1070
     0
1002
}
1002
{
1000
REACTOR
1002
}
1001
GENIUS_GENOBJ-N-FIL_13
1002
{
1000
OWNER
1000
GEN
1002
}
  0
ARC
  5
D7D
  8
0
 10
68.547975387627275
 20
115.2093833603507
 30
0.0
 40
0.5
 50
90.0
 51
180.0
1001
GENIUS_GENODEF_13
1002
{
1000
HIER
1070
     0
1002
}
1002
{
1000
MANEDIT
1070
     0
1002
}
1002
{
1000
NOSEL
1070
     0
1002
}
1002
{
1000
BEHIND
1070
     0
1002
}
1002
{
1000
REACTOR
1002
}
1001
GENIUS_GENOBJ-N-FIL_13
1002
{
1000
OWNER
1000
GEN
1002
}
  0
LINE
  5
D80
  8
3
 10
74.117975387627254
 20
122.209383360351
 30
0.0
 11
74.117975387627354
 21
120.6526121650238
 31
0.0
  0
LINE
  5
D81
  8
0
 10
73.547975387627275
 20
121.639383360351
 30
0.0
 11
73.547975387627275
 21
120.1011904371708
 31
0.0
  0
LINE
  5
D82
  8
3
 10
77.977975387627282
 20
122.209383360351
 30
0.0
 11
77.977975387627254
 21
120.6526121650238
 31
0.0
  0
LINE
  5
D83
  8
0
 10
78.547975387627275
 20
115.7093833603507
 30
0.0
 11
78.547975387627304
 21
117.20938336034919
 31
0.0
  0
LINE
  5
D84
  8
1
 10
76.047975387627304
 20
95.709383360350728
 30
0.0
 11
76.047975387627275
 21
124.8093833603498
 31
0.0
1001
GENIUS_GENOREF_13
1005
0
  0
LINE
  5
D85
  8
0
 10
84.047975387627275
 20
115.2093833603507
 30
0.0
 11
84.047975387627389
 21
98.209383360350728
 31
0.0
  0
LINE
  5
D86
  8
0
 10
82.547975387627332
 20
104.10293445446869
 30
0.0
 11
82.547975387627389
 21
97.709383360350714
 31
0.0
  0
ARC
  5
D87
  8
0
 10
83.547975387627375
 20
98.209383360350728
 30
0.0
 40
0.5
 50
270.0
 51
0.0
1001
GENIUS_GENODEF_13
1002
{
1000
HIER
1070
     0
1002
}
1002
{
1000
MANEDIT
1070
     0
1002
}
1002
{
1000
NOSEL
1070
     0
1002
}
1002
{
1000
BEHIND
1070
     0
1002
}
1002
{
1000
REACTOR
1002
}
1001
GENIUS_GENOBJ-N-FIL_13
1002
{
1000
OWNER
1000
GEN
1002
}
  0
ARC
  5
D88
  8
0
 10
76.353600028430151
 20
114.4089254820001
 30
0.0
 40
5.2000000000000002
 50
287.85509049823929
 51
302.34655444227059
  0
LINE
  5
D8A
  8
0
 10
77.947975387627309
 20
109.4593833603503
 30
0.0
 11
74.147975387627298
 21
109.4593833603503
 31
0.0
  0
LINE
  5
D8B
  8
0
 10
77.947975387627309
 20
109.4593833603503
 30
0.0
 11
74.147975387627298
 21
109.4593833603503
 31
0.0
  0
ARC
  5
D8C
  8
0
 10
75.742350746824457
 20
114.4089254820001
 30
0.0
 40
5.2000000000000002
 50
237.64829386930671
 51
252.14490950176059
  0
ARC
  5
D8F
  8
0
 10
83.547975387627275
 20
115.2093833603507
 30
0.0
 40
0.5
 50
0.0
 51
90.0
1001
GENIUS_GENODEF_13
1002
{
1000
HIER
1070
     0
1002
}
1002
{
1000
MANEDIT
1070
     0
1002
}
1002
{
1000
NOSEL
1070
     0
1002
}
1002
{
1000
BEHIND
1070
     0
1002
}
1002
{
1000
REACTOR
1002
}
1001
GENIUS_GENOBJ-N-FIL_13
1002
{
1000
OWNER
1000
GEN
1002
}
  0
LINE
  5
D92
  8
0
 10
75.558077439074737
 20
122.209383360351
 30
0.0
 11
74.117975387627254
 21
122.209383360351
 31
0.0
  0
LINE
  5
D93
  8
0
 10
78.547975387627275
 20
121.639383360351
 30
0.0
 11
77.155269386526385
 21
121.639383360351
 31
0.0
  0
LINE
  5
D94
  8
0
 10
74.117975387627254
 20
122.209383360351
 30
0.0
 11
73.547975387627275
 21
121.639383360351
 31
0.0
  0
LINE
  5
D96
  8
0
 10
78.547975387627275
 20
121.639383360351
 30
0.0
 11
77.977975387627282
 21
122.209383360351
 31
0.0
  0
LINE
  5
D97
  8
0
 10
77.977975387627282
 20
122.209383360351
 30
0.0
 11
76.537873336179786
 21
122.209383360351
 31
0.0
  0
LINE
  5
D98
  8
3
 10
77.977975387627254
 20
117.08946463850531
 30
0.0
 11
77.977975387627282
 21
115.7093833603507
 31
0.0
  0
LINE
  5
D99
  8
0
 10
78.547975387627133
 20
120.101190437171
 30
0.0
 11
78.547975387627275
 21
121.639383360351
 31
0.0
  0
LINE
  5
D9A
  8
3
 10
74.117975387627297
 20
117.08946463850531
 30
0.0
 11
74.117975387627254
 21
115.7093833603507
 31
0.0
  0
LINE
  5
D9B
  8
0
 10
73.547975387627332
 20
117.20938336034919
 30
0.0
 11
73.547975387627275
 21
115.7093833603507
 31
0.0
  0
LINE
  5
D9C
  8
0
 10
74.940681388728137
 20
121.63938336035091
 30
0.0
 11
73.547975387627275
 21
121.639383360351
 31
0.0
  0
LINE
  5
F1B
  8
0
 10
120.7553189093955
 20
51.858151467106417
 30
0.0
 11
114.1553189093937
 21
51.858151467106417
 31
0.0
  0
LINE
  5
F1C
  8
0
 10
113.86034416255831
 20
54.653126213934577
 30
0.0
 11
128.86034416256049
 21
69.653126213936957
 31
0.0
  0
LINE
  5
F1D
  8
0
 10
131.65531890939511
 20
69.35815146710641
 30
0.0
 11
131.65531890939491
 21
53.158151467106372
 31
0.0
  0
ARC
  5
F1E
  8
0
 10
139.35474590939509
 20
61.858151467100988
 30
0.0
 40
2.6245090000000002
 50
130.3549899999999
 51
229.64501000000001
  0
LINE
  5
F22
  8
3
 10
133.15531890939499
 20
59.92815146710096
 30
0.0
 11
131.65531890939499
 21
59.928151467100967
 31
0.0
  0
LINE
  5
F23
  8
1
 10
122.7827453185278
 20
61.858151467100988
 30
0.0
 11
140.6553189093957
 21
61.858151467100967
 31
0.0
  0
LINE
  5
F24
  8
0
 10
133.15531890939499
 20
59.358151467100967
 30
0.0
 11
131.65531890939499
 21
59.358151467100981
 31
0.0
  0
ARC
  5
F25
  8
0
 10
138.8453219093951
 20
56.858151467100988
 30
0.0
 40
1.6900019999999989
 50
134.76034299999949
 51
225.23965700000019
  0
ARC
  5
F26
  8
0
 10
136.7553189093951
 20
56.858151467100988
 30
0.0
 40
1.5
 50
306.86989799999969
 51
53.130102000000321
  0
LINE
  5
F27
  8
0
 10
137.65531890939511
 20
54.358151467100988
 30
0.0
 11
133.15531890939499
 21
54.35815146710101
 31
0.0
  0
LINE
  5
F28
  8
0
 10
137.65531890939511
 20
55.658151467100978
 30
0.0
 11
137.65531890939511
 21
54.358151467100988
 31
0.0
  0
LINE
  5
F29
  8
0
 10
137.65531890939511
 20
59.858151467100988
 30
0.0
 11
137.65531890939511
 21
58.058151467100991
 31
0.0
  0
ARC
  5
F2B
  8
0
 10
120.7553189093955
 20
51.158151467106507
 30
0.0
 40
0.6999999999999083
 50
0.0000000000195413
 51
45.000000000000448
  0
ARC
  5
F2C
  8
0
 10
120.7553189093955
 20
51.158151467106393
 30
0.0
 40
0.7
 50
45.584691402778368
 51
89.999999999999204
1001
GENIUS_GENODEF_13
1002
{
1000
HIER
1070
     0
1002
}
1002
{
1000
MANEDIT
1070
     0
1002
}
1002
{
1000
NOSEL
1070
     0
1002
}
1002
{
1000
BEHIND
1070
     0
1002
}
1002
{
1000
REACTOR
1002
}
1001
GENIUS_GENOBJ-N-FIL_13
1002
{
1000
OWNER
1000
GEN
1002
}
  0
ARC
  5
F2D
  8
0
 10
125.45531890939461
 20
51.658151467106357
 30
0.0
 40
1.0
 50
89.999999999999204
 51
180.00000000001381
1001
GENIUS_GENODEF_13
1002
{
1000
HIER
1070
     0
1002
}
1002
{
1000
MANEDIT
1070
     0
1002
}
1002
{
1000
NOSEL
1070
     0
1002
}
1002
{
1000
BEHIND
1070
     0
1002
}
1002
{
1000
REACTOR
1002
}
1001
GENIUS_GENOBJ-N-FIL_13
1002
{
1000
OWNER
1000
GEN
1002
}
  0
LINE
  5
F2E
  8
0
 10
125.03105484068369
 20
49.85815146710118
 30
0.0
 11
125.65531890939511
 21
49.858151467100953
 31
0.0
  0
ARC
  5
F2F
  8
0
 10
125.4553189093955
 20
48.358151467100953
 30
0.0
 40
0.5
 50
270.0
 51
0.0000000000227982
1001
GENIUS_GENODEF_13
1002
{
1000
HIER
1070
     0
1002
}
1002
{
1000
MANEDIT
1070
     0
1002
}
1002
{
1000
NOSEL
1070
     0
1002
}
1002
{
1000
BEHIND
1070
     0
1002
}
1002
{
1000
REACTOR
1002
}
1001
GENIUS_GENOBJ-N-FIL_13
1002
{
1000
OWNER
1000
GEN
1002
}
  0
LINE
  5
F30
  8
0
 10
125.9553189093951
 20
49.558151467101112
 30
0.0
 11
125.9553189093955
 21
48.35815146710118
 31
0.0
  0
ARC
  5
F31
  8
0
 10
125.65531890939511
 20
49.558151467100998
 30
0.0
 40
0.3
 50
0.0000000000195413
 51
89.999999999984524
1001
GENIUS_GENODEF_13
1002
{
1000
HIER
1070
     0
1002
}
1002
{
1000
MANEDIT
1070
     0
1002
}
1002
{
1000
NOSEL
1070
     0
1002
}
1002
{
1000
BEHIND
1070
     0
1002
}
1002
{
1000
REACTOR
1002
}
1001
GENIUS_GENOBJ-N-FIL_13
1002
{
1000
OWNER
1000
GEN
1002
}
  0
ARC
  5
F32
  8
0
 10
123.4553189093958
 20
49.858151467100953
 30
0.0
 40
2.0
 50
180.0000000000195
 51
270.0
1001
GENIUS_GENODEF_13
1002
{
1000
HIER
1070
     0
1002
}
1002
{
1000
MANEDIT
1070
     0
1002
}
1002
{
1000
NOSEL
1070
     0
1002
}
1002
{
1000
BEHIND
1070
     0
1002
}
1002
{
1000
REACTOR
1002
}
1001
GENIUS_GENOBJ-N-FIL_13
1002
{
1000
OWNER
1000
GEN
1002
}
  0
LINE
  5
F33
  8
0
 10
125.03105484068369
 20
49.85815146710118
 30
0.0
 11
124.4553189093948
 21
50.433887398389537
 31
0.0
1001
GENIUS_GENODEF_13
1002
{
1000
HIER
1070
     0
1002
}
1002
{
1000
MANEDIT
1070
     0
1002
}
1002
{
1000
NOSEL
1070
     0
1002
}
1002
{
1000
BEHIND
1070
     0
1002
}
1002
{
1000
REACTOR
1002
}
1001
GENIUS_GENOBJ-N-CHA_13
1002
{
1000
OWNER
1000
GEN
1002
}
1001
GENIUS_GENFIL_13
1070
     0
1040
0.707
1040
0.707
1040
0.0
1040
0.0
1002
{
1002
}
  0
LINE
  5
F34
  8
0
 10
124.45531890939461
 20
51.65815146710613
 30
0.0
 11
124.4553189093948
 21
50.433887398389537
 31
0.0
  0
LINE
  5
F35
  8
0
 10
123.4553189093958
 20
47.858151467100953
 30
0.0
 11
125.4553189093955
 21
47.858151467100953
 31
0.0
  0
LINE
  5
F36
  8
0
 10
121.4553189093953
 20
51.158151467106507
 30
0.0
 11
121.4553189093958
 21
49.858151467100299
 31
0.0
  0
LINE
  5
F37
  8
0
 10
125.45531890939461
 20
52.658151467106357
 30
0.0
 11
131.15531890939499
 21
52.658151467106357
 31
0.0
  0
ARC
  5
F38
  8
0
 10
131.15531890939499
 20
53.158151467106372
 30
0.0
 40
0.5
 50
270.0
 51
359.9999999999992
1001
GENIUS_GENODEF_13
1002
{
1000
HIER
1070
     0
1002
}
1002
{
1000
MANEDIT
1070
     0
1002
}
1002
{
1000
NOSEL
1070
     0
1002
}
1002
{
1000
BEHIND
1070
     0
1002
}
1002
{
1000
REACTOR
1002
}
1001
GENIUS_GENOBJ-N-FIL_13
1002
{
1000
OWNER
1000
GEN
1002
}
  0
LINE
  5
F39
  8
3
 10
133.15531890939499
 20
63.788151467100931
 30
0.0
 11
131.65531890939499
 21
63.788151467100953
 31
0.0
  0
LINE
  5
F3A
  8
0
 10
131.65531890939499
 20
64.358151467100981
 30
0.0
 11
133.15531890939499
 21
64.358151467100953
 31
0.0
  0
LINE
  5
F3B
  8
0
 10
133.15531890939499
 20
65.858151467100996
 30
0.0
 11
137.65531890939511
 21
65.858151467100996
 31
0.0
  0
LINE
  5
F3C
  8
0
 10
137.65531890939511
 20
65.858151467100996
 30
0.0
 11
137.65531890939511
 21
63.858151467101003
 31
0.0
  0
ARC
  5
F3D
  8
0
 10
129.35531890940169
 20
69.158151467074021
 30
0.0
 40
0.7
 50
90.000000000876909
 51
134.9999999987464
1001
GENIUS_GENODEF_13
1002
{
1000
HIER
1070
     0
1002
}
1002
{
1000
MANEDIT
1070
     0
1002
}
1002
{
1000
NOSEL
1070
     0
1002
}
1002
{
1000
BEHIND
1070
     0
1002
}
1002
{
1000
REACTOR
1002
}
1001
GENIUS_GENOBJ-N-FIL_13
1002
{
1000
OWNER
1000
GEN
1002
}
  0
ARC
  5
F3E
  8
0
 10
131.15531890939511
 20
69.35815146710641
 30
0.0
 40
0.5
 50
0.0
 51
90.0
1001
GENIUS_GENODEF_13
1002
{
1000
HIER
1070
     0
1002
}
1002
{
1000
MANEDIT
1070
     0
1002
}
1002
{
1000
NOSEL
1070
     0
1002
}
1002
{
1000
BEHIND
1070
     0
1002
}
1002
{
1000
REACTOR
1002
}
1001
GENIUS_GENOBJ-N-FIL_13
1002
{
1000
OWNER
1000
GEN
1002
}
  0
LINE
  5
F3F
  8
0
 10
129.35531890939109
 20
69.85815146710641
 30
0.0
 11
131.15531890939511
 21
69.85815146710641
 31
0.0
  0
ARC
  5
F40
  8
0
 10
114.3553189093889
 20
54.15815146710402
 30
0.0
 40
0.7
 50
135.0000000000004
 51
180.00000000015629
1001
GENIUS_GENODEF_13
1002
{
1000
HIER
1070
     0
1002
}
1002
{
1000
MANEDIT
1070
     0
1002
}
1002
{
1000
NOSEL
1070
     0
1002
}
1002
{
1000
BEHIND
1070
     0
1002
}
1002
{
1000
REACTOR
1002
}
1001
GENIUS_GENOBJ-N-FIL_13
1002
{
1000
OWNER
1000
GEN
1002
}
  0
ARC
  5
F41
  8
0
 10
114.1553189093937
 20
52.358151467106417
 30
0.0
 40
0.5
 50
180.0000000001466
 51
270.0
1001
GENIUS_GENODEF_13
1002
{
1000
HIER
1070
     0
1002
}
1002
{
1000
MANEDIT
1070
     0
1002
}
1002
{
1000
NOSEL
1070
     0
1002
}
1002
{
1000
BEHIND
1070
     0
1002
}
1002
{
1000
REACTOR
1002
}
1001
GENIUS_GENOBJ-N-FIL_13
1002
{
1000
OWNER
1000
GEN
1002
}
  0
LINE
  5
F42
  8
0
 10
113.6553189093937
 20
52.358151467105181
 30
0.0
 11
113.6553189093889
 21
54.158151467102122
 31
0.0
  0
LINE
  5
10E9
  8
3
 10
138.1553189093957
 20
59.928151467100989
 30
0.0
 11
137.57622194523799
 21
59.928151467100989
 31
0.0
  0
LINE
  5
10EB
  8
3
 10
138.1553189093957
 20
63.788151467100967
 30
0.0
 11
137.57622194523799
 21
63.788151467100967
 31
0.0
  0
LINE
  5
10EC
  8
0
 10
138.1553189093957
 20
63.788151467100967
 30
0.0
 11
138.1553189093957
 21
59.928151467100989
 31
0.0
  0
LINE
  5
10ED
  8
0
 10
137.65531890939511
 20
64.288151467101599
 30
0.0
 11
138.1553189093957
 21
63.788151467100967
 31
0.0
  0
LINE
  5
10EE
  8
0
 10
137.58531890939571
 20
63.79649498225875
 30
0.0
 11
137.58531890939571
 21
59.919807951943213
 31
0.0
  0
LINE
  5
10F0
  8
0
 10
138.1553189093957
 20
59.928151467100989
 30
0.0
 11
137.65531890939511
 21
59.428151467100328
 31
0.0
  0
ARC
  5
11FF
  8
0
 10
76.047975387627275
 20
121.0593833603492
 30
0.0
 40
1.25
 50
5.4302630750893588
 51
174.56973692491059
  0
ARC
  5
1200
  8
0
 10
73.347975387627343
 20
117.3093833603492
 30
0.0
 40
0.2
 50
0.0
 51
90.0
  0
LINE
  5
1201
  8
0
 10
73.547975387627332
 20
117.20938336034919
 30
0.0
 11
73.547975387627332
 21
117.3093833603492
 31
0.0
  0
ARC
  5
1202
  8
0
 10
73.747975387627321
 20
117.20938336034919
 30
0.0
 40
0.2
 50
180.0
 51
270.0
  0
ARC
  5
1203
  8
0
 10
78.347975387627287
 20
117.20938336034919
 30
0.0
 40
0.2
 50
270.0
 51
0.0
  0
ARC
  5
1204
  8
0
 10
78.747975387627264
 20
117.3093833603492
 30
0.0
 40
0.2
 50
90.0
 51
180.0
  0
LINE
  5
1205
  8
0
 10
78.547975387627275
 20
117.20938336034919
 30
0.0
 11
78.547975387627275
 21
117.3093833603492
 31
0.0
  0
ARC
  5
1206
  8
0
 10
76.047975387627275
 20
107.2774770722678
 30
0.0
 40
10.0
 50
76.702928252791551
 51
103.2970717472101
  0
LINE
  5
1207
  8
0
 10
72.347975387627287
 20
117.5093833603492
 30
0.0
 11
73.34797538762723
 21
117.5093833603492
 31
0.0
  0
ARC
  5
1208
  8
0
 10
76.047975387627304
 20
119.0093833603492
 30
0.0
 40
2.5
 50
55.513044364262882
 51
124.4869556357371
  0
ARC
  5
1209
  8
0
 10
79.63126390118461
 20
114.3832592558405
 30
0.0
 40
8.3487206285518791
 50
126.7807554659028
 51
154.8775777152176
  0
ARC
  5
120A
  8
0
 10
72.347975387627287
 20
117.8093833603492
 30
0.0
 40
0.3
 50
156.76379688519651
 51
270.0
  0
LINE
  5
120B
  8
0
 10
79.747975387627321
 20
117.5093833603492
 30
0.0
 11
78.747975387627378
 21
117.5093833603492
 31
0.0
  0
ARC
  5
120C
  8
0
 10
72.464686874069983
 20
114.3832592558405
 30
0.0
 40
8.3487206285518791
 50
25.122422284782409
 51
53.2192445340972
  0
ARC
  5
120D
  8
0
 10
79.747975387627321
 20
117.8093833603492
 30
0.0
 40
0.3
 50
270.0
 51
23.236203114803491
  0
LINE
  5
126F
  8
0
 10
133.65531890939499
 20
54.358151467100988
 30
0.0
 11
133.65531890939499
 21
65.858151467100996
 31
0.0
  0
LINE
  5
1270
  8
0
 10
133.65531890939499
 20
54.358151467100988
 30
0.0
 11
133.65531890939499
 21
65.858151467100996
 31
0.0
  0
LINE
  5
1271
  8
0
 10
133.15531890939499
 20
54.358151467100988
 30
0.0
 11
133.15531890939499
 21
65.858151467100996
 31
0.0
  0
TEXT
  5
12DB
  8
0
 62
     3
 10
0.0
 20
0.0
 30
0.0
 40
10.0
  1
L5-ACJ
  7
STANDARD1
  0
ENDSEC
  0
EOF
