  0
SECTION
  2
HEADER
  9
$ACADVER
  1
AC1009
  9
$INSBASE
 10
0.0
 20
0.0
 30
0.0
  9
$EXTMIN
 10
0.0
 20
-2.960436562073669
 30
0.0
  9
$EXTMAX
 10
162.5
 20
88.000000000000014
 30
0.0
  9
$LIMMIN
 10
0.0
 20
0.0
  9
$LIMMAX
 10
187.5
 20
135.0
  9
$ORTHOMODE
 70
     1
  9
$REGENMODE
 70
     1
  9
$FILLMODE
 70
     1
  9
$QTEXTMODE
 70
     0
  9
$MIRRTEXT
 70
     0
  9
$DRAGMODE
 70
     2
  9
$LTSCALE
 40
5.0
  9
$OSMODE
 70
    37
  9
$ATTMODE
 70
     1
  9
$TEXTSIZE
 40
5.0
  9
$TRACEWID
 40
0.05
  9
$TEXTSTYLE
  7
STANDARD
  9
$CLAYER
  8
0
  9
$CELTYPE
  6
BYLAYER
  9
$CECOLOR
 62
   256
  9
$DIMSCALE
 40
0.5
  9
$DIMASZ
 40
3.0
  9
$DIMEXO
 40
2.0
  9
$DIMDLI
 40
0.38
  9
$DIMRND
 40
0.0
  9
$DIMDLE
 40
0.0
  9
$DIMEXE
 40
2.0
  9
$DIMTP
 40
0.0
  9
$DIMTM
 40
0.0
  9
$DIMTXT
 40
3.2000000000000002
  9
$DIMCEN
 40
0.0
  9
$DIMTSZ
 40
0.0
  9
$DIMTOL
 70
     0
  9
$DIMLIM
 70
     0
  9
$DIMTIH
 70
     0
  9
$DIMTOH
 70
     0
  9
$DIMSE1
 70
     0
  9
$DIMSE2
 70
     1
  9
$DIMTAD
 70
     1
  9
$DIMZIN
 70
     0
  9
$DIMBLK
  1

  9
$DIMASO
 70
     1
  9
$DIMSHO
 70
     0
  9
$DIMPOST
  1

  9
$DIMAPOST
  1

  9
$DIMALT
 70
     0
  9
$DIMALTD
 70
     2
  9
$DIMALTF
 40
25.399999999999999
  9
$DIMLFAC
 40
1.0
  9
$DIMTOFL
 70
     1
  9
$DIMTVP
 40
1.6000000000000001
  9
$DIMTIX
 70
     1
  9
$DIMSOXD
 70
     0
  9
$DIMSAH
 70
     0
  9
$DIMBLK1
  1

  9
$DIMBLK2
  1

  9
$DIMSTYLE
  2
STANDARD
  9
$DIMCLRD
 70
     0
  9
$DIMCLRE
 70
     0
  9
$DIMCLRT
 70
     0
  9
$DIMTFAC
 40
1.0
  9
$DIMGAP
 40
0.09
  9
$LUNITS
 70
     2
  9
$LUPREC
 70
     4
  9
$SKETCHINC
 40
0.1
  9
$FILLETRAD
 40
0.0
  9
$AUNITS
 70
     0
  9
$AUPREC
 70
     4
  9
$MENU
  1
E:\r13\win\SUPPORT\ACAD
  9
$ELEVATION
 40
0.0
  9
$PELEVATION
 40
0.0
  9
$THICKNESS
 40
0.0
  9
$LIMCHECK
 70
     0
  9
$BLIPMODE
 70
     0
  9
$CHAMFERA
 40
0.0
  9
$CHAMFERB
 40
0.0
  9
$SKPOLY
 70
     0
  9
$TDCREATE
 40
2449839.7863078709
  9
$TDUPDATE
 40
2457179.385601528
  9
$TDINDWG
 40
0.0035146296
  9
$TDUSRTIMER
 40
0.0035146296
  9
$USRTIMER
 70
     1
  9
$ANGBASE
 50
0.0
  9
$ANGDIR
 70
     0
  9
$PDMODE
 70
     0
  9
$PDSIZE
 40
0.0
  9
$PLINEWID
 40
0.0
  9
$COORDS
 70
     1
  9
$SPLFRAME
 70
     0
  9
$SPLINETYPE
 70
     6
  9
$SPLINESEGS
 70
     8
  9
$ATTDIA
 70
     0
  9
$ATTREQ
 70
     1
  9
$HANDLING
 70
     1
  9
$HANDSEED
  5
B48
  9
$SURFTAB1
 70
     6
  9
$SURFTAB2
 70
     6
  9
$SURFTYPE
 70
     6
  9
$SURFU
 70
     6
  9
$SURFV
 70
     6
  9
$UCSNAME
  2

  9
$UCSORG
 10
0.0
 20
0.0
 30
0.0
  9
$UCSXDIR
 10
1.0
 20
0.0
 30
0.0
  9
$UCSYDIR
 10
0.0
 20
1.0
 30
0.0
  9
$PUCSNAME
  2

  9
$PUCSORG
 10
0.0
 20
0.0
 30
0.0
  9
$PUCSXDIR
 10
1.0
 20
0.0
 30
0.0
  9
$PUCSYDIR
 10
0.0
 20
1.0
 30
0.0
  9
$USERI1
 70
     0
  9
$USERI2
 70
     1
  9
$USERI3
 70
     1
  9
$USERI4
 70
     0
  9
$USERI5
 70
     0
  9
$USERR1
 40
0.0
  9
$USERR2
 40
0.0
  9
$USERR3
 40
0.0
  9
$USERR4
 40
0.0
  9
$USERR5
 40
0.0
  9
$WORLDVIEW
 70
     1
  9
$SHADEDGE
 70
     3
  9
$SHADEDIF
 70
    70
  9
$TILEMODE
 70
     1
  9
$MAXACTVP
 70
    16
  9
$PLIMCHECK
 70
     0
  9
$PEXTMIN
 10
1.0000000000000000E+020
 20
1.0000000000000000E+020
 30
1.0000000000000000E+020
  9
$PEXTMAX
 10
-1.0000000000000000E+020
 20
-1.0000000000000000E+020
 30
-1.0000000000000000E+020
  9
$PLIMMIN
 10
0.0
 20
0.0
  9
$PLIMMAX
 10
12.0
 20
9.0
  9
$UNITMODE
 70
     0
  9
$VISRETAIN
 70
     0
  9
$PLINEGEN
 70
     0
  9
$PSLTSCALE
 70
     0
  0
ENDSEC
  0
SECTION
  2
TABLES
  0
TABLE
  2
VPORT
 70
     1
  0
VPORT
  2
*ACTIVE
 70
     0
 10
0.0
 20
0.0
 11
1.0
 21
1.0
 12
172.54273504273499
 22
95.0
 13
0.0
 23
0.0
 14
5.0
 24
5.0
 15
5.0
 25
5.0
 16
0.0
 26
0.0
 36
1.0
 17
0.0
 27
0.0
 37
0.0
 40
190.0
 41
1.816239316239316
 42
50.0
 43
0.0
 44
0.0
 50
0.0
 51
0.0
 71
     0
 72
   500
 73
     1
 74
     0
 75
     0
 76
     0
 77
     0
 78
     2
  0
ENDTAB
  0
TABLE
  2
LTYPE
 70
     3
  0
LTYPE
  2
CONTINUOUS
 70
     0
  3
Solid Line
 72
    65
 73
     0
 40
0.0
  0
LTYPE
  2
CENTER
 70
     0
  3
____ _ ____ _ ____ _ ____ _ ____ _ ____ _ ____
 72
    65
 73
     4
 40
2.0
 49
1.25
 49
-0.25
 49
0.25
 49
-0.25
  0
LTYPE
  2
PHANTOM2
 70
     0
  3
___ _ _ ___ _ _ ___ _ _ ___ _ _
 72
    65
 73
     6
 40
1.25
 49
0.625
 49
-0.125
 49
0.125
 49
-0.125
 49
0.125
 49
-0.125
  0
ENDTAB
  0
TABLE
  2
LAYER
 70
     3
  0
LAYER
  2
0
 70
     0
 62
     7
  6
CONTINUOUS
  0
LAYER
  2
1
 70
     0
 62
     1
  6
CENTER
  0
LAYER
  2
3
 70
     0
 62
     3
  6
CONTINUOUS
  0
ENDTAB
  0
TABLE
  2
STYLE
 70
     2
  0
STYLE
  2
STANDARD
 70
     0
 40
0.0
 41
1.0
 50
0.0
 71
     0
 42
5.0
  3
TXT
  4
BIGFONT
  0
STYLE
  2
STANDARD1
 70
     0
 40
0.0
 41
1.0
 50
0.0
 71
     0
 42
3.0
  3
txt
  4

  0
ENDTAB
  0
TABLE
  2
VIEW
 70
     1
  0
VIEW
  2
ALL
 70
     0
 40
135.0
 10
110.4957983193277
 20
67.5
 41
0.0
 11
0.0
 21
0.0
 31
1.0
 12
0.0
 22
0.0
 32
0.0
 42
0.0
 43
0.0
 44
0.0
 50
0.0
 71
     0
  0
ENDTAB
  0
TABLE
  2
UCS
 70
     0
  0
ENDTAB
  0
TABLE
  2
APPID
 70
     4
  0
APPID
  2
ACAD
 70
     0
  0
APPID
  2
ACAD_MLEADERVER
 70
     0
  0
APPID
  2
ACAD_NAV_VCDISPLAY
 70
     0
  0
APPID
  2
ACAD_EXEMPT_FROM_CAD_STANDARDS
 70
     0
  0
ENDTAB
  0
TABLE
  2
DIMSTYLE
 70
     1
  0
DIMSTYLE
  2
STANDARD
 70
     0
  3

  4

  5

  6

  7

 40
1.0
 41
0.18
 42
0.0625
 43
0.38
 44
0.18
 45
0.0
 46
0.0
 47
0.0
 48
0.0
140
0.18
141
0.09
142
0.0
143
25.399999999999999
144
1.0
145
0.0
146
1.0
147
0.09
 71
     0
 72
     0
 73
     1
 74
     1
 75
     0
 76
     0
 77
     0
 78
     0
170
     0
171
     2
172
     0
173
     0
174
     0
175
     0
176
     0
177
     0
178
     0
  0
ENDTAB
  0
ENDSEC
  0
SECTION
  2
BLOCKS
  0
BLOCK
  8
0
  2
$MODEL_SPACE
 70
     0
 10
0.0
 20
0.0
 30
0.0
  3
$MODEL_SPACE
  1

  0
ENDBLK
  5
671
  8
0
  0
BLOCK
 67
     1
  8
0
  2
$PAPER_SPACE
 70
     0
 10
0.0
 20
0.0
 30
0.0
  3
$PAPER_SPACE
  1

  0
ENDBLK
  5
66F
 67
     1
  8
0
  0
ENDSEC
  0
SECTION
  2
ENTITIES
  0
TEXT
  5
75D
  8
0
 62
     3
 10
0.0
 20
0.0
 30
0.0
 40
10.0
  1
KS30X25
  7
STANDARD1
  0
LINE
  5
87D
  8
1
 10
32.0
 20
88.0
 30
0.0
 11
32.0
 21
52.0
 31
0.0
  0
LINE
  5
87E
  8
1
 10
50.0
 20
70.0
 30
0.0
 11
13.99999999999997
 21
70.0
 31
0.0
  0
CIRCLE
  5
87F
  8
0
 10
32.0
 20
70.0
 30
0.0
 40
14.75
  0
ARC
  5
880
  8
0
 10
32.0
 20
84.600000000001259
 30
0.0
 40
0.9
 50
7.8569869776658301
 51
172.14301302233409
  0
ARC
  5
881
  8
0
 10
35.035510685939563
 20
84.280954970714816
 30
0.0
 40
0.9
 50
355.85698697766651
 51
160.14301302233309
  0
ARC
  5
882
  8
0
 10
37.938354988907207
 20
83.337763681583141
 30
0.0
 40
0.9
 50
343.85698697766668
 51
148.143013022335
  0
ARC
  5
883
  8
0
 10
40.581664683470883
 20
81.811648117875279
 30
0.0
 40
0.9
 50
331.85698697766668
 51
136.14301302233221
  0
ARC
  5
884
  8
0
 10
42.849914451970932
 20
79.769306852840202
 30
0.0
 40
0.9
 50
319.85698697766799
 51
124.143013022335
  0
ARC
  5
885
  8
0
 10
44.643970895253908
 20
77.300000000000637
 30
0.0
 40
0.9
 50
307.85698697766651
 51
112.1430130223346
  0
ARC
  5
886
  8
0
 10
45.88542513791046
 20
74.511648117874614
 30
0.0
 40
0.9
 50
295.85698697766628
 51
100.1430130223322
  0
ARC
  5
887
  8
0
 10
46.520019672378048
 20
71.52611556370789
 30
0.0
 40
0.9
 50
283.85698697766662
 51
88.143013022333804
  0
ARC
  5
888
  8
0
 10
46.520019672378048
 20
68.47388443629211
 30
0.0
 40
0.9
 50
271.85698697766622
 51
76.143013022333434
  0
ARC
  5
889
  8
0
 10
45.88542513791046
 20
65.488351882125343
 30
0.0
 40
0.9
 50
259.85698697766782
 51
64.143013022333704
  0
ARC
  5
88A
  8
0
 10
44.643970895253943
 20
62.699999999999363
 30
0.0
 40
0.9
 50
247.85698697766529
 51
52.143013022333513
  0
ARC
  5
88B
  8
0
 10
42.849914451970903
 20
60.230693147159791
 30
0.0
 40
0.9
 50
235.856986977665
 51
40.143013022332049
  0
ARC
  5
88C
  8
0
 10
40.581664683470841
 20
58.188351882124721
 30
0.0
 40
0.9
 50
223.85698697766779
 51
28.14301302233331
  0
ARC
  5
88D
  8
0
 10
37.938354988907207
 20
56.662236318416859
 30
0.0
 40
0.9
 50
211.856986977665
 51
16.143013022333282
  0
ARC
  5
88E
  8
0
 10
35.035510685939563
 20
55.719045029285184
 30
0.0
 40
0.9
 50
199.85698697766679
 51
4.143013022333478
  0
ARC
  5
88F
  8
0
 10
32.0
 20
55.399999999998727
 30
0.0
 40
0.9
 50
187.85698697766739
 51
352.14301302233417
  0
ARC
  5
890
  8
0
 10
28.964489314060501
 20
55.719045029285184
 30
0.0
 40
0.9
 50
175.85698697766651
 51
340.14301302233321
  0
ARC
  5
891
  8
0
 10
26.061645011092821
 20
56.662236318416831
 30
0.0
 40
0.9
 50
163.85698697766671
 51
328.14301302233503
  0
ARC
  5
892
  8
0
 10
23.418335316529149
 20
58.188351882124778
 30
0.0
 40
0.9
 50
151.85698697766659
 51
316.14301302233218
  0
ARC
  5
893
  8
0
 10
21.1500855480291
 20
60.230693147159791
 30
0.0
 40
0.9
 50
139.8569869776679
 51
304.14301302233503
  0
ARC
  5
894
  8
0
 10
19.356029104746082
 20
62.699999999999328
 30
0.0
 40
0.9
 50
127.85698697766639
 51
292.14301302233463
  0
ARC
  5
895
  8
0
 10
18.11457486208954
 20
65.488351882125343
 30
0.0
 40
0.9
 50
115.8569869776663
 51
280.1430130223323
  0
ARC
  5
896
  8
0
 10
17.479980327621941
 20
68.47388443629211
 30
0.0
 40
0.9
 50
103.85698697766649
 51
268.14301302233378
  0
ARC
  5
897
  8
0
 10
17.47998032762192
 20
71.526115563707862
 30
0.0
 40
0.9
 50
91.856986977666196
 51
256.14301302233338
  0
ARC
  5
898
  8
0
 10
18.11457486208954
 20
74.511648117874643
 30
0.0
 40
0.9
 50
79.856986977667759
 51
244.14301302233369
  0
ARC
  5
899
  8
0
 10
19.35602910474606
 20
77.300000000000637
 30
0.0
 40
0.9
 50
67.856986977665315
 51
232.14301302233349
  0
ARC
  5
89A
  8
0
 10
21.1500855480291
 20
79.769306852840202
 30
0.0
 40
0.9
 50
55.856986977664981
 51
220.14301302233201
  0
ARC
  5
89B
  8
0
 10
23.418335316529149
 20
81.811648117875279
 30
0.0
 40
0.9
 50
43.856986977667823
 51
208.14301302233329
  0
ARC
  5
89C
  8
0
 10
26.061645011092821
 20
83.337763681583155
 30
0.0
 40
0.9
 50
31.85698697766497
 51
196.14301302233329
  0
ARC
  5
89D
  8
0
 10
28.964489314060469
 20
84.280954970714816
 30
0.0
 40
0.9
 50
19.856986977666839
 51
184.14301302233341
  0
LINE
  5
89E
  8
0
 10
88.499999999999986
 20
75.5
 30
0.0
 11
88.499999999999986
 21
64.5
 31
0.0
  0
LINE
  5
89F
  8
0
 10
88.499999999999986
 20
64.5
 30
0.0
 11
88.199999999999775
 21
64.5
 31
0.0
  0
LINE
  5
8A0
  8
0
 10
88.499999999999986
 20
75.5
 30
0.0
 11
88.199999999999775
 21
75.5
 31
0.0
  0
LINE
  5
8A1
  8
0
 10
72.725137362834829
 20
84.749999999999986
 30
0.0
 11
73.500000000000341
 21
84.749999999999986
 31
0.0
  0
LINE
  5
8A2
  8
0
 10
73.500000000000341
 20
84.749999999999986
 30
0.0
 11
73.5
 21
55.25
 31
0.0
  0
LINE
  5
8A3
  8
0
 10
73.500000000000341
 20
84.749999999999986
 30
0.0
 11
73.551227139574479
 21
84.801227139574124
 31
0.0
  0
LINE
  5
8A4
  8
0
 10
74.250000000000213
 20
85.499999999999886
 30
0.0
 11
80.599999999999994
 21
85.499999999999886
 31
0.0
  0
LINE
  5
8A5
  8
0
 10
81.487411967466684
 20
84.749999999999986
 30
0.0
 11
81.900000000000006
 21
84.749999999999986
 31
0.0
  0
LINE
  5
8A6
  8
0
 10
82.5
 20
84.150000000000006
 30
0.0
 11
82.5
 21
55.849999046325671
 31
0.0
  0
LINE
  5
8A7
  8
0
 10
82.5
 20
81.999999999999929
 30
0.0
 11
87.199999999999747
 21
81.999999999999929
 31
0.0
  0
LINE
  5
8A8
  8
0
 10
88.199999999999775
 20
80.999999999999943
 30
0.0
 11
88.199999999999775
 21
59.00000000000005
 31
0.0
  0
ARC
  5
8A9
  8
0
 10
80.599999999999994
 20
84.599999999999881
 30
0.0
 40
0.9
 50
7.8569869777447341
 51
90.0
  0
ARC
  5
8AA
  8
0
 10
81.900000000000006
 20
84.150000000000006
 30
0.0
 40
0.6
 50
0.0
 51
90.0
  0
LINE
  5
8AB
  8
0
 10
87.199999999999747
 20
81.999999999999929
 30
0.0
 11
88.199999999999775
 21
80.999999999999943
 31
0.0
  0
LINE
  5
8AC
  8
0
 10
87.199999999999747
 20
58.000000000000057
 30
0.0
 11
88.199999999999775
 21
59.00000000000005
 31
0.0
  0
LINE
  5
8AD
  8
0
 10
82.5
 20
58.000000000000057
 30
0.0
 11
87.199999999999747
 21
58.000000000000057
 31
0.0
  0
ARC
  5
8AE
  8
0
 10
81.900000000000006
 20
55.849999999999987
 30
0.0
 40
0.6
 50
270.0
 51
0.0
  0
LINE
  5
8AF
  8
0
 10
72.725137362835142
 20
84.750000000000355
 30
0.0
 11
72.725137362834801
 21
55.25
 31
0.0
  0
ARC
  5
8B0
  8
0
 10
120.5
 20
70.0
 30
0.0
 40
50.0
 50
162.84246262830069
 51
197.1575373716974
  0
LINE
  5
8B1
  8
1
 10
115.9999999999999
 20
70.0
 30
0.0
 11
68.0
 21
70.0
 31
0.0
  0
LINE
  5
8B2
  8
0
 10
74.250000000000213
 20
85.180954970714851
 30
0.0
 11
80.599999999999994
 21
85.180954970714836
 31
0.0
  0
LINE
  5
8B3
  8
0
 10
74.248017849401435
 20
84.237763681583147
 30
0.0
 11
80.599999999999994
 21
84.237763681583147
 31
0.0
  0
LINE
  5
8B4
  8
0
 10
73.500000000000313
 20
83.087531416472871
 30
0.0
 11
80.599999999999994
 21
83.087531416472871
 31
0.0
  0
LINE
  5
8B5
  8
0
 10
74.241611748130651
 20
82.711648117875313
 30
0.0
 11
80.599999999999994
 21
82.711648117875285
 31
0.0
  0
LINE
  5
8B6
  8
0
 10
73.500000000000284
 20
81.387141537938817
 30
0.0
 11
80.599999999999994
 21
81.387141537938817
 31
0.0
  0
LINE
  5
8B7
  8
0
 10
74.225979471134053
 20
80.669306852840236
 30
0.0
 11
80.599999999999994
 21
80.669306852840194
 31
0.0
  0
LINE
  5
8B8
  8
0
 10
73.500000000000284
 20
79.189078932629428
 30
0.0
 11
80.599999999999994
 21
79.189078932629386
 31
0.0
  0
LINE
  5
8B9
  8
0
 10
74.192504275570514
 20
78.200000000000614
 30
0.0
 11
80.599999999999994
 21
78.200000000000614
 31
0.0
  0
LINE
  5
8BA
  8
0
 10
73.500000000000256
 20
76.589409483871236
 30
0.0
 11
80.599999999999994
 21
76.589409483871236
 31
0.0
  0
LINE
  5
8BB
  8
0
 10
73.500000000000213
 20
75.411648117874648
 30
0.0
 11
80.599999999999994
 21
75.41164811787462
 31
0.0
  0
LINE
  5
8BC
  8
0
 10
73.500000000000213
 20
73.701751221173026
 30
0.0
 11
80.599999999999994
 21
73.701751221172984
 31
0.0
  0
LINE
  5
8BD
  8
0
 10
73.500000000000199
 20
72.425642905778304
 30
0.0
 11
80.599999999999994
 21
72.42564290577829
 31
0.0
  0
LINE
  5
8BE
  8
0
 10
73.500000000000171
 20
70.652308667136481
 30
0.0
 11
80.599999999999994
 21
70.652308667136452
 31
0.0
  0
LINE
  5
8BF
  8
0
 10
87.199999999999733
 20
81.999999999999929
 30
0.0
 11
87.199999999999733
 21
58.000000000000028
 31
0.0
  0
POLYLINE
  5
8C0
  8
0
 66
     1
 10
0.0
 20
0.0
 30
0.0
  0
VERTEX
  5
9E2
  8
0
 10
80.599999999999994
 20
70.652308667136424
 30
0.0
 42
0.0958836768337548
  0
VERTEX
  5
9E3
  8
0
 10
80.945657826787595
 20
70.719209619769572
 30
0.0
 42
0.0973727181123934
  0
VERTEX
  5
9E4
  8
0
 10
81.236396103067904
 20
70.908240781694644
 30
0.0
 42
0.0995552790647585
  0
VERTEX
  5
9E5
  8
0
 10
81.431904167055123
 20
71.19296992258478
 30
0.0
 42
0.1011555278604192
  0
VERTEX
  5
9E6
  8
0
 10
81.5
 20
71.526115563707862
 30
0.0
 42
0.1011555278603906
  0
SEQEND
  5
9E7
  8
0
  0
POLYLINE
  5
8C1
  8
0
 66
     1
 10
0.0
 20
0.0
 30
0.0
  0
VERTEX
  5
9E8
  8
0
 10
81.5
 20
71.526115563707833
 30
0.0
 42
0.0985382942772341
  0
VERTEX
  5
9E9
  8
0
 10
81.431498789040972
 20
71.870327317680562
 30
0.0
 42
0.0985108138432073
  0
VERTEX
  5
9EA
  8
0
 10
81.236396103067946
 20
72.162177447148565
 30
0.0
 42
0.0984719755302262
  0
VERTEX
  5
9EB
  8
0
 10
80.944437544947036
 20
72.35716326261695
 30
0.0
 42
0.0984445302802987
  0
VERTEX
  5
9EC
  8
0
 10
80.600000000000023
 20
72.425642905778261
 30
0.0
 42
0.0984445302803307
  0
SEQEND
  5
9ED
  8
0
  0
POLYLINE
  5
8C2
  8
0
 66
     1
 10
0.0
 20
0.0
 30
0.0
  0
VERTEX
  5
9EE
  8
0
 10
80.600000000000023
 20
73.701751221172984
 30
0.0
 42
0.0894353177990173
  0
VERTEX
  5
9EF
  8
0
 10
80.948669178537386
 20
73.764620771922523
 30
0.0
 42
0.0942677045368311
  0
VERTEX
  5
9F0
  8
0
 10
81.236396103067904
 20
73.938964530154976
 30
0.0
 42
0.1020171205143204
  0
VERTEX
  5
9F1
  8
0
 10
81.449020679366825
 20
74.227715672787156
 30
0.0
 42
0.127549243512124
  0
VERTEX
  5
9F2
  8
0
 10
81.499999999996476
 20
74.511648117874614
 30
0.0
 42
0.1082657916875541
  0
SEQEND
  5
9F3
  8
0
  0
POLYLINE
  5
8C3
  8
0
 66
     1
 10
0.0
 20
0.0
 30
0.0
  0
VERTEX
  5
9F4
  8
0
 10
81.5
 20
74.511648117874586
 30
0.0
 42
0.0984914033571679
  0
VERTEX
  5
9F5
  8
0
 10
81.431491579260182
 20
74.85606320700316
 30
0.0
 42
0.0984914033571643
  0
VERTEX
  5
9F6
  8
0
 10
81.236396103067904
 20
75.148044220942495
 30
0.0
 42
0.0984914033571914
  0
VERTEX
  5
9F7
  8
0
 10
80.944415089128555
 20
75.343139697134745
 30
0.0
 42
0.09849140335718
  0
VERTEX
  5
9F8
  8
0
 10
80.600000000000023
 20
75.41164811787462
 30
0.0
 42
0.0984914033571438
  0
SEQEND
  5
9F9
  8
0
  0
POLYLINE
  5
8C4
  8
0
 66
     1
 10
0.0
 20
0.0
 30
0.0
  0
VERTEX
  5
9FA
  8
0
 10
80.600000000000023
 20
76.589409483871236
 30
0.0
 42
0.0791839098011978
  0
VERTEX
  5
9FB
  8
0
 10
80.953246984810448
 20
76.645705419307063
 30
0.0
 42
0.0882926717391475
  0
VERTEX
  5
9FC
  8
0
 10
81.236396103067904
 20
76.797536627398685
 30
0.0
 42
0.1052135418914506
  0
VERTEX
  5
9FD
  8
0
 10
81.450085557877856
 20
77.054973163498261
 30
0.0
 42
0.1420393704271083
  0
VERTEX
  5
9FE
  8
0
 10
81.499999999997115
 20
77.300000000000637
 30
0.0
 42
0.1213787435732019
  0
SEQEND
  5
9FF
  8
0
  0
POLYLINE
  5
8C5
  8
0
 66
     1
 10
0.0
 20
0.0
 30
0.0
  0
VERTEX
  5
A00
  8
0
 10
81.5
 20
77.30000000000058
 30
0.0
 42
0.0984914033571359
  0
VERTEX
  5
A01
  8
0
 10
81.431491579260182
 20
77.644415089129211
 30
0.0
 42
0.0984914033571132
  0
VERTEX
  5
A02
  8
0
 10
81.236396103067904
 20
77.936396103068489
 30
0.0
 42
0.0984914033571687
  0
VERTEX
  5
A03
  8
0
 10
80.944415089128597
 20
78.131491579260739
 30
0.0
 42
0.0984914033571721
  0
VERTEX
  5
A04
  8
0
 10
80.600000000000023
 20
78.200000000000614
 30
0.0
 42
0.0984914033571638
  0
SEQEND
  5
A05
  8
0
  0
POLYLINE
  5
8C6
  8
0
 66
     1
 10
0.0
 20
0.0
 30
0.0
  0
VERTEX
  5
A06
  8
0
 10
80.600000000000023
 20
79.189078932629386
 30
0.0
 42
0.0653310264213602
  0
VERTEX
  5
A07
  8
0
 10
80.958925843791405
 20
79.236177945520296
 30
0.0
 42
0.0780794551083624
  0
VERTEX
  5
A08
  8
0
 10
81.236396103067904
 20
79.359023755825405
 30
0.0
 42
0.1071770813466468
  0
VERTEX
  5
A09
  8
0
 10
81.452556015615585
 20
79.575520958791742
 30
0.0
 42
0.1670152672045806
  0
VERTEX
  5
A0A
  8
0
 10
81.499999999991189
 20
79.769306852840202
 30
0.0
 42
0.1437479045309739
  0
SEQEND
  5
A0B
  8
0
  0
POLYLINE
  5
8C7
  8
0
 66
     1
 10
0.0
 20
0.0
 30
0.0
  0
VERTEX
  5
A0C
  8
0
 10
81.499999999989427
 20
79.769306852840202
 30
0.0
 42
0.0984914033561535
  0
VERTEX
  5
A0D
  8
0
 10
81.431491579250235
 20
80.113721941969231
 30
0.0
 42
0.0984914033567842
  0
VERTEX
  5
A0E
  8
0
 10
81.236396103060414
 20
80.405702955908083
 30
0.0
 42
0.0984914033575878
  0
VERTEX
  5
A0F
  8
0
 10
80.94441508912405
 20
80.600798432100518
 30
0.0
 42
0.0984914033582018
  0
VERTEX
  5
A10
  8
0
 10
80.600000000000023
 20
80.669306852840194
 30
0.0
 42
0.0984914033582041
  0
SEQEND
  5
A11
  8
0
  0
POLYLINE
  5
8C8
  8
0
 66
     1
 10
0.0
 20
0.0
 30
0.0
  0
VERTEX
  5
A12
  8
0
 10
80.600000000000023
 20
81.387141537938817
 30
0.0
 42
0.0482732746754214
  0
VERTEX
  5
A13
  8
0
 10
80.964882552566777
 20
81.422451973535033
 30
0.0
 42
0.0620263071316972
  0
VERTEX
  5
A14
  8
0
 10
81.236396103067904
 20
81.511476636543904
 30
0.0
 42
0.1027185704896032
  0
VERTEX
  5
A15
  8
0
 10
81.458149208733346
 20
81.678467813928805
 30
0.0
 42
0.2111340475038247
  0
VERTEX
  5
A16
  8
0
 10
81.500000000007773
 20
81.811648117875279
 30
0.0
 42
0.182131453288338
  0
SEQEND
  5
A17
  8
0
  0
POLYLINE
  5
8C9
  8
0
 66
     1
 10
0.0
 20
0.0
 30
0.0
  0
VERTEX
  5
A18
  8
0
 10
81.500000000001023
 20
81.811648117875279
 30
0.0
 42
0.098491403357272
  0
VERTEX
  5
A19
  8
0
 10
81.431491579261078
 20
82.156063207003797
 30
0.0
 42
0.0984914033572134
  0
VERTEX
  5
A1A
  8
0
 10
81.236396103068614
 20
82.448044220943174
 30
0.0
 42
0.09849140335712
  0
VERTEX
  5
A1B
  8
0
 10
80.944415089129066
 20
82.643139697135396
 30
0.0
 42
0.0984914033570725
  0
VERTEX
  5
A1C
  8
0
 10
80.600000000000023
 20
82.711648117875257
 30
0.0
 42
0.0984914033570564
  0
SEQEND
  5
A1D
  8
0
  0
POLYLINE
  5
8CA
  8
0
 66
     1
 10
0.0
 20
0.0
 30
0.0
  0
VERTEX
  5
A1E
  8
0
 10
80.600000000000023
 20
83.087531416472856
 30
0.0
 42
0.0286731224885913
  0
VERTEX
  5
A1F
  8
0
 10
80.969895845497945
 20
83.108761008110136
 30
0.0
 42
0.0391513222091239
  0
VERTEX
  5
A20
  8
0
 10
81.236396103067875
 20
83.160822750051977
 30
0.0
 42
0.0801646192844235
  0
VERTEX
  5
A21
  8
0
 10
81.470167957820706
 20
83.268367657653414
 30
0.0
 42
0.294951757472673
  0
VERTEX
  5
A22
  8
0
 10
81.499999999988447
 20
83.337763681583141
 30
0.0
 42
0.2499258999240178
  0
SEQEND
  5
A23
  8
0
  0
POLYLINE
  5
8CB
  8
0
 66
     1
 10
0.0
 20
0.0
 30
0.0
  0
VERTEX
  5
A24
  8
0
 10
81.499999999988447
 20
83.337763681583155
 30
0.0
 42
0.0984914033559866
  0
VERTEX
  5
A25
  8
0
 10
81.431491579249325
 20
83.682178770712312
 30
0.0
 42
0.0984914033566527
  0
VERTEX
  5
A26
  8
0
 10
81.236396103059747
 20
83.974159784651036
 30
0.0
 42
0.0984914033575997
  0
VERTEX
  5
A27
  8
0
 10
80.944415089123666
 20
84.169255260843499
 30
0.0
 42
0.0984914033582744
  0
VERTEX
  5
A28
  8
0
 10
80.600000000000023
 20
84.237763681583147
 30
0.0
 42
0.0984914033582945
  0
SEQEND
  5
A29
  8
0
  0
POLYLINE
  5
8CC
  8
0
 66
     1
 10
0.0
 20
0.0
 30
0.0
  0
VERTEX
  5
A2A
  8
0
 10
80.790419083844867
 20
84.217388927075064
 30
0.0
 42
0.0036572197749306
  0
VERTEX
  5
A2B
  8
0
 10
80.972591128246208
 20
84.221507086318795
 30
0.0
 42
0.0105515116696261
  0
VERTEX
  5
A2C
  8
0
 10
81.236396103067875
 20
84.234977756748549
 30
0.0
 42
0.0251452480493319
  0
VERTEX
  5
A2D
  8
0
 10
81.49150126786185
 20
84.266359715426802
 30
0.0
  0
VERTEX
  5
A2E
  8
0
 10
81.5
 20
84.280954970714845
 30
0.0
  0
SEQEND
  5
A2F
  8
0
  0
POLYLINE
  5
8CD
  8
0
 66
     1
 10
0.0
 20
0.0
 30
0.0
  0
VERTEX
  5
A30
  8
0
 10
81.5
 20
84.280954970714816
 30
0.0
 42
0.098491403357172
  0
VERTEX
  5
A31
  8
0
 10
81.431491579260125
 20
84.625370059843419
 30
0.0
 42
0.0984914033571507
  0
VERTEX
  5
A32
  8
0
 10
81.236396103067875
 20
84.917351073782697
 30
0.0
 42
0.0984914033571707
  0
VERTEX
  5
A33
  8
0
 10
80.944415089128597
 20
85.112446549974948
 30
0.0
 42
0.09849140335718
  0
VERTEX
  5
A34
  8
0
 10
80.600000000000023
 20
85.180954970714836
 30
0.0
 42
0.0984914033571639
  0
SEQEND
  5
A35
  8
0
  0
LINE
  5
8CE
  8
0
 10
81.383944476212704
 20
84.723030821917803
 30
0.0
 11
81.491551129695097
 21
84.723030821917803
 31
0.0
  0
POLYLINE
  5
8CF
  8
0
 66
     1
 10
0.0
 20
0.0
 30
0.0
  0
VERTEX
  5
A36
  8
0
 10
73.500000000000171
 20
70.652308667136481
 30
0.0
 42
0.1233452667669979
  0
VERTEX
  5
A37
  8
0
 10
73.776684343997999
 20
70.721618560089723
 30
0.0
 42
0.1055531643891276
  0
VERTEX
  5
A38
  8
0
 10
74.030330085890142
 20
70.935794891952327
 30
0.0
 42
0.0873859604927064
  0
VERTEX
  5
A39
  8
0
 10
74.206651745240549
 20
71.270454589479073
 30
0.0
 42
0.0939071216341266
  0
VERTEX
  5
A3A
  8
0
 10
74.250000000001535
 20
71.62019118064876
 30
0.0
 42
0.0778018097759825
  0
SEQEND
  5
A3B
  8
0
  0
POLYLINE
  5
8D0
  8
0
 66
     1
 10
0.0
 20
0.0
 30
0.0
  0
VERTEX
  5
A3C
  8
0
 10
74.250000000000213
 20
71.620191180648732
 30
0.0
 42
0.0922895830803223
  0
VERTEX
  5
A3D
  8
0
 10
74.192129278790389
 20
71.931048663775513
 30
0.0
 42
0.0957025255079837
  0
VERTEX
  5
A3E
  8
0
 10
74.030330085890142
 20
72.189731557406233
 30
0.0
 42
0.1009608214900936
  0
VERTEX
  5
A3F
  8
0
 10
73.78437269445331
 20
72.365245996337705
 30
0.0
 42
0.1050219590963969
  0
VERTEX
  5
A40
  8
0
 10
73.500000000000199
 20
72.425642905778304
 30
0.0
 42
0.1050219590963579
  0
SEQEND
  5
A41
  8
0
  0
POLYLINE
  5
8D1
  8
0
 66
     1
 10
0.0
 20
0.0
 30
0.0
  0
VERTEX
  5
A42
  8
0
 10
73.500000000000213
 20
73.701751221173026
 30
0.0
 42
0.1360999991723464
  0
VERTEX
  5
A43
  8
0
 10
73.771160728363043
 20
73.776954170999844
 30
0.0
 42
0.1069529128000602
  0
VERTEX
  5
A44
  8
0
 10
74.030330085890142
 20
74.020422614090464
 30
0.0
 42
0.0815299213519585
  0
VERTEX
  5
A45
  8
0
 10
74.206750394381118
 20
74.394357635081946
 30
0.0
 42
0.0847934043724306
  0
VERTEX
  5
A46
  8
0
 10
74.250000000000213
 20
74.789763412812079
 30
0.0
 42
0.0696446032640182
  0
SEQEND
  5
A47
  8
0
  0
POLYLINE
  5
8D2
  8
0
 66
     1
 10
0.0
 20
0.0
 30
0.0
  0
VERTEX
  5
A48
  8
0
 10
74.250000000001933
 20
74.789763412812022
 30
0.0
 42
0.116341825277163
  0
VERTEX
  5
A49
  8
0
 10
74.195302160682161
 20
75.021655429917928
 30
0.0
 42
0.1041819656710092
  0
VERTEX
  5
A4A
  8
0
 10
74.030330085891364
 20
75.229502304877997
 30
0.0
 42
0.0906086175414611
  0
VERTEX
  5
A4B
  8
0
 10
73.793017646882774
 20
75.362730970971597
 30
0.0
 42
0.0828977149716635
  0
VERTEX
  5
A4C
  8
0
 10
73.500000000000213
 20
75.41164811787462
 30
0.0
 42
0.0828977149716505
  0
SEQEND
  5
A4D
  8
0
  0
POLYLINE
  5
8D3
  8
0
 66
     1
 10
0.0
 20
0.0
 30
0.0
  0
VERTEX
  5
A4E
  8
0
 10
73.500000000000213
 20
76.589409483871236
 30
0.0
 42
0.1434738734187271
  0
VERTEX
  5
A4F
  8
0
 10
73.767925933730282
 20
76.667906059443169
 30
0.0
 42
0.10717642937792
  0
VERTEX
  5
A50
  8
0
 10
74.030330085890142
 20
76.929338575864733
 30
0.0
 42
0.078201946587953
  0
VERTEX
  5
A51
  8
0
 10
74.206857894976764
 20
77.327164066469436
 30
0.0
 42
0.0801028274879396
  0
VERTEX
  5
A52
  8
0
 10
74.250000000000213
 20
77.750000000000625
 30
0.0
 42
0.0635973042085309
  0
VERTEX
  5
A53
  8
0
 10
74.192554852017253
 20
78.199805263502128
 30
0.0
 42
0.0782019465878784
  0
SEQEND
  5
A54
  8
0
  0
POLYLINE
  5
8D4
  8
0
 66
     1
 10
0.0
 20
0.0
 30
0.0
  0
VERTEX
  5
A55
  8
0
 10
74.192554852017253
 20
78.199805263502128
 30
0.0
 42
0.007466045661547
  0
VERTEX
  5
A56
  8
0
 10
73.939591039541938
 20
78.194312126163737
 30
0.0
 42
0.0129085569485281
  0
VERTEX
  5
A57
  8
0
 10
73.719669914110341
 20
78.180558140040375
 30
0.0
 42
0.0305668656978748
  0
VERTEX
  5
A58
  8
0
 10
73.512778560148206
 20
78.149418734563085
 30
0.0
  0
VERTEX
  5
A59
  8
0
 10
73.500000000000256
 20
78.133621338046538
 30
0.0
  0
SEQEND
  5
A5A
  8
0
  0
POLYLINE
  5
8D5
  8
0
 66
     1
 10
0.0
 20
0.0
 30
0.0
  0
VERTEX
  5
A5B
  8
0
 10
73.500000000000284
 20
79.189078932629386
 30
0.0
 42
0.1456454170458404
  0
VERTEX
  5
A5C
  8
0
 10
73.766969052485763
 20
79.268529931878604
 30
0.0
 42
0.1071670889738505
  0
VERTEX
  5
A5D
  8
0
 10
74.030330085890171
 20
79.535409191218122
 30
0.0
 42
0.0772338470160484
  0
VERTEX
  5
A5E
  8
0
 10
74.206894666775412
 20
79.940449596487724
 30
0.0
 42
0.0787908513640569
  0
VERTEX
  5
A5F
  8
0
 10
74.250000000000256
 20
80.371524398563167
 30
0.0
 42
0.0402560881893137
  0
VERTEX
  5
A60
  8
0
 10
74.225992384171604
 20
80.669227321296489
 30
0.0
 42
0.0772338470160163
  0
SEQEND
  5
A61
  8
0
  0
POLYLINE
  5
8D6
  8
0
 66
     1
 10
0.0
 20
0.0
 30
0.0
  0
VERTEX
  5
A62
  8
0
 10
74.225992384171604
 20
80.669227321296489
 30
0.0
 42
0.0197122562783022
  0
VERTEX
  5
A63
  8
0
 10
73.940693229067051
 20
80.656081455941305
 30
0.0
 42
0.0296318328751298
  0
VERTEX
  5
A64
  8
0
 10
73.719669914110341
 20
80.623871879305113
 30
0.0
 42
0.0648812112387953
  0
VERTEX
  5
A65
  8
0
 10
73.526426948230721
 20
80.556916569830861
 30
0.0
  0
VERTEX
  5
A66
  8
0
 10
73.500000000000284
 20
80.514182149990603
 30
0.0
  0
SEQEND
  5
A67
  8
0
  0
POLYLINE
  5
8D7
  8
0
 66
     1
 10
0.0
 20
0.0
 30
0.0
  0
VERTEX
  5
A68
  8
0
 10
74.241613442120752
 20
82.711630802457648
 30
0.0
 42
0.0368582933129941
  0
VERTEX
  5
A69
  8
0
 10
73.943490168703306
 20
82.688386136843135
 30
0.0
 42
0.0504485433502363
  0
VERTEX
  5
A6A
  8
0
 10
73.719669914110384
 20
82.630685001922245
 30
0.0
 42
0.0937814822835541
  0
VERTEX
  5
A6B
  8
0
 10
73.539137621155703
 20
82.522435464895182
 30
0.0
 42
0.2140953676721142
  0
VERTEX
  5
A6C
  8
0
 10
73.500000000000341
 20
82.435222749336376
 30
0.0
 42
0.2140953676721924
  0
SEQEND
  5
A6D
  8
0
  0
POLYLINE
  5
8D8
  8
0
 66
     1
 10
0.0
 20
0.0
 30
0.0
  0
VERTEX
  5
A6E
  8
0
 10
73.500000000000284
 20
81.387141537938817
 30
0.0
 42
0.1426764765518084
  0
VERTEX
  5
A6F
  8
0
 10
73.768276863117791
 20
81.465285884483308
 30
0.0
 42
0.1071714898372097
  0
VERTEX
  5
A70
  8
0
 10
74.030330085890171
 20
81.724736668945411
 30
0.0
 42
0.0785589015149717
  0
VERTEX
  5
A71
  8
0
 10
74.206844921075401
 20
82.11993381166161
 30
0.0
 42
0.0805921738894916
  0
VERTEX
  5
A72
  8
0
 10
74.250000000000256
 20
82.539763412812704
 30
0.0
 42
0.0243838330531286
  0
VERTEX
  5
A73
  8
0
 10
74.241613442120752
 20
82.711630802457648
 30
0.0
 42
0.0785589015150244
  0
SEQEND
  5
A74
  8
0
  0
POLYLINE
  5
8D9
  8
0
 66
     1
 10
0.0
 20
0.0
 30
0.0
  0
VERTEX
  5
A75
  8
0
 10
73.500000000000341
 20
83.087531416472871
 30
0.0
 42
0.1344835345205819
  0
VERTEX
  5
A76
  8
0
 10
73.771866350301366
 20
83.162001361993077
 30
0.0
 42
0.1068489369104784
  0
VERTEX
  5
A77
  8
0
 10
74.030330085890171
 20
83.401636892711224
 30
0.0
 42
0.0822666791136883
  0
VERTEX
  5
A78
  8
0
 10
74.206731030017124
 20
83.770455433819848
 30
0.0
 42
0.0858739783149102
  0
VERTEX
  5
A79
  8
0
 10
74.250000000000213
 20
84.159954593461464
 30
0.0
 42
0.0127349594423328
  0
VERTEX
  5
A7A
  8
0
 10
74.248017925308488
 20
84.237762192671767
 30
0.0
 42
0.0822666791136468
  0
SEQEND
  5
A7B
  8
0
  0
POLYLINE
  5
8DA
  8
0
 66
     1
 10
0.0
 20
0.0
 30
0.0
  0
VERTEX
  5
A7C
  8
0
 10
74.248017925308488
 20
84.237762192671767
 30
0.0
 42
0.0573212368222222
  0
VERTEX
  5
A7D
  8
0
 10
73.948541357827139
 20
84.202860320359775
 30
0.0
 42
0.0713686421340051
  0
VERTEX
  5
A7E
  8
0
 10
73.719669914110384
 20
84.113290144675716
 30
0.0
 42
0.1064083886195064
  0
VERTEX
  5
A7F
  8
0
 10
73.548290854892343
 20
83.960675433451797
 30
0.0
 42
0.1591307399508841
  0
VERTEX
  5
A80
  8
0
 10
73.500000000000341
 20
83.812784443717192
 30
0.0
 42
0.1591307399509122
  0
SEQEND
  5
A81
  8
0
  0
LINE
  5
8DB
  8
0
 10
73.500000000000313
 20
84.215933371163615
 30
0.0
 11
74.010992442964977
 21
84.215933371163615
 31
0.0
  0
POLYLINE
  5
8DC
  8
0
 66
     1
 10
0.0
 20
0.0
 30
0.0
  0
VERTEX
  5
A82
  8
0
 10
73.500000000000313
 20
84.215933371163615
 30
0.0
 42
0.1208772919013222
  0
VERTEX
  5
A83
  8
0
 10
73.777739494384491
 20
84.284073788455373
 30
0.0
 42
0.105121356308238
  0
VERTEX
  5
A84
  8
0
 10
74.030330085890171
 20
84.492821276076768
 30
0.0
 42
0.0885237574562495
  0
VERTEX
  5
A85
  8
0
 10
74.206649784615792
 20
84.820157410655156
 30
0.0
 42
0.0958417672167936
  0
VERTEX
  5
A86
  8
0
 10
74.25000000000108
 20
85.161287811375246
 30
0.0
 42
0.079542236943064
  0
SEQEND
  5
A87
  8
0
  0
POLYLINE
  5
8DD
  8
0
 66
     1
 10
0.0
 20
0.0
 30
0.0
  0
VERTEX
  5
A88
  8
0
 10
74.250000000000213
 20
85.180954970714836
 30
0.0
 42
0.0794517953820712
  0
VERTEX
  5
A89
  8
0
 10
73.955724133456926
 20
85.133896417598066
 30
0.0
 42
0.0884655862009624
  0
VERTEX
  5
A8A
  8
0
 10
73.719669914110384
 20
85.006890348498359
 30
0.0
 42
0.1051447802970453
  0
VERTEX
  5
A8B
  8
0
 10
73.554041489630023
 20
84.806696984737798
 30
0.0
 42
0.121003536716326
  0
VERTEX
  5
A8C
  8
0
 10
73.500000000000341
 20
84.586661176813919
 30
0.0
 42
0.1210035367164111
  0
SEQEND
  5
A8D
  8
0
  0
LINE
  5
8DE
  8
0
 10
73.829370042953883
 20
85.079370042953556
 30
0.0
 11
74.250000000000213
 21
85.499999999999886
 31
0.0
  0
POLYLINE
  5
8DF
  8
0
 66
     1
 10
0.0
 20
0.0
 30
0.0
  0
VERTEX
  5
A8E
  8
0
 10
73.500000000000341
 20
84.723030821917803
 30
0.0
 42
0.0069295081336133
  0
VERTEX
  5
A8F
  8
0
 10
73.520081156712337
 20
84.723309140359646
 30
0.0
 42
0.0997572060783242
  0
SEQEND
  5
A90
  8
0
  0
POLYLINE
  5
8E0
  8
0
 66
     1
 10
0.0
 20
0.0
 30
0.0
  0
VERTEX
  5
A91
  8
0
 10
74.187498743065049
 20
85.178882837663579
 30
0.0
 42
0.0144520562158258
  0
VERTEX
  5
A92
  8
0
 10
74.206928058224037
 20
85.223675612930549
 30
0.0
 42
0.113349067593135
  0
VERTEX
  5
A93
  8
0
 10
74.249999999999318
 20
85.499999999999886
 30
0.0
 42
0.0953788824809784
  0
SEQEND
  5
A94
  8
0
  0
POLYLINE
  5
8E1
  8
0
 66
     1
 10
0.0
 20
0.0
 30
0.0
  0
VERTEX
  5
A95
  8
0
 10
74.187498743065049
 20
54.821117162336407
 30
0.0
 42
-0.0144520562158258
  0
VERTEX
  5
A96
  8
0
 10
74.206928058224037
 20
54.776324387069451
 30
0.0
 42
-0.113349067593135
  0
VERTEX
  5
A97
  8
0
 10
74.249999999999318
 20
54.500000000000107
 30
0.0
 42
-0.0953788824809784
  0
SEQEND
  5
A98
  8
0
  0
POLYLINE
  5
8E2
  8
0
 66
     1
 10
0.0
 20
0.0
 30
0.0
  0
VERTEX
  5
A99
  8
0
 10
73.500000000000341
 20
55.276969178082197
 30
0.0
 42
-0.0069295081336133
  0
VERTEX
  5
A9A
  8
0
 10
73.520081156712337
 20
55.276690859640347
 30
0.0
 42
-0.0997572060783242
  0
SEQEND
  5
A9B
  8
0
  0
LINE
  5
8E3
  8
0
 10
73.829370042953883
 20
54.920629957046458
 30
0.0
 11
74.250000000000213
 21
54.500000000000107
 31
0.0
  0
POLYLINE
  5
8E4
  8
0
 66
     1
 10
0.0
 20
0.0
 30
0.0
  0
VERTEX
  5
A9C
  8
0
 10
74.250000000000213
 20
54.819045029285178
 30
0.0
 42
-0.0794517953820712
  0
VERTEX
  5
A9D
  8
0
 10
73.955724133456926
 20
54.866103582401927
 30
0.0
 42
-0.0884655862009624
  0
VERTEX
  5
A9E
  8
0
 10
73.719669914110384
 20
54.993109651501641
 30
0.0
 42
-0.1051447802970453
  0
VERTEX
  5
A9F
  8
0
 10
73.554041489630023
 20
55.193303015262188
 30
0.0
 42
-0.121003536716326
  0
VERTEX
  5
AA0
  8
0
 10
73.500000000000341
 20
55.413338823186081
 30
0.0
 42
-0.1210035367164111
  0
SEQEND
  5
AA1
  8
0
  0
POLYLINE
  5
8E5
  8
0
 66
     1
 10
0.0
 20
0.0
 30
0.0
  0
VERTEX
  5
AA2
  8
0
 10
73.500000000000313
 20
55.784066628836399
 30
0.0
 42
-0.1208772919013222
  0
VERTEX
  5
AA3
  8
0
 10
73.777739494384491
 20
55.71592621154462
 30
0.0
 42
-0.105121356308238
  0
VERTEX
  5
AA4
  8
0
 10
74.030330085890171
 20
55.507178723923232
 30
0.0
 42
-0.0885237574562495
  0
VERTEX
  5
AA5
  8
0
 10
74.206649784615792
 20
55.179842589344837
 30
0.0
 42
-0.0958417672167936
  0
VERTEX
  5
AA6
  8
0
 10
74.25000000000108
 20
54.838712188624747
 30
0.0
 42
-0.079542236943064
  0
SEQEND
  5
AA7
  8
0
  0
LINE
  5
8E6
  8
0
 10
73.500000000000313
 20
55.784066628836399
 30
0.0
 11
74.010992442964977
 21
55.784066628836399
 31
0.0
  0
POLYLINE
  5
8E7
  8
0
 66
     1
 10
0.0
 20
0.0
 30
0.0
  0
VERTEX
  5
AA8
  8
0
 10
74.248017925308488
 20
55.762237807328233
 30
0.0
 42
-0.0573212368222222
  0
VERTEX
  5
AA9
  8
0
 10
73.948541357827139
 20
55.797139679640217
 30
0.0
 42
-0.0713686421340051
  0
VERTEX
  5
AAA
  8
0
 10
73.719669914110384
 20
55.886709855324277
 30
0.0
 42
-0.1064083886195064
  0
VERTEX
  5
AAB
  8
0
 10
73.548290854892343
 20
56.039324566548203
 30
0.0
 42
-0.1591307399508841
  0
VERTEX
  5
AAC
  8
0
 10
73.500000000000341
 20
56.187215556282808
 30
0.0
 42
-0.1591307399509122
  0
SEQEND
  5
AAD
  8
0
  0
POLYLINE
  5
8E8
  8
0
 66
     1
 10
0.0
 20
0.0
 30
0.0
  0
VERTEX
  5
AAE
  8
0
 10
73.500000000000341
 20
56.912468583527122
 30
0.0
 42
-0.1344835345205819
  0
VERTEX
  5
AAF
  8
0
 10
73.771866350301366
 20
56.837998638006923
 30
0.0
 42
-0.1068489369104784
  0
VERTEX
  5
AB0
  8
0
 10
74.030330085890171
 20
56.598363107288769
 30
0.0
 42
-0.0822666791136883
  0
VERTEX
  5
AB1
  8
0
 10
74.206731030017124
 20
56.229544566180152
 30
0.0
 42
-0.0858739783149102
  0
VERTEX
  5
AB2
  8
0
 10
74.250000000000213
 20
55.840045406538543
 30
0.0
 42
-0.0127349594423328
  0
VERTEX
  5
AB3
  8
0
 10
74.248017925308488
 20
55.762237807328233
 30
0.0
 42
-0.0822666791136468
  0
SEQEND
  5
AB4
  8
0
  0
POLYLINE
  5
8E9
  8
0
 66
     1
 10
0.0
 20
0.0
 30
0.0
  0
VERTEX
  5
AB5
  8
0
 10
73.500000000000284
 20
58.61285846206119
 30
0.0
 42
-0.1426764765518084
  0
VERTEX
  5
AB6
  8
0
 10
73.768276863117791
 20
58.534714115516692
 30
0.0
 42
-0.1071714898372097
  0
VERTEX
  5
AB7
  8
0
 10
74.030330085890171
 20
58.275263331054589
 30
0.0
 42
-0.0785589015149717
  0
VERTEX
  5
AB8
  8
0
 10
74.206844921075401
 20
57.88006618833839
 30
0.0
 42
-0.0805921738894916
  0
VERTEX
  5
AB9
  8
0
 10
74.250000000000256
 20
57.460236587187303
 30
0.0
 42
-0.0243838330531286
  0
VERTEX
  5
ABA
  8
0
 10
74.241613442120752
 20
57.288369197542352
 30
0.0
 42
-0.0785589015150244
  0
SEQEND
  5
ABB
  8
0
  0
POLYLINE
  5
8EA
  8
0
 66
     1
 10
0.0
 20
0.0
 30
0.0
  0
VERTEX
  5
ABC
  8
0
 10
74.241613442120752
 20
57.288369197542352
 30
0.0
 42
-0.0368582933129941
  0
VERTEX
  5
ABD
  8
0
 10
73.943490168703306
 20
57.31161386315685
 30
0.0
 42
-0.0504485433502363
  0
VERTEX
  5
ABE
  8
0
 10
73.719669914110384
 20
57.369314998077748
 30
0.0
 42
-0.0937814822835541
  0
VERTEX
  5
ABF
  8
0
 10
73.539137621155703
 20
57.477564535104818
 30
0.0
 42
-0.2140953676721142
  0
VERTEX
  5
AC0
  8
0
 10
73.500000000000341
 20
57.56477725066361
 30
0.0
 42
-0.2140953676721924
  0
SEQEND
  5
AC1
  8
0
  0
POLYLINE
  5
8EB
  8
0
 66
     1
 10
0.0
 20
0.0
 30
0.0
  0
VERTEX
  5
AC2
  8
0
 10
74.225992384171604
 20
59.330772678703511
 30
0.0
 42
-0.0197122562783022
  0
VERTEX
  5
AC3
  8
0
 10
73.940693229067051
 20
59.343918544058681
 30
0.0
 42
-0.0296318328751298
  0
VERTEX
  5
AC4
  8
0
 10
73.719669914110341
 20
59.376128120694879
 30
0.0
 42
-0.0648812112387953
  0
VERTEX
  5
AC5
  8
0
 10
73.526426948230721
 20
59.443083430169132
 30
0.0
  0
VERTEX
  5
AC6
  8
0
 10
73.500000000000284
 20
59.48581785000939
 30
0.0
  0
SEQEND
  5
AC7
  8
0
  0
POLYLINE
  5
8EC
  8
0
 66
     1
 10
0.0
 20
0.0
 30
0.0
  0
VERTEX
  5
AC8
  8
0
 10
73.500000000000284
 20
60.8109210673706
 30
0.0
 42
-0.1456454170458404
  0
VERTEX
  5
AC9
  8
0
 10
73.766969052485763
 20
60.731470068121382
 30
0.0
 42
-0.1071670889738505
  0
VERTEX
  5
ACA
  8
0
 10
74.030330085890171
 20
60.464590808781878
 30
0.0
 42
-0.0772338470160484
  0
VERTEX
  5
ACB
  8
0
 10
74.206894666775412
 20
60.059550403512283
 30
0.0
 42
-0.0787908513640569
  0
VERTEX
  5
ACC
  8
0
 10
74.250000000000256
 20
59.628475601436833
 30
0.0
 42
-0.0402560881893137
  0
VERTEX
  5
ACD
  8
0
 10
74.225992384171604
 20
59.330772678703511
 30
0.0
 42
-0.0772338470160163
  0
SEQEND
  5
ACE
  8
0
  0
POLYLINE
  5
8ED
  8
0
 66
     1
 10
0.0
 20
0.0
 30
0.0
  0
VERTEX
  5
ACF
  8
0
 10
74.192554852017253
 20
61.800194736497872
 30
0.0
 42
-0.007466045661547
  0
VERTEX
  5
AD0
  8
0
 10
73.939591039541938
 20
61.805687873836263
 30
0.0
 42
-0.0129085569485281
  0
VERTEX
  5
AD1
  8
0
 10
73.719669914110341
 20
61.819441859959632
 30
0.0
 42
-0.0305668656978748
  0
VERTEX
  5
AD2
  8
0
 10
73.512778560148206
 20
61.850581265436908
 30
0.0
  0
VERTEX
  5
AD3
  8
0
 10
73.500000000000256
 20
61.866378661953462
 30
0.0
  0
SEQEND
  5
AD4
  8
0
  0
POLYLINE
  5
8EE
  8
0
 66
     1
 10
0.0
 20
0.0
 30
0.0
  0
VERTEX
  5
AD5
  8
0
 10
73.500000000000213
 20
63.410590516128771
 30
0.0
 42
-0.1434738734187271
  0
VERTEX
  5
AD6
  8
0
 10
73.767925933730282
 20
63.332093940556831
 30
0.0
 42
-0.10717642937792
  0
VERTEX
  5
AD7
  8
0
 10
74.030330085890142
 20
63.070661424135267
 30
0.0
 42
-0.078201946587953
  0
VERTEX
  5
AD8
  8
0
 10
74.206857894976764
 20
62.672835933530557
 30
0.0
 42
-0.0801028274879396
  0
VERTEX
  5
AD9
  8
0
 10
74.250000000000213
 20
62.249999999999368
 30
0.0
 42
-0.0635973042085309
  0
VERTEX
  5
ADA
  8
0
 10
74.192554852017253
 20
61.800194736497872
 30
0.0
 42
-0.0782019465878784
  0
SEQEND
  5
ADB
  8
0
  0
POLYLINE
  5
8EF
  8
0
 66
     1
 10
0.0
 20
0.0
 30
0.0
  0
VERTEX
  5
ADC
  8
0
 10
74.250000000001933
 20
65.210236587187978
 30
0.0
 42
-0.116341825277163
  0
VERTEX
  5
ADD
  8
0
 10
74.195302160682161
 20
64.978344570082072
 30
0.0
 42
-0.1041819656710092
  0
VERTEX
  5
ADE
  8
0
 10
74.030330085891364
 20
64.770497695122003
 30
0.0
 42
-0.0906086175414611
  0
VERTEX
  5
ADF
  8
0
 10
73.793017646882774
 20
64.637269029028403
 30
0.0
 42
-0.0828977149716635
  0
VERTEX
  5
AE0
  8
0
 10
73.500000000000213
 20
64.58835188212538
 30
0.0
 42
-0.0828977149716505
  0
SEQEND
  5
AE1
  8
0
  0
POLYLINE
  5
8F0
  8
0
 66
     1
 10
0.0
 20
0.0
 30
0.0
  0
VERTEX
  5
AE2
  8
0
 10
73.500000000000213
 20
66.298248778826974
 30
0.0
 42
-0.1360999991723464
  0
VERTEX
  5
AE3
  8
0
 10
73.771160728363043
 20
66.223045829000142
 30
0.0
 42
-0.1069529128000602
  0
VERTEX
  5
AE4
  8
0
 10
74.030330085890142
 20
65.979577385909522
 30
0.0
 42
-0.0815299213519585
  0
VERTEX
  5
AE5
  8
0
 10
74.206750394381118
 20
65.605642364918054
 30
0.0
 42
-0.0847934043724306
  0
VERTEX
  5
AE6
  8
0
 10
74.250000000000213
 20
65.210236587187921
 30
0.0
 42
-0.0696446032640182
  0
SEQEND
  5
AE7
  8
0
  0
POLYLINE
  5
8F1
  8
0
 66
     1
 10
0.0
 20
0.0
 30
0.0
  0
VERTEX
  5
AE8
  8
0
 10
74.250000000000213
 20
68.379808819351268
 30
0.0
 42
-0.0922895830803223
  0
VERTEX
  5
AE9
  8
0
 10
74.192129278790389
 20
68.068951336224472
 30
0.0
 42
-0.0957025255079837
  0
VERTEX
  5
AEA
  8
0
 10
74.030330085890142
 20
67.810268442593753
 30
0.0
 42
-0.1009608214900936
  0
VERTEX
  5
AEB
  8
0
 10
73.78437269445331
 20
67.634754003662295
 30
0.0
 42
-0.1050219590963969
  0
VERTEX
  5
AEC
  8
0
 10
73.500000000000199
 20
67.574357094221682
 30
0.0
 42
-0.1050219590963579
  0
SEQEND
  5
AED
  8
0
  0
POLYLINE
  5
8F2
  8
0
 66
     1
 10
0.0
 20
0.0
 30
0.0
  0
VERTEX
  5
AEE
  8
0
 10
73.500000000000171
 20
69.347691332863505
 30
0.0
 42
-0.1233452667669979
  0
VERTEX
  5
AEF
  8
0
 10
73.776684343997999
 20
69.278381439910277
 30
0.0
 42
-0.1055531643891276
  0
VERTEX
  5
AF0
  8
0
 10
74.030330085890142
 20
69.064205108047673
 30
0.0
 42
-0.0873859604927064
  0
VERTEX
  5
AF1
  8
0
 10
74.206651745240549
 20
68.729545410520913
 30
0.0
 42
-0.0939071216341266
  0
VERTEX
  5
AF2
  8
0
 10
74.250000000001535
 20
68.379808819351226
 30
0.0
 42
-0.0778018097759825
  0
SEQEND
  5
AF3
  8
0
  0
LINE
  5
8F3
  8
0
 10
81.383944476212704
 20
55.276969178082197
 30
0.0
 11
81.491551129695097
 21
55.276969178082197
 31
0.0
  0
POLYLINE
  5
8F4
  8
0
 66
     1
 10
0.0
 20
0.0
 30
0.0
  0
VERTEX
  5
AF4
  8
0
 10
81.5
 20
55.719045029285184
 30
0.0
 42
-0.098491403357172
  0
VERTEX
  5
AF5
  8
0
 10
81.431491579260125
 20
55.374629940156581
 30
0.0
 42
-0.0984914033571507
  0
VERTEX
  5
AF6
  8
0
 10
81.236396103067875
 20
55.082648926217303
 30
0.0
 42
-0.0984914033571707
  0
VERTEX
  5
AF7
  8
0
 10
80.944415089128597
 20
54.887553450025052
 30
0.0
 42
-0.09849140335718
  0
VERTEX
  5
AF8
  8
0
 10
80.600000000000023
 20
54.819045029285178
 30
0.0
 42
-0.0984914033571639
  0
SEQEND
  5
AF9
  8
0
  0
POLYLINE
  5
8F5
  8
0
 66
     1
 10
0.0
 20
0.0
 30
0.0
  0
VERTEX
  5
AFA
  8
0
 10
80.790419083844867
 20
55.782611072924936
 30
0.0
 42
-0.0036572197749306
  0
VERTEX
  5
AFB
  8
0
 10
80.972591128246208
 20
55.778492913681191
 30
0.0
 42
-0.0105515116696261
  0
VERTEX
  5
AFC
  8
0
 10
81.236396103067875
 20
55.765022243251451
 30
0.0
 42
-0.0251452480493319
  0
VERTEX
  5
AFD
  8
0
 10
81.49150126786185
 20
55.733640284573191
 30
0.0
  0
VERTEX
  5
AFE
  8
0
 10
81.5
 20
55.719045029285148
 30
0.0
  0
SEQEND
  5
AFF
  8
0
  0
POLYLINE
  5
8F6
  8
0
 66
     1
 10
0.0
 20
0.0
 30
0.0
  0
VERTEX
  5
B00
  8
0
 10
81.499999999988447
 20
56.662236318416831
 30
0.0
 42
-0.0984914033559866
  0
VERTEX
  5
B01
  8
0
 10
81.431491579249325
 20
56.317821229287681
 30
0.0
 42
-0.0984914033566527
  0
VERTEX
  5
B02
  8
0
 10
81.236396103059747
 20
56.025840215348978
 30
0.0
 42
-0.0984914033575997
  0
VERTEX
  5
B03
  8
0
 10
80.944415089123666
 20
55.830744739156501
 30
0.0
 42
-0.0984914033582744
  0
VERTEX
  5
B04
  8
0
 10
80.600000000000023
 20
55.762236318416853
 30
0.0
 42
-0.0984914033582945
  0
SEQEND
  5
B05
  8
0
  0
POLYLINE
  5
8F7
  8
0
 66
     1
 10
0.0
 20
0.0
 30
0.0
  0
VERTEX
  5
B06
  8
0
 10
80.600000000000023
 20
56.912468583527158
 30
0.0
 42
-0.0286731224885913
  0
VERTEX
  5
B07
  8
0
 10
80.969895845497945
 20
56.891238991889878
 30
0.0
 42
-0.0391513222091239
  0
VERTEX
  5
B08
  8
0
 10
81.236396103067875
 20
56.839177249948023
 30
0.0
 42
-0.0801646192844235
  0
VERTEX
  5
B09
  8
0
 10
81.470167957820706
 20
56.731632342346579
 30
0.0
 42
-0.294951757472673
  0
VERTEX
  5
B0A
  8
0
 10
81.499999999988447
 20
56.662236318416859
 30
0.0
 42
-0.2499258999240178
  0
SEQEND
  5
B0B
  8
0
  0
POLYLINE
  5
8F8
  8
0
 66
     1
 10
0.0
 20
0.0
 30
0.0
  0
VERTEX
  5
B0C
  8
0
 10
81.500000000001023
 20
58.188351882124721
 30
0.0
 42
-0.098491403357272
  0
VERTEX
  5
B0D
  8
0
 10
81.431491579261078
 20
57.843936792996203
 30
0.0
 42
-0.0984914033572134
  0
VERTEX
  5
B0E
  8
0
 10
81.236396103068614
 20
57.55195577905684
 30
0.0
 42
-0.09849140335712
  0
VERTEX
  5
B0F
  8
0
 10
80.944415089129066
 20
57.356860302864618
 30
0.0
 42
-0.0984914033570725
  0
VERTEX
  5
B10
  8
0
 10
80.600000000000023
 20
57.288351882124751
 30
0.0
 42
-0.0984914033570564
  0
SEQEND
  5
B11
  8
0
  0
POLYLINE
  5
8F9
  8
0
 66
     1
 10
0.0
 20
0.0
 30
0.0
  0
VERTEX
  5
B12
  8
0
 10
80.600000000000023
 20
58.61285846206119
 30
0.0
 42
-0.0482732746754214
  0
VERTEX
  5
B13
  8
0
 10
80.964882552566777
 20
58.57754802646496
 30
0.0
 42
-0.0620263071316972
  0
VERTEX
  5
B14
  8
0
 10
81.236396103067904
 20
58.488523363456089
 30
0.0
 42
-0.1027185704896032
  0
VERTEX
  5
B15
  8
0
 10
81.458149208733346
 20
58.321532186071209
 30
0.0
 42
-0.2111340475038247
  0
VERTEX
  5
B16
  8
0
 10
81.500000000007773
 20
58.188351882124721
 30
0.0
 42
-0.182131453288338
  0
SEQEND
  5
B17
  8
0
  0
POLYLINE
  5
8FA
  8
0
 66
     1
 10
0.0
 20
0.0
 30
0.0
  0
VERTEX
  5
B18
  8
0
 10
81.499999999989427
 20
60.230693147159791
 30
0.0
 42
-0.0984914033561535
  0
VERTEX
  5
B19
  8
0
 10
81.431491579250235
 20
59.886278058030761
 30
0.0
 42
-0.0984914033567842
  0
VERTEX
  5
B1A
  8
0
 10
81.236396103060414
 20
59.594297044091917
 30
0.0
 42
-0.0984914033575878
  0
VERTEX
  5
B1B
  8
0
 10
80.94441508912405
 20
59.399201567899468
 30
0.0
 42
-0.0984914033582018
  0
VERTEX
  5
B1C
  8
0
 10
80.600000000000023
 20
59.33069314715982
 30
0.0
 42
-0.0984914033582041
  0
SEQEND
  5
B1D
  8
0
  0
POLYLINE
  5
8FB
  8
0
 66
     1
 10
0.0
 20
0.0
 30
0.0
  0
VERTEX
  5
B1E
  8
0
 10
80.600000000000023
 20
60.8109210673706
 30
0.0
 42
-0.0653310264213602
  0
VERTEX
  5
B1F
  8
0
 10
80.958925843791405
 20
60.763822054479697
 30
0.0
 42
-0.0780794551083624
  0
VERTEX
  5
B20
  8
0
 10
81.236396103067904
 20
60.640976244174603
 30
0.0
 42
-0.1071770813466468
  0
VERTEX
  5
B21
  8
0
 10
81.452556015615585
 20
60.424479041208258
 30
0.0
 42
-0.1670152672045806
  0
VERTEX
  5
B22
  8
0
 10
81.499999999991189
 20
60.230693147159791
 30
0.0
 42
-0.1437479045309739
  0
SEQEND
  5
B23
  8
0
  0
POLYLINE
  5
8FC
  8
0
 66
     1
 10
0.0
 20
0.0
 30
0.0
  0
VERTEX
  5
B24
  8
0
 10
81.5
 20
62.69999999999942
 30
0.0
 42
-0.0984914033571359
  0
VERTEX
  5
B25
  8
0
 10
81.431491579260182
 20
62.355584910870789
 30
0.0
 42
-0.0984914033571132
  0
VERTEX
  5
B26
  8
0
 10
81.236396103067904
 20
62.063603896931511
 30
0.0
 42
-0.0984914033571687
  0
VERTEX
  5
B27
  8
0
 10
80.944415089128597
 20
61.868508420739261
 30
0.0
 42
-0.0984914033571721
  0
VERTEX
  5
B28
  8
0
 10
80.600000000000023
 20
61.799999999999393
 30
0.0
 42
-0.0984914033571638
  0
SEQEND
  5
B29
  8
0
  0
POLYLINE
  5
8FD
  8
0
 66
     1
 10
0.0
 20
0.0
 30
0.0
  0
VERTEX
  5
B2A
  8
0
 10
80.600000000000023
 20
63.410590516128771
 30
0.0
 42
-0.0791839098011978
  0
VERTEX
  5
B2B
  8
0
 10
80.953246984810448
 20
63.354294580692937
 30
0.0
 42
-0.0882926717391475
  0
VERTEX
  5
B2C
  8
0
 10
81.236396103067904
 20
63.202463372601301
 30
0.0
 42
-0.1052135418914506
  0
VERTEX
  5
B2D
  8
0
 10
81.450085557877856
 20
62.945026836501739
 30
0.0
 42
-0.1420393704271083
  0
VERTEX
  5
B2E
  8
0
 10
81.499999999997115
 20
62.699999999999363
 30
0.0
 42
-0.1213787435732019
  0
SEQEND
  5
B2F
  8
0
  0
POLYLINE
  5
8FE
  8
0
 66
     1
 10
0.0
 20
0.0
 30
0.0
  0
VERTEX
  5
B30
  8
0
 10
81.5
 20
65.488351882125414
 30
0.0
 42
-0.0984914033571679
  0
VERTEX
  5
B31
  8
0
 10
81.431491579260182
 20
65.14393679299684
 30
0.0
 42
-0.0984914033571643
  0
VERTEX
  5
B32
  8
0
 10
81.236396103067904
 20
64.851955779057505
 30
0.0
 42
-0.0984914033571914
  0
VERTEX
  5
B33
  8
0
 10
80.944415089128555
 20
64.656860302865255
 30
0.0
 42
-0.09849140335718
  0
VERTEX
  5
B34
  8
0
 10
80.600000000000023
 20
64.58835188212538
 30
0.0
 42
-0.0984914033571438
  0
SEQEND
  5
B35
  8
0
  0
POLYLINE
  5
8FF
  8
0
 66
     1
 10
0.0
 20
0.0
 30
0.0
  0
VERTEX
  5
B36
  8
0
 10
80.600000000000023
 20
66.298248778827002
 30
0.0
 42
-0.0894353177990173
  0
VERTEX
  5
B37
  8
0
 10
80.948669178537386
 20
66.235379228077477
 30
0.0
 42
-0.0942677045368311
  0
VERTEX
  5
B38
  8
0
 10
81.236396103067904
 20
66.061035469845024
 30
0.0
 42
-0.1020171205143204
  0
VERTEX
  5
B39
  8
0
 10
81.449020679366825
 20
65.772284327212844
 30
0.0
 42
-0.127549243512124
  0
VERTEX
  5
B3A
  8
0
 10
81.499999999996476
 20
65.488351882125386
 30
0.0
 42
-0.1082657916875541
  0
SEQEND
  5
B3B
  8
0
  0
POLYLINE
  5
900
  8
0
 66
     1
 10
0.0
 20
0.0
 30
0.0
  0
VERTEX
  5
B3C
  8
0
 10
81.5
 20
68.473884436292167
 30
0.0
 42
-0.0985382942772341
  0
VERTEX
  5
B3D
  8
0
 10
81.431498789040972
 20
68.129672682319423
 30
0.0
 42
-0.0985108138432073
  0
VERTEX
  5
B3E
  8
0
 10
81.236396103067946
 20
67.837822552851435
 30
0.0
 42
-0.0984719755302262
  0
VERTEX
  5
B3F
  8
0
 10
80.944437544947036
 20
67.642836737383035
 30
0.0
 42
-0.0984445302802987
  0
VERTEX
  5
B40
  8
0
 10
80.600000000000023
 20
67.574357094221739
 30
0.0
 42
-0.0984445302803307
  0
SEQEND
  5
B41
  8
0
  0
POLYLINE
  5
901
  8
0
 66
     1
 10
0.0
 20
0.0
 30
0.0
  0
VERTEX
  5
B42
  8
0
 10
80.599999999999994
 20
69.347691332863576
 30
0.0
 42
-0.0958836768337548
  0
VERTEX
  5
B43
  8
0
 10
80.945657826787595
 20
69.280790380230414
 30
0.0
 42
-0.0973727181123934
  0
VERTEX
  5
B44
  8
0
 10
81.236396103067904
 20
69.091759218305356
 30
0.0
 42
-0.0995552790647585
  0
VERTEX
  5
B45
  8
0
 10
81.431904167055123
 20
68.80703007741522
 30
0.0
 42
-0.1011555278604192
  0
VERTEX
  5
B46
  8
0
 10
81.5
 20
68.473884436292124
 30
0.0
 42
-0.1011555278603906
  0
SEQEND
  5
B47
  8
0
  0
LINE
  5
902
  8
0
 10
73.500000000000171
 20
69.347691332863505
 30
0.0
 11
80.599999999999994
 21
69.347691332863548
 31
0.0
  0
LINE
  5
903
  8
0
 10
73.500000000000199
 20
67.574357094221682
 30
0.0
 11
80.599999999999994
 21
67.57435709422171
 31
0.0
  0
LINE
  5
904
  8
0
 10
73.500000000000213
 20
66.298248778826974
 30
0.0
 11
80.599999999999994
 21
66.298248778827002
 31
0.0
  0
LINE
  5
905
  8
0
 10
73.500000000000213
 20
64.588351882125352
 30
0.0
 11
80.599999999999994
 21
64.58835188212538
 31
0.0
  0
LINE
  5
906
  8
0
 10
73.500000000000256
 20
63.410590516128771
 30
0.0
 11
80.599999999999994
 21
63.410590516128771
 31
0.0
  0
LINE
  5
907
  8
0
 10
74.192504275570514
 20
61.799999999999393
 30
0.0
 11
80.599999999999994
 21
61.799999999999393
 31
0.0
  0
LINE
  5
908
  8
0
 10
73.500000000000284
 20
60.810921067370572
 30
0.0
 11
80.599999999999994
 21
60.8109210673706
 31
0.0
  0
LINE
  5
909
  8
0
 10
74.225979471134053
 20
59.330693147159757
 30
0.0
 11
80.599999999999994
 21
59.330693147159792
 31
0.0
  0
LINE
  5
90A
  8
0
 10
73.500000000000284
 20
58.61285846206119
 30
0.0
 11
80.599999999999994
 21
58.61285846206119
 31
0.0
  0
LINE
  5
90B
  8
0
 10
74.241611748130651
 20
57.28835188212468
 30
0.0
 11
80.599999999999994
 21
57.288351882124708
 31
0.0
  0
LINE
  5
90C
  8
0
 10
73.500000000000313
 20
56.912468583527122
 30
0.0
 11
80.599999999999994
 21
56.912468583527122
 31
0.0
  0
LINE
  5
90D
  8
0
 10
74.248017849401435
 20
55.762236318416853
 30
0.0
 11
80.599999999999994
 21
55.762236318416853
 31
0.0
  0
LINE
  5
90E
  8
0
 10
74.250000000000213
 20
54.819045029285142
 30
0.0
 11
80.599999999999994
 21
54.819045029285178
 31
0.0
  0
ARC
  5
90F
  8
0
 10
80.599999999999994
 20
55.400000000000119
 30
0.0
 40
0.9
 50
270.0
 51
352.14301302225522
  0
LINE
  5
910
  8
0
 10
81.487411967466684
 20
55.25
 30
0.0
 11
81.900000000000006
 21
55.25
 31
0.0
  0
LINE
  5
911
  8
0
 10
74.250000000000213
 20
54.500000000000107
 30
0.0
 11
80.599999999999994
 21
54.500000000000107
 31
0.0
  0
LINE
  5
912
  8
0
 10
73.500000000000341
 20
55.25
 30
0.0
 11
73.551227139574479
 21
55.198772860425862
 31
0.0
  0
LINE
  5
913
  8
0
 10
72.725137362834829
 20
55.25
 30
0.0
 11
73.500000000000341
 21
55.25
 31
0.0
  0
ARC
  5
914
  8
0
 10
141.4644893140605
 20
84.280954970714816
 30
0.0
 40
0.9
 50
19.856986977666839
 51
184.14301302233341
  0
ARC
  5
915
  8
0
 10
138.56164501109279
 20
83.337763681583155
 30
0.0
 40
0.9
 50
31.85698697766497
 51
196.14301302233329
  0
ARC
  5
916
  8
0
 10
135.9183353165291
 20
81.811648117875279
 30
0.0
 40
0.9
 50
43.856986977667823
 51
208.14301302233329
  0
ARC
  5
917
  8
0
 10
133.6500855480291
 20
79.769306852840202
 30
0.0
 40
0.9
 50
55.856986977664981
 51
220.14301302233201
  0
ARC
  5
918
  8
0
 10
131.85602910474611
 20
77.300000000000637
 30
0.0
 40
0.9
 50
67.856986977665315
 51
232.14301302233349
  0
ARC
  5
919
  8
0
 10
130.61457486208951
 20
74.511648117874643
 30
0.0
 40
0.9
 50
79.856986977667759
 51
244.14301302233369
  0
ARC
  5
91A
  8
0
 10
129.97998032762189
 20
71.526115563707862
 30
0.0
 40
0.9
 50
91.856986977666196
 51
256.14301302233338
  0
ARC
  5
91B
  8
0
 10
129.97998032762189
 20
68.47388443629211
 30
0.0
 40
0.9
 50
103.85698697766649
 51
268.14301302233378
  0
ARC
  5
91C
  8
0
 10
130.61457486208951
 20
65.488351882125343
 30
0.0
 40
0.9
 50
115.8569869776663
 51
280.1430130223323
  0
ARC
  5
91D
  8
0
 10
131.85602910474611
 20
62.699999999999328
 30
0.0
 40
0.9
 50
127.85698697766639
 51
292.14301302233463
  0
ARC
  5
91E
  8
0
 10
133.6500855480291
 20
60.230693147159791
 30
0.0
 40
0.9
 50
139.8569869776679
 51
304.14301302233503
  0
ARC
  5
91F
  8
0
 10
135.9183353165291
 20
58.188351882124778
 30
0.0
 40
0.9
 50
151.85698697766659
 51
316.14301302233218
  0
ARC
  5
920
  8
0
 10
138.56164501109279
 20
56.662236318416831
 30
0.0
 40
0.9
 50
163.85698697766671
 51
328.14301302233503
  0
ARC
  5
921
  8
0
 10
141.4644893140605
 20
55.719045029285184
 30
0.0
 40
0.9
 50
175.85698697766651
 51
340.14301302233321
  0
ARC
  5
922
  8
0
 10
144.5
 20
55.399999999998727
 30
0.0
 40
0.9
 50
187.85698697766739
 51
352.14301302233417
  0
ARC
  5
923
  8
0
 10
147.53551068593961
 20
55.719045029285184
 30
0.0
 40
0.9
 50
199.85698697766679
 51
4.143013022333478
  0
ARC
  5
924
  8
0
 10
150.43835498890721
 20
56.662236318416859
 30
0.0
 40
0.9
 50
211.856986977665
 51
16.143013022333282
  0
ARC
  5
925
  8
0
 10
153.0816646834709
 20
58.188351882124721
 30
0.0
 40
0.9
 50
223.85698697766779
 51
28.14301302233331
  0
ARC
  5
926
  8
0
 10
155.3499144519709
 20
60.230693147159791
 30
0.0
 40
0.9
 50
235.856986977665
 51
40.143013022332049
  0
ARC
  5
927
  8
0
 10
157.14397089525389
 20
62.699999999999363
 30
0.0
 40
0.9
 50
247.85698697766529
 51
52.143013022333513
  0
ARC
  5
928
  8
0
 10
158.38542513791049
 20
65.488351882125343
 30
0.0
 40
0.9
 50
259.85698697766782
 51
64.143013022333704
  0
ARC
  5
929
  8
0
 10
159.020019672378
 20
68.47388443629211
 30
0.0
 40
0.9
 50
271.85698697766622
 51
76.143013022333434
  0
ARC
  5
92A
  8
0
 10
159.020019672378
 20
71.52611556370789
 30
0.0
 40
0.9
 50
283.85698697766662
 51
88.143013022333804
  0
ARC
  5
92B
  8
0
 10
158.38542513791049
 20
74.511648117874614
 30
0.0
 40
0.9
 50
295.85698697766628
 51
100.1430130223322
  0
ARC
  5
92C
  8
0
 10
157.14397089525389
 20
77.300000000000637
 30
0.0
 40
0.9
 50
307.85698697766651
 51
112.1430130223346
  0
ARC
  5
92D
  8
0
 10
155.3499144519709
 20
79.769306852840202
 30
0.0
 40
0.9
 50
319.85698697766799
 51
124.143013022335
  0
ARC
  5
92E
  8
0
 10
153.0816646834709
 20
81.811648117875279
 30
0.0
 40
0.9
 50
331.85698697766668
 51
136.14301302233221
  0
ARC
  5
92F
  8
0
 10
150.43835498890721
 20
83.337763681583141
 30
0.0
 40
0.9
 50
343.85698697766668
 51
148.143013022335
  0
ARC
  5
930
  8
0
 10
147.53551068593961
 20
84.280954970714816
 30
0.0
 40
0.9
 50
355.85698697766651
 51
160.14301302233309
  0
ARC
  5
931
  8
0
 10
144.5
 20
84.600000000001259
 30
0.0
 40
0.9
 50
7.8569869776658301
 51
172.14301302233409
  0
CIRCLE
  5
932
  8
0
 10
144.5
 20
70.0
 30
0.0
 40
14.75
  0
LINE
  5
933
  8
1
 10
162.5
 20
70.0
 30
0.0
 11
126.5000000000001
 21
70.0
 31
0.0
  0
LINE
  5
934
  8
1
 10
144.5
 20
88.000000000000014
 30
0.0
 11
144.5
 21
52.000000000000142
 31
0.0
  0
CIRCLE
  5
935
  8
0
 10
144.5
 20
70.0
 30
0.0
 40
10.999999999999931
  0
CIRCLE
  5
936
  8
0
 10
144.5
 20
70.0
 30
0.0
 40
5.4999999999999707
  0
CIRCLE
  5
937
  8
0
 10
144.5
 20
70.0
 30
0.0
 40
11.99999999999994
  0
CIRCLE
  5
938
  8
0
 10
144.5
 20
70.0
 30
0.0
 40
4.0
  0
CIRCLE
  5
939
  8
3
 10
144.5
 20
70.0
 30
0.0
 40
3.3235000000000001
  0
LINE
  5
93A
  8
0
 10
88.499999999999986
 20
74.0
 30
0.0
 11
112.3
 21
74.0
 31
0.0
  0
LINE
  5
93B
  8
3
 10
112.9764999999999
 20
73.323500000000138
 30
0.0
 11
90.5
 21
73.323500000000138
 31
0.0
  0
LINE
  5
93C
  8
3
 10
112.9764999999999
 20
66.676499999999891
 30
0.0
 11
90.5
 21
66.676499999999862
 31
0.0
  0
LINE
  5
93D
  8
0
 10
88.499999999999986
 20
66.0
 30
0.0
 11
112.2999999999999
 21
66.0
 31
0.0
  0
LINE
  5
93E
  8
0
 10
112.3000000000001
 20
74.0
 30
0.0
 11
112.3000000000001
 21
66.0
 31
0.0
  0
LINE
  5
93F
  8
0
 10
90.5
 20
66.0
 30
0.0
 11
90.5
 21
74.0
 31
0.0
  0
LINE
  5
940
  8
3
 10
90.5
 20
66.676499999999862
 30
0.0
 11
89.5620944877017
 21
66.0
 31
0.0
  0
LINE
  5
941
  8
3
 10
89.5620944877017
 20
74.0
 30
0.0
 11
90.5
 21
73.323500000000138
 31
0.0
  0
LINE
  5
942
  8
0
 10
112.3
 20
74.0
 30
0.0
 11
113.5
 21
72.800000000000011
 31
0.0
  0
LINE
  5
943
  8
0
 10
113.5
 20
67.200000000000017
 30
0.0
 11
112.3
 21
66.0
 31
0.0
  0
LINE
  5
944
  8
0
 10
113.5
 20
72.800000000000011
 30
0.0
 11
113.4999999999999
 21
67.200000000000017
 31
0.0
  0
ENDSEC
  0
EOF
