  0
SECTION
  2
HEADER
  9
$ACADVER
  1
AC1009
  9
$INSBASE
 10
0.0
 20
0.0
 30
0.0
  9
$EXTMIN
 10
0.0
 20
-2.960436562073669
 30
0.0
  9
$EXTMAX
 10
184.49999999999909
 20
75.499999999999105
 30
0.0
  9
$LIMMIN
 10
0.0
 20
0.0
  9
$LIMMAX
 10
187.5
 20
135.0
  9
$ORTHOMODE
 70
     1
  9
$REGENMODE
 70
     1
  9
$FILLMODE
 70
     1
  9
$QTEXTMODE
 70
     0
  9
$MIRRTEXT
 70
     0
  9
$DRAGMODE
 70
     2
  9
$LTSCALE
 40
5.0
  9
$OSMODE
 70
    37
  9
$ATTMODE
 70
     1
  9
$TEXTSIZE
 40
5.0
  9
$TRACEWID
 40
0.05
  9
$TEXTSTYLE
  7
STANDARD
  9
$CLAYER
  8
0
  9
$CELTYPE
  6
BYLAYER
  9
$CECOLOR
 62
   256
  9
$DIMSCALE
 40
0.5
  9
$DIMASZ
 40
3.0
  9
$DIMEXO
 40
2.0
  9
$DIMDLI
 40
0.3799999999999999
  9
$DIMRND
 40
0.0
  9
$DIMDLE
 40
0.0
  9
$DIMEXE
 40
2.0
  9
$DIMTP
 40
0.0
  9
$DIMTM
 40
0.0
  9
$DIMTXT
 40
3.0
  9
$DIMCEN
 40
0.09
  9
$DIMTSZ
 40
0.0
  9
$DIMTOL
 70
     0
  9
$DIMLIM
 70
     0
  9
$DIMTIH
 70
     0
  9
$DIMTOH
 70
     0
  9
$DIMSE1
 70
     0
  9
$DIMSE2
 70
     0
  9
$DIMTAD
 70
     1
  9
$DIMZIN
 70
     0
  9
$DIMBLK
  1

  9
$DIMASO
 70
     0
  9
$DIMSHO
 70
     0
  9
$DIMPOST
  1

  9
$DIMAPOST
  1

  9
$DIMALT
 70
     0
  9
$DIMALTD
 70
     2
  9
$DIMALTF
 40
25.399999999999999
  9
$DIMLFAC
 40
1.0
  9
$DIMTOFL
 70
     0
  9
$DIMTVP
 40
1.6000000000000001
  9
$DIMTIX
 70
     1
  9
$DIMSOXD
 70
     0
  9
$DIMSAH
 70
     0
  9
$DIMBLK1
  1

  9
$DIMBLK2
  1

  9
$DIMSTYLE
  2
STANDARD
  9
$DIMCLRD
 70
     0
  9
$DIMCLRE
 70
     0
  9
$DIMCLRT
 70
     0
  9
$DIMTFAC
 40
1.0
  9
$DIMGAP
 40
0.09
  9
$LUNITS
 70
     2
  9
$LUPREC
 70
     1
  9
$SKETCHINC
 40
0.1
  9
$FILLETRAD
 40
0.0
  9
$AUNITS
 70
     0
  9
$AUPREC
 70
     0
  9
$MENU
  1
E:\r13\win\SUPPORT\ACAD
  9
$ELEVATION
 40
0.0
  9
$PELEVATION
 40
0.0
  9
$THICKNESS
 40
0.0
  9
$LIMCHECK
 70
     0
  9
$BLIPMODE
 70
     0
  9
$CHAMFERA
 40
0.0
  9
$CHAMFERB
 40
0.0
  9
$SKPOLY
 70
     0
  9
$TDCREATE
 40
2449839.7862037038
  9
$TDUPDATE
 40
2457178.7287196298
  9
$TDINDWG
 40
0.0123450694
  9
$TDUSRTIMER
 40
0.0123450694
  9
$USRTIMER
 70
     1
  9
$ANGBASE
 50
0.0
  9
$ANGDIR
 70
     0
  9
$PDMODE
 70
     0
  9
$PDSIZE
 40
0.0
  9
$PLINEWID
 40
0.0
  9
$COORDS
 70
     1
  9
$SPLFRAME
 70
     0
  9
$SPLINETYPE
 70
     6
  9
$SPLINESEGS
 70
     8
  9
$ATTDIA
 70
     0
  9
$ATTREQ
 70
     1
  9
$HANDLING
 70
     1
  9
$HANDSEED
  5
DC1
  9
$SURFTAB1
 70
     6
  9
$SURFTAB2
 70
     6
  9
$SURFTYPE
 70
     6
  9
$SURFU
 70
     6
  9
$SURFV
 70
     6
  9
$UCSNAME
  2

  9
$UCSORG
 10
0.0
 20
0.0
 30
0.0
  9
$UCSXDIR
 10
1.0
 20
0.0
 30
0.0
  9
$UCSYDIR
 10
0.0
 20
1.0
 30
0.0
  9
$PUCSNAME
  2

  9
$PUCSORG
 10
0.0
 20
0.0
 30
0.0
  9
$PUCSXDIR
 10
1.0
 20
0.0
 30
0.0
  9
$PUCSYDIR
 10
0.0
 20
1.0
 30
0.0
  9
$USERI1
 70
     0
  9
$USERI2
 70
     1
  9
$USERI3
 70
     1
  9
$USERI4
 70
     0
  9
$USERI5
 70
     0
  9
$USERR1
 40
0.0
  9
$USERR2
 40
0.0
  9
$USERR3
 40
0.0
  9
$USERR4
 40
0.0
  9
$USERR5
 40
0.0
  9
$WORLDVIEW
 70
     1
  9
$SHADEDGE
 70
     3
  9
$SHADEDIF
 70
    70
  9
$TILEMODE
 70
     1
  9
$MAXACTVP
 70
    16
  9
$PLIMCHECK
 70
     0
  9
$PEXTMIN
 10
1.0000000000000000E+020
 20
1.0000000000000000E+020
 30
1.0000000000000000E+020
  9
$PEXTMAX
 10
-1.0000000000000000E+020
 20
-1.0000000000000000E+020
 30
-1.0000000000000000E+020
  9
$PLIMMIN
 10
0.0
 20
0.0
  9
$PLIMMAX
 10
12.0
 20
9.0
  9
$UNITMODE
 70
     0
  9
$VISRETAIN
 70
     0
  9
$PLINEGEN
 70
     0
  9
$PSLTSCALE
 70
     0
  0
ENDSEC
  0
SECTION
  2
TABLES
  0
TABLE
  2
VPORT
 70
     1
  0
VPORT
  2
*ACTIVE
 70
     0
 10
0.0
 20
0.0
 11
1.0
 21
1.0
 12
172.54273504273499
 22
95.0
 13
0.0
 23
0.0
 14
5.0
 24
5.0
 15
5.0
 25
5.0
 16
0.0
 26
0.0
 36
1.0
 17
0.0
 27
0.0
 37
0.0
 40
190.0
 41
1.816239316239316
 42
50.0
 43
0.0
 44
0.0
 50
0.0
 51
0.0
 71
     0
 72
   500
 73
     1
 74
     0
 75
     0
 76
     0
 77
     0
 78
     2
  0
ENDTAB
  0
TABLE
  2
LTYPE
 70
     3
  0
LTYPE
  2
CONTINUOUS
 70
     0
  3
Solid Line
 72
    65
 73
     0
 40
0.0
  0
LTYPE
  2
CENTER
 70
     0
  3
____ _ ____ _ ____ _ ____ _ ____ _ ____ _ ____
 72
    65
 73
     4
 40
2.0
 49
1.25
 49
-0.25
 49
0.25
 49
-0.25
  0
LTYPE
  2
PHANTOM2
 70
     0
  3
___ _ _ ___ _ _ ___ _ _ ___ _ _
 72
    65
 73
     6
 40
1.25
 49
0.625
 49
-0.125
 49
0.125
 49
-0.125
 49
0.125
 49
-0.125
  0
ENDTAB
  0
TABLE
  2
LAYER
 70
     3
  0
LAYER
  2
0
 70
     0
 62
     7
  6
CONTINUOUS
  0
LAYER
  2
1
 70
     0
 62
     1
  6
CENTER
  0
LAYER
  2
3
 70
     0
 62
     3
  6
CONTINUOUS
  0
ENDTAB
  0
TABLE
  2
STYLE
 70
     2
  0
STYLE
  2
STANDARD
 70
     0
 40
0.0
 41
1.0
 50
0.0
 71
     0
 42
5.0
  3
TXT
  4
BIGFONT
  0
STYLE
  2
STANDARD1
 70
     0
 40
0.0
 41
1.0
 50
0.0
 71
     0
 42
3.0
  3
txt
  4

  0
ENDTAB
  0
TABLE
  2
VIEW
 70
     1
  0
VIEW
  2
ALL
 70
     0
 40
135.0
 10
110.4957983193277
 20
67.5
 41
0.0
 11
0.0
 21
0.0
 31
1.0
 12
0.0
 22
0.0
 32
0.0
 42
0.0
 43
0.0
 44
0.0
 50
0.0
 71
     0
  0
ENDTAB
  0
TABLE
  2
UCS
 70
     0
  0
ENDTAB
  0
TABLE
  2
APPID
 70
     6
  0
APPID
  2
ACAD
 70
     0
  0
APPID
  2
ACAD_MLEADERVER
 70
     0
  0
APPID
  2
ACAD_EXEMPT_FROM_CAD_STANDARDS
 70
     0
  0
APPID
  2
ACAD_NAV_VCDISPLAY
 70
     0
  0
APPID
  2
ACAD_DSTYLE_DIMJAG
 70
     0
  0
APPID
  2
ACAD_DSTYLE_DIMTALN
 70
     0
  0
ENDTAB
  0
TABLE
  2
DIMSTYLE
 70
     1
  0
DIMSTYLE
  2
STANDARD
 70
     0
  3

  4

  5

  6

  7

 40
1.0
 41
0.18
 42
0.0625
 43
0.38
 44
0.18
 45
0.0
 46
0.0
 47
0.0
 48
0.0
140
0.18
141
0.09
142
0.0
143
25.399999999999999
144
1.0
145
0.0
146
1.0
147
0.09
 71
     0
 72
     0
 73
     1
 74
     1
 75
     0
 76
     0
 77
     0
 78
     0
170
     0
171
     2
172
     0
173
     0
174
     0
175
     0
176
     0
177
     0
178
     0
  0
ENDTAB
  0
ENDSEC
  0
SECTION
  2
BLOCKS
  0
BLOCK
  8
0
  2
$MODEL_SPACE
 70
     0
 10
0.0
 20
0.0
 30
0.0
  3
$MODEL_SPACE
  1

  0
ENDBLK
  5
541
  8
0
  0
BLOCK
 67
     1
  8
0
  2
$PAPER_SPACE
 70
     0
 10
0.0
 20
0.0
 30
0.0
  3
$PAPER_SPACE
  1

  0
ENDBLK
  5
53F
 67
     1
  8
0
  0
ENDSEC
  0
SECTION
  2
ENTITIES
  0
TEXT
  5
909
  8
0
 62
     3
 10
0.0
 20
0.0
 30
0.0
 40
10.0
  1
KS25X25A
  7
STANDARD1
  0
LINE
  5
B46
  8
0
 10
105.9999999999997
 20
54.998686832822223
 30
0.0
 11
105.6999999999997
 21
54.998686832822223
 31
0.0
  0
LINE
  5
B47
  8
0
 10
105.9999999999997
 20
54.998686832822223
 30
0.0
 11
105.9999999999997
 21
65.001313167177784
 31
0.0
  0
LINE
  5
B48
  8
0
 10
105.9999999999997
 20
65.001313167177784
 30
0.0
 11
105.6999999999997
 21
65.001313167177784
 31
0.0
  0
LINE
  5
B49
  8
0
 10
130.9999999999998
 20
62.800000000000011
 30
0.0
 11
130.99999999999969
 21
57.199999999999982
 31
0.0
  0
LINE
  5
B4A
  8
0
 10
105.9999999999998
 20
56.0
 30
0.0
 11
129.7999999999997
 21
56.0
 31
0.0
  0
LINE
  5
B4B
  8
3
 10
107.9999999999997
 20
56.676499999999919
 30
0.0
 11
130.47649999999959
 21
56.676499999999919
 31
0.0
  0
LINE
  5
B4C
  8
3
 10
107.9999999999998
 20
63.323500000000138
 30
0.0
 11
130.4764999999997
 21
63.323500000000081
 31
0.0
  0
LINE
  5
B4D
  8
0
 10
105.9999999999998
 20
64.0
 30
0.0
 11
129.79999999999981
 21
64.0
 31
0.0
  0
LINE
  5
B4E
  8
0
 10
129.79999999999981
 20
64.0
 30
0.0
 11
130.9999999999998
 21
62.800000000000011
 31
0.0
  0
LINE
  5
B4F
  8
0
 10
130.99999999999969
 20
57.199999999999982
 30
0.0
 11
129.7999999999997
 21
56.0
 31
0.0
  0
LINE
  5
B50
  8
0
 10
129.79999999999981
 20
64.0
 30
0.0
 11
129.7999999999997
 21
56.0
 31
0.0
  0
LINE
  5
B51
  8
0
 10
107.9999999999998
 20
64.0
 30
0.0
 11
107.9999999999997
 21
56.0
 31
0.0
  0
LINE
  5
B52
  8
3
 10
107.9999999999998
 20
63.323500000000138
 30
0.0
 11
106.8282676286796
 21
64.0
 31
0.0
  0
LINE
  5
B53
  8
3
 10
107.9999999999998
 20
56.676499999999919
 30
0.0
 11
106.8282676286796
 21
56.00000000000005
 31
0.0
  0
CIRCLE
  5
B54
  8
3
 10
169.0
 20
60.000000000000057
 30
0.0
 40
3.3235000000000952
  0
CIRCLE
  5
B55
  8
0
 10
169.0
 20
60.000000000000057
 30
0.0
 40
4.0000000000000142
  0
ARC
  5
B57
  8
0
 10
53.380790682097263
 20
71.513915683374364
 30
0.0
 40
1.0
 50
343.63636363636351
 51
163.63636363636351
  0
LINE
  5
B58
  8
0
 10
54.340283655710891
 20
71.232183126533215
 30
0.0
 11
54.328524348144043
 21
71.192134602814605
 31
0.0
  0
LINE
  5
B59
  8
0
 10
52.421297708483642
 20
71.795648240215542
 30
0.0
 11
52.40953840091683
 21
71.755599716497102
 31
0.0
  0
ARC
  5
B5A
  8
0
 10
56.487689809467383
 20
70.095042393974552
 30
0.0
 40
1.0
 50
327.2727272727272
 51
147.27272727272711
  0
LINE
  5
B5B
  8
0
 10
57.328943342297798
 20
69.554401576519439
 30
0.0
 11
57.306377396327861
 21
69.51928827919528
 31
0.0
  0
LINE
  5
B5C
  8
0
 10
55.646436276636962
 20
70.635683211429637
 30
0.0
 11
55.623870330667103
 21
70.600569914105606
 31
0.0
  0
ARC
  5
B5D
  8
0
 10
59.068994892251389
 20
67.858328807343725
 30
0.0
 40
1.0
 50
310.90909090909111
 51
130.90909090909099
  0
LINE
  5
B5E
  8
0
 10
59.723855626196098
 20
67.102579232990138
 30
0.0
 11
59.692311200560709
 21
67.075245832582851
 31
0.0
  0
LINE
  5
B5F
  8
0
 10
58.414134158306751
 20
68.614078381697311
 30
0.0
 11
58.382589732671477
 21
68.58674498129011
 31
0.0
  0
ARC
  5
B60
  8
0
 10
60.915583944254593
 20
64.984980156022829
 30
0.0
 40
1.0
 50
294.54545454545479
 51
114.5454545454548
  0
LINE
  5
B61
  8
0
 10
61.330998957256099
 20
64.075348160669137
 30
0.0
 11
61.293031593718332
 21
64.058009046721679
 31
0.0
  0
LINE
  5
B62
  8
0
 10
60.500168931253093
 20
65.894612151376521
 30
0.0
 11
60.462201567715432
 21
65.87727303742912
 31
0.0
  0
ARC
  5
B63
  8
0
 10
61.877857302571613
 20
61.707778059279519
 30
0.0
 40
1.0
 50
278.1818181818179
 51
98.181818181817818
  0
LINE
  5
B64
  8
0
 10
62.020172140844771
 20
60.717956617399473
 30
0.0
 11
61.978857729397838
 21
60.712016501804207
 31
0.0
  0
LINE
  5
B65
  8
0
 10
61.735542464298483
 20
62.697599501159537
 30
0.0
 11
61.694228052851649
 21
62.691659385564321
 31
0.0
  0
ARC
  5
B66
  8
0
 10
61.877857302571613
 20
58.292221940720538
 30
0.0
 40
1.0
 50
261.81818181818221
 51
81.818181818182182
  0
LINE
  5
B67
  8
0
 10
61.735542464298483
 20
57.302400498840491
 30
0.0
 11
61.694228052851543
 21
57.308340614435728
 31
0.0
  0
LINE
  5
B68
  8
0
 10
62.020172140844807
 20
59.282043382600563
 30
0.0
 11
61.97885772939798
 21
59.287983498195793
 31
0.0
  0
ARC
  5
B69
  8
0
 10
60.915583944254649
 20
55.015019843977193
 30
0.0
 40
1.0
 50
245.45454545454521
 51
65.454545454545183
  0
LINE
  5
B6A
  8
0
 10
60.500168931253143
 20
54.105387848623529
 30
0.0
 11
60.46220156771534
 21
54.122726962570972
 31
0.0
  0
LINE
  5
B6B
  8
0
 10
61.330998957256149
 20
55.92465183933092
 30
0.0
 11
61.293031593718503
 21
55.941990953278271
 31
0.0
  0
ARC
  5
B6C
  8
0
 10
59.068994892251453
 20
52.141671192656332
 30
0.0
 40
1.0
 50
229.09090909090901
 51
49.090909090908987
  0
LINE
  5
B6D
  8
0
 10
58.414134158306751
 20
51.385921618302781
 30
0.0
 11
58.382589732671363
 21
51.413255018710061
 31
0.0
  0
LINE
  5
B6E
  8
0
 10
59.723855626196148
 20
52.897420767009919
 30
0.0
 11
59.692311200560852
 21
52.92475416741712
 31
0.0
  0
ARC
  5
B6F
  8
0
 10
56.48768980946744
 20
49.904957606025476
 30
0.0
 40
1.0
 50
212.72727272727241
 51
32.727272727272428
  0
LINE
  5
B70
  8
0
 10
55.646436276637019
 20
49.36431678857037
 30
0.0
 11
55.623870330667067
 21
49.399430085894487
 31
0.0
  0
LINE
  5
B71
  8
0
 10
57.328943342297862
 20
50.44559842348059
 30
0.0
 11
57.306377396328003
 21
50.480711720804607
 31
0.0
  0
ARC
  5
B72
  8
0
 10
53.380790682097313
 20
48.486084316625629
 30
0.0
 40
1.0
 50
196.36363636363649
 51
16.363636363636491
  0
LINE
  5
B73
  8
0
 10
52.421297708483678
 20
48.204351759784451
 30
0.0
 11
52.40953840091683
 21
48.244400283503069
 31
0.0
  0
LINE
  5
B74
  8
0
 10
54.34028365571092
 20
48.76781687346682
 30
0.0
 11
54.328524348144128
 21
48.807865397185253
 31
0.0
  0
ARC
  5
B75
  8
0
 10
50.0
 20
47.999999999999567
 30
0.0
 40
1.0
 50
180.0
 51
0.0
  0
LINE
  5
B76
  8
0
 10
49.000000000000902
 20
47.999999999999567
 30
0.0
 11
49.000000000000902
 21
48.041739256898722
 31
0.0
  0
LINE
  5
B77
  8
0
 10
50.999999999999091
 20
47.999999999999567
 30
0.0
 11
50.999999999999091
 21
48.041739256898552
 31
0.0
  0
ARC
  5
B78
  8
0
 10
46.619209317902737
 20
48.486084316625629
 30
0.0
 40
1.0
 50
163.63636363636351
 51
343.63636363636351
  0
LINE
  5
B79
  8
0
 10
45.659716344289109
 20
48.76781687346682
 30
0.0
 11
45.67147565185595
 21
48.807865397185417
 31
0.0
  0
LINE
  5
B7A
  8
0
 10
47.57870229151635
 20
48.204351759784451
 30
0.0
 11
47.59046159908317
 21
48.24440028350292
 31
0.0
  0
ARC
  5
B7B
  8
0
 10
43.51231019053261
 20
49.904957606025476
 30
0.0
 40
1.0
 50
147.27272727272711
 51
327.2727272727272
  0
LINE
  5
B7C
  8
0
 10
42.671056657702188
 20
50.44559842348059
 30
0.0
 11
42.693622603672139
 21
50.48071172080472
 31
0.0
  0
LINE
  5
B7D
  8
0
 10
44.353563723363031
 20
49.36431678857037
 30
0.0
 11
44.37612966933289
 21
49.39943008589438
 31
0.0
  0
ARC
  5
B7E
  8
0
 10
40.931005107748597
 20
52.141671192656297
 30
0.0
 40
1.0
 50
130.90909090909099
 51
310.90909090909111
  0
LINE
  5
B7F
  8
0
 10
40.276144373803902
 20
52.897420767009862
 30
0.0
 11
40.307688799439291
 21
52.924754167417177
 31
0.0
  0
LINE
  5
B80
  8
0
 10
41.585865841693298
 20
51.385921618302739
 30
0.0
 11
41.617410267328573
 21
51.41325501870994
 31
0.0
  0
ARC
  5
B81
  8
0
 10
39.084416055745407
 20
55.015019843977193
 30
0.0
 40
1.0
 50
114.5454545454548
 51
294.54545454545479
  0
LINE
  5
B82
  8
0
 10
38.669001042743872
 20
55.924651839330863
 30
0.0
 11
38.706968406281653
 21
55.941990953278321
 31
0.0
  0
LINE
  5
B83
  8
0
 10
39.499831068746921
 20
54.105387848623479
 30
0.0
 11
39.537798432284553
 21
54.12272696257088
 31
0.0
  0
ARC
  5
B84
  8
0
 10
38.122142697428387
 20
58.292221940720509
 30
0.0
 40
1.0
 50
98.181818181817818
 51
278.1818181818179
  0
LINE
  5
B85
  8
0
 10
37.979827859155222
 20
59.282043382600527
 30
0.0
 11
38.021142270602191
 21
59.287983498195793
 31
0.0
  0
LINE
  5
B86
  8
0
 10
38.264457535701531
 20
57.302400498840491
 30
0.0
 11
38.305771947148337
 21
57.3083406144357
 31
0.0
  0
ARC
  5
B87
  8
0
 10
38.122142697428387
 20
61.707778059279462
 30
0.0
 40
1.0
 50
81.818181818182182
 51
261.81818181818221
  0
LINE
  5
B88
  8
0
 10
38.264457535701553
 20
62.697599501159509
 30
0.0
 11
38.305771947148479
 21
62.691659385564257
 31
0.0
  0
LINE
  5
B89
  8
0
 10
37.97982785915525
 20
60.717956617399437
 30
0.0
 11
38.021142270602013
 21
60.712016501804207
 31
0.0
  0
ARC
  5
B8A
  8
0
 10
39.084416055745407
 20
64.9849801560228
 30
0.0
 40
1.0
 50
65.454545454545183
 51
245.45454545454521
  0
LINE
  5
B8B
  8
0
 10
39.499831068746921
 20
65.894612151376521
 30
0.0
 11
39.53779843228466
 21
65.877273037429063
 31
0.0
  0
LINE
  5
B8C
  8
0
 10
38.669001042743901
 20
64.075348160669137
 30
0.0
 11
38.706968406281533
 21
64.058009046721736
 31
0.0
  0
ARC
  5
B8D
  8
0
 10
40.931005107748597
 20
67.858328807343696
 30
0.0
 40
1.0
 50
49.090909090908987
 51
229.09090909090901
  0
LINE
  5
B8E
  8
0
 10
41.58586584169327
 20
68.614078381697254
 30
0.0
 11
41.617410267328658
 21
68.586744981289968
 31
0.0
  0
LINE
  5
B8F
  8
0
 10
40.276144373803902
 20
67.102579232990138
 30
0.0
 11
40.30768879943917
 21
67.075245832582937
 31
0.0
  0
ARC
  5
B90
  8
0
 10
43.51231019053261
 20
70.095042393974552
 30
0.0
 40
1.0
 50
32.727272727272428
 51
212.72727272727241
  0
LINE
  5
B91
  8
0
 10
44.353563723363031
 20
70.635683211429637
 30
0.0
 11
44.376129669332947
 21
70.600569914105506
 31
0.0
  0
LINE
  5
B92
  8
0
 10
42.671056657702188
 20
69.55440157651941
 30
0.0
 11
42.693622603672047
 21
69.519288279195393
 31
0.0
  0
ARC
  5
B93
  8
0
 10
46.619209317902737
 20
71.513915683374364
 30
0.0
 40
1.0
 50
16.363636363636491
 51
196.36363636363649
  0
LINE
  5
B94
  8
0
 10
47.57870229151635
 20
71.795648240215542
 30
0.0
 11
47.590461599083199
 21
71.755599716496931
 31
0.0
  0
LINE
  5
B95
  8
0
 10
45.659716344289109
 20
71.232183126533215
 30
0.0
 11
45.671475651855921
 21
71.192134602814747
 31
0.0
  0
LINE
  5
B96
  8
0
 10
49.000000000000902
 20
72.000000000000426
 30
0.0
 11
49.000000000000902
 21
71.958260743101434
 31
0.0
  0
LINE
  5
B97
  8
0
 10
50.999999999999091
 20
72.000000000000426
 30
0.0
 11
50.999999999999091
 21
71.958260743101278
 31
0.0
  0
ARC
  5
B98
  8
0
 10
50.0
 20
72.000000000000426
 30
0.0
 40
1.0
 50
0.0
 51
180.0
  0
CIRCLE
  5
B99
  8
0
 10
50.0
 20
60.0
 30
0.0
 40
12.0
  0
LINE
  5
B9A
  8
1
 10
133.4999999999998
 20
60.0
 30
0.0
 11
85.500000000000199
 21
60.0
 31
0.0
  0
LINE
  5
B9B
  8
1
 10
34.500000000000853
 20
60.0
 30
0.0
 11
65.499999999999091
 21
60.0
 31
0.0
  0
LINE
  5
B9C
  8
1
 10
50.0
 20
44.500000000000853
 30
0.0
 11
50.0
 21
75.499999999999105
 31
0.0
  0
LINE
  5
B9D
  8
1
 10
169.0
 20
44.50000000000108
 30
0.0
 11
169.0
 21
75.499999999999062
 31
0.0
  0
LINE
  5
B9E
  8
1
 10
153.50000000000091
 20
60.0
 30
0.0
 11
184.49999999999909
 21
60.0
 31
0.0
  0
CIRCLE
  5
B9F
  8
0
 10
169.0
 20
60.0
 30
0.0
 40
12.0
  0
ARC
  5
BA0
  8
0
 10
169.0
 20
72.000000000000426
 30
0.0
 40
1.0
 50
0.0
 51
180.0
  0
LINE
  5
BA1
  8
0
 10
169.99999999999909
 20
72.000000000000426
 30
0.0
 11
169.99999999999909
 21
71.958260743101278
 31
0.0
  0
LINE
  5
BA2
  8
0
 10
168.00000000000091
 20
72.000000000000426
 30
0.0
 11
168.00000000000091
 21
71.958260743101434
 31
0.0
  0
LINE
  5
BA3
  8
0
 10
164.65971634428911
 20
71.232183126533215
 30
0.0
 11
164.6714756518559
 21
71.192134602814747
 31
0.0
  0
LINE
  5
BA4
  8
0
 10
166.57870229151641
 20
71.795648240215542
 30
0.0
 11
166.5904615990832
 21
71.755599716496931
 31
0.0
  0
ARC
  5
BA5
  8
0
 10
165.61920931790269
 20
71.513915683374364
 30
0.0
 40
1.0
 50
16.363636363636491
 51
196.36363636363649
  0
LINE
  5
BA6
  8
0
 10
161.6710566577022
 20
69.55440157651941
 30
0.0
 11
161.693622603672
 21
69.519288279195393
 31
0.0
  0
LINE
  5
BA7
  8
0
 10
163.35356372336301
 20
70.635683211429637
 30
0.0
 11
163.3761296693329
 21
70.600569914105506
 31
0.0
  0
ARC
  5
BA8
  8
0
 10
162.51231019053259
 20
70.095042393974552
 30
0.0
 40
1.0
 50
32.727272727272428
 51
212.72727272727241
  0
LINE
  5
BA9
  8
0
 10
159.2761443738039
 20
67.102579232990138
 30
0.0
 11
159.30768879943909
 21
67.075245832582937
 31
0.0
  0
LINE
  5
BAA
  8
0
 10
160.58586584169319
 20
68.614078381697254
 30
0.0
 11
160.61741026732861
 21
68.586744981289968
 31
0.0
  0
ARC
  5
BAB
  8
0
 10
159.9310051077486
 20
67.858328807343696
 30
0.0
 40
1.0
 50
49.090909090908987
 51
229.09090909090901
  0
LINE
  5
BAC
  8
0
 10
157.6690010427439
 20
64.075348160669137
 30
0.0
 11
157.7069684062815
 21
64.058009046721736
 31
0.0
  0
LINE
  5
BAD
  8
0
 10
158.49983106874689
 20
65.894612151376521
 30
0.0
 11
158.5377984322846
 21
65.877273037429063
 31
0.0
  0
ARC
  5
BAE
  8
0
 10
158.08441605574541
 20
64.9849801560228
 30
0.0
 40
1.0
 50
65.454545454545183
 51
245.45454545454521
  0
LINE
  5
BAF
  8
0
 10
156.97982785915519
 20
60.717956617399437
 30
0.0
 11
157.02114227060201
 21
60.712016501804207
 31
0.0
  0
LINE
  5
BB0
  8
0
 10
157.2644575357015
 20
62.697599501159509
 30
0.0
 11
157.30577194714849
 21
62.691659385564257
 31
0.0
  0
ARC
  5
BB1
  8
0
 10
157.12214269742839
 20
61.707778059279462
 30
0.0
 40
1.0
 50
81.818181818182182
 51
261.81818181818221
  0
LINE
  5
BB2
  8
0
 10
157.2644575357015
 20
57.302400498840491
 30
0.0
 11
157.30577194714829
 21
57.3083406144357
 31
0.0
  0
LINE
  5
BB3
  8
0
 10
156.97982785915519
 20
59.282043382600527
 30
0.0
 11
157.0211422706021
 21
59.287983498195793
 31
0.0
  0
ARC
  5
BB4
  8
0
 10
157.12214269742839
 20
58.292221940720509
 30
0.0
 40
1.0
 50
98.181818181817818
 51
278.1818181818179
  0
LINE
  5
BB5
  8
0
 10
158.49983106874689
 20
54.105387848623479
 30
0.0
 11
158.53779843228449
 21
54.12272696257088
 31
0.0
  0
LINE
  5
BB6
  8
0
 10
157.66900104274379
 20
55.924651839330863
 30
0.0
 11
157.70696840628159
 21
55.941990953278321
 31
0.0
  0
ARC
  5
BB7
  8
0
 10
158.08441605574541
 20
55.015019843977193
 30
0.0
 40
1.0
 50
114.5454545454548
 51
294.54545454545479
  0
LINE
  5
BB8
  8
0
 10
160.58586584169331
 20
51.385921618302739
 30
0.0
 11
160.61741026732861
 21
51.41325501870994
 31
0.0
  0
LINE
  5
BB9
  8
0
 10
159.2761443738039
 20
52.897420767009862
 30
0.0
 11
159.30768879943929
 21
52.924754167417177
 31
0.0
  0
ARC
  5
BBA
  8
0
 10
159.9310051077486
 20
52.141671192656297
 30
0.0
 40
1.0
 50
130.90909090909099
 51
310.90909090909111
  0
LINE
  5
BBB
  8
0
 10
163.35356372336301
 20
49.36431678857037
 30
0.0
 11
163.3761296693329
 21
49.39943008589438
 31
0.0
  0
LINE
  5
BBC
  8
0
 10
161.6710566577022
 20
50.44559842348059
 30
0.0
 11
161.69362260367211
 21
50.48071172080472
 31
0.0
  0
ARC
  5
BBD
  8
0
 10
162.51231019053259
 20
49.904957606025476
 30
0.0
 40
1.0
 50
147.27272727272711
 51
327.2727272727272
  0
LINE
  5
BBE
  8
0
 10
166.57870229151641
 20
48.204351759784451
 30
0.0
 11
166.59046159908311
 21
48.24440028350292
 31
0.0
  0
LINE
  5
BBF
  8
0
 10
164.65971634428911
 20
48.76781687346682
 30
0.0
 11
164.67147565185601
 21
48.807865397185417
 31
0.0
  0
ARC
  5
BC0
  8
0
 10
165.61920931790269
 20
48.486084316625629
 30
0.0
 40
1.0
 50
163.63636363636351
 51
343.63636363636351
  0
LINE
  5
BC1
  8
0
 10
169.99999999999909
 20
47.999999999999567
 30
0.0
 11
169.99999999999909
 21
48.041739256898552
 31
0.0
  0
LINE
  5
BC2
  8
0
 10
168.00000000000091
 20
47.999999999999567
 30
0.0
 11
168.00000000000091
 21
48.041739256898722
 31
0.0
  0
ARC
  5
BC3
  8
0
 10
169.0
 20
47.999999999999567
 30
0.0
 40
1.0
 50
180.0
 51
0.0
  0
LINE
  5
BC4
  8
0
 10
173.34028365571089
 20
48.76781687346682
 30
0.0
 11
173.3285243481441
 21
48.807865397185253
 31
0.0
  0
LINE
  5
BC5
  8
0
 10
171.42129770848371
 20
48.204351759784451
 30
0.0
 11
171.4095384009168
 21
48.244400283503069
 31
0.0
  0
ARC
  5
BC6
  8
0
 10
172.38079068209731
 20
48.486084316625629
 30
0.0
 40
1.0
 50
196.36363636363649
 51
16.363636363636491
  0
LINE
  5
BC7
  8
0
 10
176.3289433422978
 20
50.44559842348059
 30
0.0
 11
176.306377396328
 21
50.480711720804607
 31
0.0
  0
LINE
  5
BC8
  8
0
 10
174.64643627663699
 20
49.36431678857037
 30
0.0
 11
174.62387033066699
 21
49.399430085894487
 31
0.0
  0
ARC
  5
BC9
  8
0
 10
175.48768980946741
 20
49.904957606025476
 30
0.0
 40
1.0
 50
212.72727272727241
 51
32.727272727272428
  0
LINE
  5
BCA
  8
0
 10
178.7238556261961
 20
52.897420767009919
 30
0.0
 11
178.69231120056091
 21
52.92475416741712
 31
0.0
  0
LINE
  5
BCB
  8
0
 10
177.41413415830669
 20
51.385921618302781
 30
0.0
 11
177.38258973267131
 21
51.413255018710061
 31
0.0
  0
ARC
  5
BCC
  8
0
 10
178.0689948922514
 20
52.141671192656332
 30
0.0
 40
1.0
 50
229.09090909090901
 51
49.090909090908987
  0
LINE
  5
BCD
  8
0
 10
180.3309989572561
 20
55.92465183933092
 30
0.0
 11
180.2930315937185
 21
55.941990953278271
 31
0.0
  0
LINE
  5
BCE
  8
0
 10
179.50016893125311
 20
54.105387848623529
 30
0.0
 11
179.46220156771531
 21
54.122726962570972
 31
0.0
  0
ARC
  5
BCF
  8
0
 10
179.91558394425459
 20
55.015019843977193
 30
0.0
 40
1.0
 50
245.45454545454521
 51
65.454545454545183
  0
LINE
  5
BD0
  8
0
 10
181.02017214084481
 20
59.282043382600563
 30
0.0
 11
180.97885772939799
 21
59.287983498195793
 31
0.0
  0
LINE
  5
BD1
  8
0
 10
180.7355424642985
 20
57.302400498840491
 30
0.0
 11
180.69422805285151
 21
57.308340614435728
 31
0.0
  0
ARC
  5
BD2
  8
0
 10
180.87785730257161
 20
58.292221940720538
 30
0.0
 40
1.0
 50
261.81818181818221
 51
81.818181818182182
  0
LINE
  5
BD3
  8
0
 10
180.7355424642985
 20
62.697599501159537
 30
0.0
 11
180.6942280528516
 21
62.691659385564321
 31
0.0
  0
LINE
  5
BD4
  8
0
 10
181.02017214084481
 20
60.717956617399473
 30
0.0
 11
180.9788577293979
 21
60.712016501804207
 31
0.0
  0
ARC
  5
BD5
  8
0
 10
180.87785730257161
 20
61.707778059279519
 30
0.0
 40
1.0
 50
278.1818181818179
 51
98.181818181817818
  0
LINE
  5
BD6
  8
0
 10
179.50016893125311
 20
65.894612151376521
 30
0.0
 11
179.4622015677154
 21
65.87727303742912
 31
0.0
  0
LINE
  5
BD7
  8
0
 10
180.3309989572561
 20
64.075348160669137
 30
0.0
 11
180.2930315937183
 21
64.058009046721679
 31
0.0
  0
ARC
  5
BD8
  8
0
 10
179.91558394425459
 20
64.984980156022829
 30
0.0
 40
1.0
 50
294.54545454545479
 51
114.5454545454548
  0
LINE
  5
BD9
  8
0
 10
177.41413415830669
 20
68.614078381697311
 30
0.0
 11
177.38258973267139
 21
68.58674498129011
 31
0.0
  0
LINE
  5
BDA
  8
0
 10
178.7238556261961
 20
67.102579232990138
 30
0.0
 11
178.69231120056071
 21
67.075245832582851
 31
0.0
  0
ARC
  5
BDB
  8
0
 10
178.0689948922514
 20
67.858328807343725
 30
0.0
 40
1.0
 50
310.90909090909111
 51
130.90909090909099
  0
LINE
  5
BDC
  8
0
 10
174.6464362766369
 20
70.635683211429637
 30
0.0
 11
174.6238703306671
 21
70.600569914105606
 31
0.0
  0
LINE
  5
BDD
  8
0
 10
176.3289433422978
 20
69.554401576519439
 30
0.0
 11
176.30637739632789
 21
69.51928827919528
 31
0.0
  0
ARC
  5
BDE
  8
0
 10
175.48768980946741
 20
70.095042393974552
 30
0.0
 40
1.0
 50
327.2727272727272
 51
147.27272727272711
  0
LINE
  5
BDF
  8
0
 10
171.42129770848359
 20
71.795648240215542
 30
0.0
 11
171.4095384009168
 21
71.755599716497102
 31
0.0
  0
LINE
  5
BE0
  8
0
 10
173.34028365571089
 20
71.232183126533215
 30
0.0
 11
173.32852434814399
 21
71.192134602814605
 31
0.0
  0
ARC
  5
BE1
  8
0
 10
172.3807906820972
 20
71.513915683374364
 30
0.0
 40
1.0
 50
343.63636363636351
 51
163.63636363636351
  0
CIRCLE
  5
BE2
  8
0
 10
169.0
 20
60.0
 30
0.0
 40
5.0013131671777771
  0
POLYLINE
  5
BE3
  8
0
 66
     1
 10
0.0
 20
0.0
 30
0.0
  0
VERTEX
  5
BE4
  8
0
 10
97.899999999999807
 20
71.192134602814747
 30
0.0
 42
0.0669004313872827
  0
VERTEX
  5
BE5
  8
0
 10
98.298129219265775
 20
71.245644126697073
 30
0.0
 42
0.0793633770256028
  0
VERTEX
  5
BE6
  8
0
 10
98.607106781186346
 20
71.385704960440705
 30
0.0
 42
0.1071437047895626
 70
     2
 50
33.460338705205132
  0
VERTEX
  5
BE7
  8
0
 10
98.846889469698056
 20
71.631345996366903
 30
0.0
 42
0.1637949989581226
 50
33.460338705205132
  0
VERTEX
  5
BE8
  8
0
 10
98.899999999999807
 20
71.853025143094612
 30
0.0
 42
0.1408854874538012
  0
VERTEX
  5
BE9
  8
0
 10
98.831840368172436
 20
72.090121069538384
 30
0.0
 42
0.1071437047895118
  0
VERTEX
  5
BEA
  8
0
 10
98.607106781186303
 20
72.320345325748463
 30
0.0
 42
0.0793633770255481
 70
     2
 50
146.5396612947973
  0
VERTEX
  5
BEB
  8
0
 10
98.298129219265832
 20
72.460406159492095
 30
0.0
 42
0.0669004313872653
 50
146.5396612947973
  0
VERTEX
  5
BEC
  8
0
 10
97.899999999999764
 20
72.513915683374364
 30
0.0
 42
0.066900431387258
  0
SEQEND
  5
BED
  8
0
  0
POLYLINE
  5
BEE
  8
0
 66
     1
 10
0.0
 20
0.0
 30
0.0
  0
VERTEX
  5
BEF
  8
0
 10
97.899999999999807
 20
64.058009046721679
 30
0.0
 42
0.0952163432260962
  0
VERTEX
  5
BF0
  8
0
 10
98.284415162976813
 20
64.131884020664415
 30
0.0
 42
0.0970739481124141
  0
VERTEX
  5
BF1
  8
0
 10
98.607106781186303
 20
64.340207432103568
 30
0.0
 42
0.0998219286546509
 70
     2
 50
43.934607654468422
  0
VERTEX
  5
BF2
  8
0
 10
98.842915191891393
 20
64.681210407466409
 30
0.0
 42
0.1204853695876511
 50
43.934607654468422
  0
VERTEX
  5
BF3
  8
0
 10
98.89999999999975
 20
65.021494601372268
 30
0.0
 42
0.101855913339355
  0
VERTEX
  5
BF4
  8
0
 10
98.824459578462722
 20
65.388467491718274
 30
0.0
 42
0.0998219286545923
  0
VERTEX
  5
BF5
  8
0
 10
98.607106781186303
 20
65.702781770640954
 30
0.0
 42
0.0970739481123782
 70
     2
 50
136.06539234553151
  0
VERTEX
  5
BF6
  8
0
 10
98.28441516297687
 20
65.911105182080121
 30
0.0
 42
0.0952163432260542
 50
136.06539234553151
  0
VERTEX
  5
BF7
  8
0
 10
97.899999999999807
 20
65.984980156022829
 30
0.0
 42
0.0952163432260713
  0
SEQEND
  5
BF8
  8
0
  0
POLYLINE
  5
BF9
  8
0
 66
     1
 10
0.0
 20
0.0
 30
0.0
  0
VERTEX
  5
BFA
  8
0
 10
97.899999999999807
 20
67.075245832582894
 30
0.0
 42
0.0886697977179422
  0
VERTEX
  5
BFB
  8
0
 10
98.287800426404104
 20
67.144563199534872
 30
0.0
 42
0.093866275823185
  0
VERTEX
  5
BFC
  8
0
 10
98.607106781186303
 20
67.336372288527485
 30
0.0
 42
0.1022901095122429
 70
     2
 50
41.718328274389819
  0
VERTEX
  5
BFD
  8
0
 10
98.843425646297135
 20
67.654567604558963
 30
0.0
 42
0.1285391797684332
 50
41.718328274389819
  0
VERTEX
  5
BFE
  8
0
 10
98.89999999999975
 20
67.966787319963316
 30
0.0
 42
0.1091635129316081
  0
VERTEX
  5
BFF
  8
0
 10
98.825754432878185
 20
68.302800723340368
 30
0.0
 42
0.1022901095122636
  0
VERTEX
  5
C00
  8
0
 10
98.607106781186303
 20
68.597202351399133
 30
0.0
 42
0.0938662758231421
 70
     2
 50
138.28167172561021
  0
VERTEX
  5
C01
  8
0
 10
98.287800426404203
 20
68.789011440391732
 30
0.0
 42
0.0886697977178873
 50
138.28167172561021
  0
VERTEX
  5
C02
  8
0
 10
97.899999999999807
 20
68.858328807342389
 30
0.0
 42
0.0886697977179307
  0
SEQEND
  5
C03
  8
0
  0
POLYLINE
  5
C04
  8
0
 66
     1
 10
0.0
 20
0.0
 30
0.0
  0
VERTEX
  5
C05
  8
0
 10
97.899999999999807
 20
69.519288279195337
 30
0.0
 42
0.0790268670844965
  0
VERTEX
  5
C06
  8
0
 10
98.292572062987702
 20
69.581725696695486
 30
0.0
 42
0.0881908777093831
  0
VERTEX
  5
C07
  8
0
 10
98.607106781186346
 20
69.750052126563446
 30
0.0
 42
0.1052534176826681
 70
     2
 50
38.233764002295132
  0
VERTEX
  5
C08
  8
0
 10
98.844562406237984
 20
70.035568294216574
 30
0.0
 42
0.142284125671063
 50
38.233764002295132
  0
VERTEX
  5
C09
  8
0
 10
98.899999999999807
 20
70.307165336584944
 30
0.0
 42
0.121599590368167
  0
VERTEX
  5
C0A
  8
0
 10
98.828057710399605
 20
70.598607592150614
 30
0.0
 42
0.1052534176826778
  0
VERTEX
  5
C0B
  8
0
 10
98.607106781186346
 20
70.864278546606442
 30
0.0
 42
0.0881908777094005
 70
     2
 50
141.76623599770491
  0
VERTEX
  5
C0C
  8
0
 10
98.292572062987702
 20
71.032604976474374
 30
0.0
 42
0.0790268670844963
 50
141.76623599770491
  0
VERTEX
  5
C0D
  8
0
 10
97.899999999999807
 20
71.095042393974552
 30
0.0
 42
0.0790268670844787
  0
SEQEND
  5
C0E
  8
0
  0
POLYLINE
  5
C0F
  8
0
 66
     1
 10
0.0
 20
0.0
 30
0.0
  0
VERTEX
  5
C10
  8
0
 10
97.899999999999807
 20
60.712016501804271
 30
0.0
 42
0.098302216645778
  0
VERTEX
  5
C11
  8
0
 10
98.282784109109059
 20
60.788007884133947
 30
0.0
 42
0.0984128381818726
  0
VERTEX
  5
C12
  8
0
 10
98.607106781186303
 20
61.004289015080808
 30
0.0
 42
0.0985696857141959
 70
     2
 50
44.939224407212613
  0
VERTEX
  5
C13
  8
0
 10
98.842733176883655
 20
61.35623839000661
 30
0.0
 42
0.1169875491068659
 50
44.939224407212613
  0
VERTEX
  5
C14
  8
0
 10
98.89999999999975
 20
61.709897280541888
 30
0.0
 42
0.098680881080023
  0
VERTEX
  5
C15
  8
0
 10
98.823911915867996
 20
62.091669027576948
 30
0.0
 42
0.0985696857141574
  0
VERTEX
  5
C16
  8
0
 10
98.607106781186303
 20
62.415505546002983
 30
0.0
 42
0.0984128381818828
 70
     2
 50
135.06077559278739
  0
VERTEX
  5
C17
  8
0
 10
98.282784109109059
 20
62.631786676949808
 30
0.0
 42
0.0983022166457899
 50
135.06077559278739
  0
VERTEX
  5
C18
  8
0
 10
97.899999999999807
 20
62.707778059279519
 30
0.0
 42
0.0983022166457671
  0
SEQEND
  5
C19
  8
0
  0
ARC
  5
C1A
  8
0
 10
97.899999999999807
 20
71.999999999999091
 30
0.0
 40
1.0
 50
0.0000000000455964
 51
90.0
  0
LINE
  5
C1B
  8
0
 10
90.850776405003487
 20
48.000000000000107
 30
0.0
 11
90.850776405003487
 21
71.999999999999886
 31
0.0
  0
LINE
  5
C1C
  8
0
 10
98.875113955572658
 20
71.999999999999886
 30
0.0
 11
99.399999999999764
 21
71.999999999999886
 31
0.0
  0
LINE
  5
C1D
  8
0
 10
91.850275029037064
 20
72.513915683374364
 30
0.0
 11
97.899999999999764
 21
72.513915683374364
 31
0.0
  0
LINE
  5
C1E
  8
0
 10
90.850776405003487
 20
71.192134602814747
 30
0.0
 11
97.899999999999807
 21
71.192134602814747
 31
0.0
  0
LINE
  5
C1F
  8
0
 10
91.844469611167327
 20
71.095042393974552
 30
0.0
 11
97.899999999999807
 21
71.095042393974552
 31
0.0
  0
LINE
  5
C20
  8
0
 10
91.821665758782501
 20
68.858328807343725
 30
0.0
 11
97.899999999999807
 21
68.858328807343725
 31
0.0
  0
LINE
  5
C21
  8
0
 10
90.850776405003487
 20
69.519288279195337
 30
0.0
 11
97.899999999999807
 21
69.519288279195337
 31
0.0
  0
LINE
  5
C22
  8
0
 10
90.850776405003487
 20
67.075245832582894
 30
0.0
 11
97.899999999999807
 21
67.075245832582894
 31
0.0
  0
LINE
  5
C23
  8
0
 10
91.752685925496451
 20
65.984980156022829
 30
0.0
 11
97.899999999999807
 21
65.984980156022829
 31
0.0
  0
LINE
  5
C24
  8
0
 10
90.850776405003487
 20
64.058009046721679
 30
0.0
 11
97.899999999999807
 21
64.058009046721679
 31
0.0
  0
LINE
  5
C25
  8
0
 10
90.850776405003487
 20
62.707778059279519
 30
0.0
 11
97.899999999999807
 21
62.707778059279519
 31
0.0
  0
LINE
  5
C26
  8
0
 10
90.850776405003487
 20
60.712016501804271
 30
0.0
 11
97.899999999999807
 21
60.712016501804271
 31
0.0
  0
LINE
  5
C27
  8
0
 10
91.850776405003515
 20
72.999999999999062
 30
0.0
 11
97.899999999999807
 21
72.999999999999091
 31
0.0
  0
LINE
  5
C28
  8
0
 10
104.9499999999997
 20
69.5
 30
0.0
 11
104.9499999999997
 21
50.500000000000028
 31
0.0
  0
LINE
  5
C29
  8
0
 10
105.6999999999997
 20
68.75
 30
0.0
 11
105.6999999999997
 21
51.250000000000078
 31
0.0
  0
LINE
  5
C2A
  8
0
 10
99.999999999999716
 20
48.600000000000101
 30
0.0
 11
99.999999999999716
 21
71.399999999999892
 31
0.0
  0
LINE
  5
C2B
  8
0
 10
89.750776405003535
 20
71.999999999999886
 30
0.0
 11
90.850776405003487
 21
71.999999999999886
 31
0.0
  0
ARC
  5
C2C
  8
0
 10
99.399999999999764
 20
71.399999999999892
 30
0.0
 40
0.6
 50
0.0
 51
90.0
  0
LINE
  5
C2D
  8
0
 10
104.9499999999997
 20
69.5
 30
0.0
 11
99.999999999999716
 21
69.5
 31
0.0
  0
LINE
  5
C2E
  8
0
 10
105.6999999999997
 20
68.75
 30
0.0
 11
104.9499999999997
 21
69.5
 31
0.0
  0
LINE
  5
C2F
  8
0
 10
89.750776405003592
 20
48.000000000000107
 30
0.0
 11
89.750776405003592
 21
71.999999999999886
 31
0.0
  0
ARC
  5
C30
  8
0
 10
129.99999999999969
 20
60.0
 30
0.0
 40
42.0
 50
163.3984504009801
 51
196.60154959901979
  0
LINE
  5
C31
  8
0
 10
105.6999999999997
 20
51.25
 30
0.0
 11
104.9499999999997
 21
50.5
 31
0.0
  0
LINE
  5
C32
  8
0
 10
104.9499999999997
 20
50.5
 30
0.0
 11
99.999999999999716
 21
50.5
 31
0.0
  0
ARC
  5
C33
  8
0
 10
99.399999999999764
 20
48.600000000000101
 30
0.0
 40
0.6
 50
270.0
 51
0.0
  0
LINE
  5
C34
  8
0
 10
90.850776405003487
 20
71.999999999999844
 30
0.0
 11
91.850776405003515
 21
72.999999999999062
 31
0.0
  0
POLYLINE
  5
C35
  8
0
 66
     1
 10
0.0
 20
0.0
 30
0.0
  0
VERTEX
  5
C36
  8
0
 10
91.850776405003515
 20
61.85009289755282
 30
0.0
 42
0.1129541415555506
  0
VERTEX
  5
C37
  8
0
 10
91.777220230808439
 20
62.171540595657568
 30
0.0
 42
0.1033526290475138
  0
VERTEX
  5
C38
  8
0
 10
91.557883186190054
 20
62.45656789153287
 30
0.0
 42
0.0921549158927182
 70
     2
 50
139.3807981960291
  0
VERTEX
  5
C39
  8
0
 10
91.240152044952694
 20
62.640666993023608
 30
0.0
 42
0.0855471168292982
 50
139.3807981960291
  0
VERTEX
  5
C3A
  8
0
 10
90.850776405003487
 20
62.707778059279519
 30
0.0
 42
0.085547116829313
  0
SEQEND
  5
C3B
  8
0
  0
POLYLINE
  5
C3C
  8
0
 66
     1
 10
0.0
 20
0.0
 30
0.0
  0
VERTEX
  5
C3D
  8
0
 10
90.850776405003487
 20
60.712016501804243
 30
0.0
 42
0.1105754961288046
  0
VERTEX
  5
C3E
  8
0
 10
91.226885222158145
 20
60.796222926850483
 30
0.0
 42
0.1027028081787415
  0
VERTEX
  5
C3F
  8
0
 10
91.557883186189315
 20
61.045351360610653
 30
0.0
 42
0.0932316611711039
 70
     2
 50
48.695014917496898
  0
VERTEX
  5
C40
  8
0
 10
91.793075198525415
 20
61.442213407496801
 30
0.0
 42
0.1046406765660069
 50
48.695014917496891
  0
VERTEX
  5
C41
  8
0
 10
91.850776405002478
 20
61.85009289755282
 30
0.0
 42
0.087486245711695
  0
SEQEND
  5
C42
  8
0
  0
POLYLINE
  5
C43
  8
0
 66
     1
 10
0.0
 20
0.0
 30
0.0
  0
VERTEX
  5
C44
  8
0
 10
90.850776405003487
 20
64.058009046721679
 30
0.0
 42
0.1275511589696932
  0
VERTEX
  5
C45
  8
0
 10
91.217276431148363
 20
64.153050307525092
 30
0.0
 42
0.1061651039332924
  0
VERTEX
  5
C46
  8
0
 10
91.557883186190054
 20
64.451184838973518
 30
0.0
 42
0.085447083255488
 70
     2
 50
53.316020995599331
  0
VERTEX
  5
C47
  8
0
 10
91.793002107378584
 20
64.914305154509151
 30
0.0
 42
0.0907458243245316
 50
53.316020995599331
  0
VERTEX
  5
C48
  8
0
 10
91.850776405003515
 20
65.400395169024705
 30
0.0
 42
0.0749639709484273
  0
VERTEX
  5
C49
  8
0
 10
91.770931359887115
 20
65.929958552211133
 30
0.0
 42
0.0104494272863164
  0
VERTEX
  5
C4A
  8
0
 10
91.752685925497701
 20
65.984980156022829
 30
0.0
 42
0.1061651039332807
 70
     2
 50
126.6839790044006
  0
SEQEND
  5
C4B
  8
0
  0
POLYLINE
  5
C4C
  8
0
 66
     1
 10
0.0
 20
0.0
 30
0.0
  0
VERTEX
  5
C4D
  8
0
 10
90.850776405003487
 20
67.075245832582894
 30
0.0
 42
0.1351106484703338
  0
VERTEX
  5
C4E
  8
0
 10
91.212900095189809
 20
67.174918886160924
 30
0.0
 42
0.1068916963646837
  0
VERTEX
  5
C4F
  8
0
 10
91.557883186190054
 20
67.496409793898408
 30
0.0
 42
0.0819805859993646
 70
     2
 50
55.183799812925713
  0
VERTEX
  5
C50
  8
0
 10
91.793094193899094
 20
67.99080780069994
 30
0.0
 42
0.0854524044576932
 50
55.183799812925713
  0
VERTEX
  5
C51
  8
0
 10
91.850776405003515
 20
68.513189541289023
 30
0.0
 42
0.0420975806111537
  0
VERTEX
  5
C52
  8
0
 10
91.821665758783354
 20
68.858328807343725
 30
0.0
 42
0.0819805859993421
  0
SEQEND
  5
C53
  8
0
  0
POLYLINE
  5
C54
  8
0
 66
     1
 10
0.0
 20
0.0
 30
0.0
  0
VERTEX
  5
C55
  8
0
 10
90.850776405003487
 20
69.519288279195337
 30
0.0
 42
0.1334752893439902
  0
VERTEX
  5
C56
  8
0
 10
91.213850734893867
 20
69.617969247542845
 30
0.0
 42
0.1067736914636536
  0
VERTEX
  5
C57
  8
0
 10
91.557883186190054
 20
69.934320210187252
 30
0.0
 42
0.0827273099433823
 70
     2
 50
54.78890320465932
  0
VERTEX
  5
C58
  8
0
 10
91.793069508709777
 20
70.421851400968563
 30
0.0
 42
0.0865581525971125
 50
54.788903204659327
  0
VERTEX
  5
C59
  8
0
 10
91.850776405003515
 20
70.936295926805712
 30
0.0
 42
0.0198565275003651
  0
VERTEX
  5
C5A
  8
0
 10
91.844469611166858
 20
71.095042393974552
 30
0.0
 42
0.0827273099433435
  0
SEQEND
  5
C5B
  8
0
  0
POLYLINE
  5
C5C
  8
0
 66
     1
 10
0.0
 20
0.0
 30
0.0
  0
VERTEX
  5
C5D
  8
0
 10
90.850776405003487
 20
71.192134602814747
 30
0.0
 42
0.1225889545330474
  0
VERTEX
  5
C5E
  8
0
 10
91.220120720911424
 20
71.284071299349932
 30
0.0
 42
0.1054266529349266
  0
VERTEX
  5
C5F
  8
0
 10
91.557883186190054
 20
71.567411084723972
 30
0.0
 42
0.0877347373077107
 70
     2
 50
52.02891796281402
  0
VERTEX
  5
C60
  8
0
 10
91.792977002891817
 20
72.010619535212072
 30
0.0
 42
0.0944935069643078
 50
52.02891796281402
  0
VERTEX
  5
C61
  8
0
 10
91.850776405003515
 20
72.473408656988852
 30
0.0
 42
0.0061885160387669
  0
VERTEX
  5
C62
  8
0
 10
91.850275029036695
 20
72.513915683374364
 30
0.0
 42
0.0877347373077204
  0
SEQEND
  5
C63
  8
0
  0
POLYLINE
  5
C64
  8
0
 66
     1
 10
0.0
 20
0.0
 30
0.0
  0
VERTEX
  5
C65
  8
0
 10
91.752685925496451
 20
65.984980156022829
 30
0.0
 42
0.0123570276110295
  0
VERTEX
  5
C66
  8
0
 10
91.379651388788204
 20
65.975759551932299
 30
0.0
 42
0.0173599211009302
  0
VERTEX
  5
C67
  8
0
 10
91.114939587539141
 20
65.953433471368811
 30
0.0
 42
0.0404815745712817
 70
     2
 50
186.8100792311717
  0
VERTEX
  5
C68
  8
0
 10
90.870902389122477
 20
65.904021267267808
 30
0.0
 50
186.8100792311717
  0
VERTEX
  5
C69
  8
0
 10
90.850776405003487
 20
65.877273037429177
 30
0.0
  0
SEQEND
  5
C6A
  8
0
  0
POLYLINE
  5
C6B
  8
0
 66
     1
 10
0.0
 20
0.0
 30
0.0
  0
VERTEX
  5
C6C
  8
0
 10
91.821665758783411
 20
68.858328807343753
 30
0.0
 42
0.0288460688622872
  0
VERTEX
  5
C6D
  8
0
 10
91.422671713265174
 20
68.835290818106898
 30
0.0
 42
0.0393711015747251
  0
VERTEX
  5
C6E
  8
0
 10
91.135143312943796
 20
68.778783746353213
 30
0.0
 42
0.0804766448016345
 70
     2
 50
195.627733167304
  0
VERTEX
  5
C6F
  8
0
 10
90.893377128760051
 20
68.666919223315816
 30
0.0
 42
0.249179894909732
 50
195.627733167304
  0
VERTEX
  5
C70
  8
0
 10
90.850776405003487
 20
68.586744981290053
 30
0.0
 42
0.2491798949097354
  0
SEQEND
  5
C71
  8
0
  0
POLYLINE
  5
C72
  8
0
 66
     1
 10
0.0
 20
0.0
 30
0.0
  0
VERTEX
  5
C73
  8
0
 10
91.844469611167327
 20
71.095042393974552
 30
0.0
 42
0.0508614025396146
  0
VERTEX
  5
C74
  8
0
 10
91.442504636351202
 20
71.054047339813962
 30
0.0
 42
0.0647060737211076
  0
VERTEX
  5
C75
  8
0
 10
91.14182240666986
 20
70.950214757731075
 30
0.0
 42
0.1040915032216622
 70
     2
 50
206.4554340875504
  0
VERTEX
  5
C76
  8
0
 10
90.911305624334815
 20
70.767897941198612
 30
0.0
 42
0.1753110843376959
 50
206.4554340875504
  0
VERTEX
  5
C77
  8
0
 10
90.850776405003444
 20
70.600569914105733
 30
0.0
 42
0.1753110843376926
  0
SEQEND
  5
C78
  8
0
  0
POLYLINE
  5
C79
  8
0
 66
     1
 10
0.0
 20
0.0
 30
0.0
  0
VERTEX
  5
C7A
  8
0
 10
91.850275029037064
 20
72.513915683374364
 30
0.0
 42
0.0762697733728009
  0
VERTEX
  5
C7B
  8
0
 10
91.456589948170063
 20
72.453511765255286
 30
0.0
 42
0.0863521769977534
  0
VERTEX
  5
C7C
  8
0
 10
91.143522774196299
 20
72.291810078958065
 30
0.0
 42
0.1058984519010266
 70
     2
 50
217.187458189995
  0
VERTEX
  5
C7D
  8
0
 10
90.905757338480896
 20
72.015602055675274
 30
0.0
 42
0.1467084770758266
 50
217.187458189995
  0
VERTEX
  5
C7E
  8
0
 10
90.85077640500765
 20
71.755599716496931
 30
0.0
 42
0.1255870348412077
  0
SEQEND
  5
C7F
  8
0
  0
POLYLINE
  5
C80
  8
0
 66
     1
 10
0.0
 20
0.0
 30
0.0
  0
VERTEX
  5
C81
  8
0
 10
90.850776405003444
 20
71.958260743101533
 30
0.0
 42
0.0074802436643722
  0
VERTEX
  5
C82
  8
0
 10
90.879522415530403
 20
71.958690821492382
 30
0.0
 42
0.0999490626455953
  0
SEQEND
  5
C83
  8
0
  0
POLYLINE
  5
C84
  8
0
 66
     1
 10
0.0
 20
0.0
 30
0.0
  0
VERTEX
  5
C85
  8
0
 10
91.737119927667493
 20
72.509031201107632
 30
0.0
 42
0.0293265377833063
 70
     2
 50
46.171133967963179
  0
VERTEX
  5
C86
  8
0
 10
91.793325744937249
 20
72.629327881060362
 30
0.0
 42
0.1128168172210416
 50
46.171133967963193
  0
VERTEX
  5
C87
  8
0
 10
91.850776405002705
 20
72.999999999999034
 30
0.0
 42
0.0948959869432876
  0
SEQEND
  5
C88
  8
0
  0
POLYLINE
  5
C89
  8
0
 66
     1
 10
0.0
 20
0.0
 30
0.0
  0
VERTEX
  5
C8A
  8
0
 10
91.737119927667493
 20
47.490968798892361
 30
0.0
 42
-0.0293265377833063
 70
     2
 50
313.82886603203679
  0
VERTEX
  5
C8B
  8
0
 10
91.793325744937249
 20
47.370672118939638
 30
0.0
 42
-0.1128168172210416
  0
VERTEX
  5
C8C
  8
0
 10
91.850776405002705
 20
47.000000000000959
 30
0.0
 42
-0.0948959869432876
  0
SEQEND
  5
C8D
  8
0
  0
POLYLINE
  5
C8E
  8
0
 66
     1
 10
0.0
 20
0.0
 30
0.0
  0
VERTEX
  5
C8F
  8
0
 10
90.850776405003444
 20
48.041739256898488
 30
0.0
 42
-0.0074802436643722
  0
VERTEX
  5
C90
  8
0
 10
90.879522415530403
 20
48.041309178507618
 30
0.0
 42
-0.0999490626455953
  0
SEQEND
  5
C91
  8
0
  0
POLYLINE
  5
C92
  8
0
 66
     1
 10
0.0
 20
0.0
 30
0.0
  0
VERTEX
  5
C93
  8
0
 10
91.850275029037064
 20
47.486084316625629
 30
0.0
 42
-0.0762697733728009
  0
VERTEX
  5
C94
  8
0
 10
91.456589948170063
 20
47.546488234744743
 30
0.0
 42
-0.0863521769977534
  0
VERTEX
  5
C95
  8
0
 10
91.143522774196299
 20
47.708189921041992
 30
0.0
 42
-0.1058984519010266
 70
     2
 50
142.812541810005
  0
VERTEX
  5
C96
  8
0
 10
90.905757338480896
 20
47.984397944324741
 30
0.0
 42
-0.1467084770758266
  0
VERTEX
  5
C97
  8
0
 10
90.85077640500765
 20
48.244400283503069
 30
0.0
 42
-0.1255870348412077
  0
SEQEND
  5
C98
  8
0
  0
POLYLINE
  5
C99
  8
0
 66
     1
 10
0.0
 20
0.0
 30
0.0
  0
VERTEX
  5
C9A
  8
0
 10
91.844469611167327
 20
48.904957606025469
 30
0.0
 42
-0.0508614025396146
  0
VERTEX
  5
C9B
  8
0
 10
91.442504636351202
 20
48.945952660186059
 30
0.0
 42
-0.0647060737211076
  0
VERTEX
  5
C9C
  8
0
 10
91.14182240666986
 20
49.049785242268911
 30
0.0
 42
-0.1040915032216622
 70
     2
 50
153.5445659124496
  0
VERTEX
  5
C9D
  8
0
 10
90.911305624334815
 20
49.232102058801452
 30
0.0
 42
-0.1753110843376959
  0
VERTEX
  5
C9E
  8
0
 10
90.850776405003444
 20
49.399430085894302
 30
0.0
 42
-0.1753110843376926
  0
SEQEND
  5
C9F
  8
0
  0
POLYLINE
  5
CA0
  8
0
 66
     1
 10
0.0
 20
0.0
 30
0.0
  0
VERTEX
  5
CA1
  8
0
 10
91.821665758783411
 20
51.141671192656297
 30
0.0
 42
-0.0288460688622872
  0
VERTEX
  5
CA2
  8
0
 10
91.422671713265174
 20
51.164709181893159
 30
0.0
 42
-0.0393711015747251
  0
VERTEX
  5
CA3
  8
0
 10
91.135143312943796
 20
51.221216253646837
 30
0.0
 42
-0.0804766448016345
 70
     2
 50
164.372266832696
  0
VERTEX
  5
CA4
  8
0
 10
90.893377128760051
 20
51.333080776684199
 30
0.0
 42
-0.249179894909732
  0
VERTEX
  5
CA5
  8
0
 10
90.850776405003487
 20
51.41325501870994
 30
0.0
 42
-0.2491798949097354
  0
SEQEND
  5
CA6
  8
0
  0
POLYLINE
  5
CA7
  8
0
 66
     1
 10
0.0
 20
0.0
 30
0.0
  0
VERTEX
  5
CA8
  8
0
 10
91.752685925496451
 20
54.0150198439772
 30
0.0
 42
-0.0123570276110295
  0
VERTEX
  5
CA9
  8
0
 10
91.379651388788204
 20
54.024240448067701
 30
0.0
 42
-0.0173599211009302
  0
VERTEX
  5
CAA
  8
0
 10
91.114939587539141
 20
54.04656652863121
 30
0.0
 42
-0.0404815745712817
 70
     2
 50
173.1899207688283
  0
VERTEX
  5
CAB
  8
0
 10
90.870902389122477
 20
54.09597873273222
 30
0.0
  0
VERTEX
  5
CAC
  8
0
 10
90.850776405003487
 20
54.122726962570852
 30
0.0
  0
SEQEND
  5
CAD
  8
0
  0
POLYLINE
  5
CAE
  8
0
 66
     1
 10
0.0
 20
0.0
 30
0.0
  0
VERTEX
  5
CAF
  8
0
 10
90.850776405003487
 20
48.807865397185253
 30
0.0
 42
-0.1225889545330474
  0
VERTEX
  5
CB0
  8
0
 10
91.220120720911424
 20
48.715928700650089
 30
0.0
 42
-0.1054266529349266
  0
VERTEX
  5
CB1
  8
0
 10
91.557883186190054
 20
48.432588915276028
 30
0.0
 42
-0.0877347373077107
 70
     2
 50
307.97108203718602
  0
VERTEX
  5
CB2
  8
0
 10
91.792977002891817
 20
47.989380464787949
 30
0.0
 42
-0.0944935069643078
  0
VERTEX
  5
CB3
  8
0
 10
91.850776405003515
 20
47.526591343011141
 30
0.0
 42
-0.0061885160387669
  0
VERTEX
  5
CB4
  8
0
 10
91.850275029036695
 20
47.486084316625629
 30
0.0
 42
-0.0877347373077204
  0
SEQEND
  5
CB5
  8
0
  0
POLYLINE
  5
CB6
  8
0
 66
     1
 10
0.0
 20
0.0
 30
0.0
  0
VERTEX
  5
CB7
  8
0
 10
90.850776405003487
 20
50.480711720804663
 30
0.0
 42
-0.1334752893439902
  0
VERTEX
  5
CB8
  8
0
 10
91.213850734893867
 20
50.382030752457183
 30
0.0
 42
-0.1067736914636536
  0
VERTEX
  5
CB9
  8
0
 10
91.557883186190054
 20
50.065679789812798
 30
0.0
 42
-0.0827273099433823
 70
     2
 50
305.21109679534072
  0
VERTEX
  5
CBA
  8
0
 10
91.793069508709777
 20
49.578148599031458
 30
0.0
 42
-0.0865581525971125
  0
VERTEX
  5
CBB
  8
0
 10
91.850776405003515
 20
49.06370407319428
 30
0.0
 42
-0.0198565275003651
  0
VERTEX
  5
CBC
  8
0
 10
91.844469611166858
 20
48.904957606025469
 30
0.0
 42
-0.0827273099433435
  0
SEQEND
  5
CBD
  8
0
  0
POLYLINE
  5
CBE
  8
0
 66
     1
 10
0.0
 20
0.0
 30
0.0
  0
VERTEX
  5
CBF
  8
0
 10
90.850776405003487
 20
52.92475416741712
 30
0.0
 42
-0.1351106484703338
  0
VERTEX
  5
CC0
  8
0
 10
91.212900095189809
 20
52.825081113839133
 30
0.0
 42
-0.1068916963646837
  0
VERTEX
  5
CC1
  8
0
 10
91.557883186190054
 20
52.50359020610162
 30
0.0
 42
-0.0819805859993646
 70
     2
 50
304.8162001870744
  0
VERTEX
  5
CC2
  8
0
 10
91.793094193899094
 20
52.009192199300088
 30
0.0
 42
-0.0854524044576932
  0
VERTEX
  5
CC3
  8
0
 10
91.850776405003515
 20
51.48681045871097
 30
0.0
 42
-0.0420975806111537
  0
VERTEX
  5
CC4
  8
0
 10
91.821665758783354
 20
51.141671192656297
 30
0.0
 42
-0.0819805859993421
  0
SEQEND
  5
CC5
  8
0
  0
POLYLINE
  5
CC6
  8
0
 66
     1
 10
0.0
 20
0.0
 30
0.0
  0
VERTEX
  5
CC7
  8
0
 10
90.850776405003487
 20
55.941990953278321
 30
0.0
 42
-0.1275511589696932
  0
VERTEX
  5
CC8
  8
0
 10
91.217276431148363
 20
55.846949692474929
 30
0.0
 42
-0.1061651039332924
  0
VERTEX
  5
CC9
  8
0
 10
91.557883186190054
 20
55.548815161026482
 30
0.0
 42
-0.085447083255488
 70
     2
 50
306.68397900440073
  0
VERTEX
  5
CCA
  8
0
 10
91.793002107378584
 20
55.085694845490877
 30
0.0
 42
-0.0907458243245316
  0
VERTEX
  5
CCB
  8
0
 10
91.850776405003515
 20
54.599604830975323
 30
0.0
 42
-0.0749639709484273
  0
VERTEX
  5
CCC
  8
0
 10
91.770931359887115
 20
54.070041447788888
 30
0.0
 42
-0.0104494272863164
  0
VERTEX
  5
CCD
  8
0
 10
91.752685925497701
 20
54.0150198439772
 30
0.0
 42
-0.1061651039332807
 70
     2
 50
233.3160209955993
  0
SEQEND
  5
CCE
  8
0
  0
POLYLINE
  5
CCF
  8
0
 66
     1
 10
0.0
 20
0.0
 30
0.0
  0
VERTEX
  5
CD0
  8
0
 10
90.850776405003487
 20
59.287983498195793
 30
0.0
 42
-0.1105754961288046
  0
VERTEX
  5
CD1
  8
0
 10
91.226885222158145
 20
59.203777073149553
 30
0.0
 42
-0.1027028081787415
  0
VERTEX
  5
CD2
  8
0
 10
91.557883186189315
 20
58.954648639389369
 30
0.0
 42
-0.0932316611711039
 70
     2
 50
311.30498508250309
  0
VERTEX
  5
CD3
  8
0
 10
91.793075198525415
 20
58.557786592503248
 30
0.0
 42
-0.1046406765660069
  0
VERTEX
  5
CD4
  8
0
 10
91.850776405002478
 20
58.149907102447202
 30
0.0
 42
-0.087486245711695
  0
SEQEND
  5
CD5
  8
0
  0
POLYLINE
  5
CD6
  8
0
 66
     1
 10
0.0
 20
0.0
 30
0.0
  0
VERTEX
  5
CD7
  8
0
 10
91.850776405003515
 20
58.149907102447202
 30
0.0
 42
-0.1129541415555506
  0
VERTEX
  5
CD8
  8
0
 10
91.777220230808439
 20
57.82845940434246
 30
0.0
 42
-0.1033526290475138
  0
VERTEX
  5
CD9
  8
0
 10
91.557883186190054
 20
57.543432108467186
 30
0.0
 42
-0.0921549158927182
 70
     2
 50
220.61920180397081
  0
VERTEX
  5
CDA
  8
0
 10
91.240152044952694
 20
57.359333006976378
 30
0.0
 42
-0.0855471168292982
  0
VERTEX
  5
CDB
  8
0
 10
90.850776405003487
 20
57.292221940720502
 30
0.0
 42
-0.085547116829313
  0
SEQEND
  5
CDC
  8
0
  0
LINE
  5
CDD
  8
0
 10
90.850776405003487
 20
48.000000000000171
 30
0.0
 11
91.850776405003515
 21
47.000000000000959
 31
0.0
  0
LINE
  5
CDE
  8
0
 10
89.750776405003535
 20
48.000000000000142
 30
0.0
 11
90.850776405003487
 21
48.000000000000171
 31
0.0
  0
LINE
  5
CDF
  8
0
 10
91.850776405003515
 20
47.000000000000959
 30
0.0
 11
97.899999999999807
 21
47.000000000000959
 31
0.0
  0
LINE
  5
CE0
  8
0
 10
90.850776405003487
 20
59.287983498195757
 30
0.0
 11
97.899999999999807
 21
59.287983498195793
 31
0.0
  0
LINE
  5
CE1
  8
0
 10
90.850776405003487
 20
57.292221940720502
 30
0.0
 11
97.899999999999807
 21
57.292221940720502
 31
0.0
  0
LINE
  5
CE2
  8
0
 10
90.850776405003487
 20
55.941990953278349
 30
0.0
 11
97.899999999999807
 21
55.941990953278321
 31
0.0
  0
LINE
  5
CE3
  8
0
 10
91.752685925496451
 20
54.0150198439772
 30
0.0
 11
97.899999999999807
 21
54.0150198439772
 31
0.0
  0
LINE
  5
CE4
  8
0
 10
90.850776405003487
 20
52.92475416741712
 30
0.0
 11
97.899999999999807
 21
52.92475416741712
 31
0.0
  0
LINE
  5
CE5
  8
0
 10
90.850776405003487
 20
50.480711720804692
 30
0.0
 11
97.899999999999807
 21
50.480711720804692
 31
0.0
  0
LINE
  5
CE6
  8
0
 10
91.821665758782501
 20
51.141671192656297
 30
0.0
 11
97.899999999999807
 21
51.141671192656297
 31
0.0
  0
LINE
  5
CE7
  8
0
 10
91.844469611167327
 20
48.904957606025469
 30
0.0
 11
97.899999999999807
 21
48.904957606025512
 31
0.0
  0
LINE
  5
CE8
  8
0
 10
90.850776405003487
 20
48.807865397185253
 30
0.0
 11
97.899999999999807
 21
48.807865397185253
 31
0.0
  0
LINE
  5
CE9
  8
0
 10
91.850275029037064
 20
47.486084316625629
 30
0.0
 11
97.899999999999764
 21
47.486084316625629
 31
0.0
  0
LINE
  5
CEA
  8
0
 10
98.875113955572658
 20
48.000000000000142
 30
0.0
 11
99.399999999999764
 21
48.000000000000142
 31
0.0
  0
ARC
  5
CEB
  8
0
 10
97.899999999999807
 20
48.000000000000959
 30
0.0
 40
1.0
 50
270.0
 51
359.99999999995282
  0
POLYLINE
  5
CEC
  8
0
 66
     1
 10
0.0
 20
0.0
 30
0.0
  0
VERTEX
  5
CED
  8
0
 10
97.899999999999807
 20
59.287983498195793
 30
0.0
 42
-0.098302216645778
  0
VERTEX
  5
CEE
  8
0
 10
98.282784109109059
 20
59.211992115866082
 30
0.0
 42
-0.0984128381818726
  0
VERTEX
  5
CEF
  8
0
 10
98.607106781186303
 20
58.995710984919242
 30
0.0
 42
-0.0985696857141959
 70
     2
 50
315.06077559278742
  0
VERTEX
  5
CF0
  8
0
 10
98.842733176883655
 20
58.643761609993412
 30
0.0
 42
-0.1169875491068659
  0
VERTEX
  5
CF1
  8
0
 10
98.89999999999975
 20
58.290102719458133
 30
0.0
 42
-0.098680881080023
  0
VERTEX
  5
CF2
  8
0
 10
98.823911915867996
 20
57.908330972423073
 30
0.0
 42
-0.0985696857141574
  0
VERTEX
  5
CF3
  8
0
 10
98.607106781186303
 20
57.584494453997017
 30
0.0
 42
-0.0984128381818828
 70
     2
 50
224.93922440721269
  0
VERTEX
  5
CF4
  8
0
 10
98.282784109109059
 20
57.368213323050213
 30
0.0
 42
-0.0983022166457899
  0
VERTEX
  5
CF5
  8
0
 10
97.899999999999807
 20
57.292221940720502
 30
0.0
 42
-0.0983022166457671
  0
SEQEND
  5
CF6
  8
0
  0
POLYLINE
  5
CF7
  8
0
 66
     1
 10
0.0
 20
0.0
 30
0.0
  0
VERTEX
  5
CF8
  8
0
 10
97.899999999999807
 20
50.480711720804692
 30
0.0
 42
-0.0790268670844965
  0
VERTEX
  5
CF9
  8
0
 10
98.292572062987702
 20
50.418274303304543
 30
0.0
 42
-0.0881908777093831
  0
VERTEX
  5
CFA
  8
0
 10
98.607106781186346
 20
50.249947873436582
 30
0.0
 42
-0.1052534176826681
 70
     2
 50
321.76623599770488
  0
VERTEX
  5
CFB
  8
0
 10
98.844562406237984
 20
49.964431705783447
 30
0.0
 42
-0.142284125671063
  0
VERTEX
  5
CFC
  8
0
 10
98.899999999999807
 20
49.692834663415077
 30
0.0
 42
-0.121599590368167
  0
VERTEX
  5
CFD
  8
0
 10
98.828057710399605
 20
49.401392407849407
 30
0.0
 42
-0.1052534176826778
  0
VERTEX
  5
CFE
  8
0
 10
98.607106781186346
 20
49.135721453393579
 30
0.0
 42
-0.0881908777094005
 70
     2
 50
218.23376400229509
  0
VERTEX
  5
CFF
  8
0
 10
98.292572062987702
 20
48.967395023525633
 30
0.0
 42
-0.0790268670844963
  0
VERTEX
  5
D00
  8
0
 10
97.899999999999807
 20
48.904957606025512
 30
0.0
 42
-0.0790268670844787
  0
SEQEND
  5
D01
  8
0
  0
POLYLINE
  5
D02
  8
0
 66
     1
 10
0.0
 20
0.0
 30
0.0
  0
VERTEX
  5
D03
  8
0
 10
97.899999999999807
 20
52.92475416741712
 30
0.0
 42
-0.0886697977179422
  0
VERTEX
  5
D04
  8
0
 10
98.287800426404104
 20
52.855436800465149
 30
0.0
 42
-0.093866275823185
  0
VERTEX
  5
D05
  8
0
 10
98.607106781186303
 20
52.663627711472543
 30
0.0
 42
-0.1022901095122429
 70
     2
 50
318.28167172561018
  0
VERTEX
  5
D06
  8
0
 10
98.843425646297135
 20
52.345432395441058
 30
0.0
 42
-0.1285391797684332
  0
VERTEX
  5
D07
  8
0
 10
98.89999999999975
 20
52.033212680036712
 30
0.0
 42
-0.1091635129316081
  0
VERTEX
  5
D08
  8
0
 10
98.825754432878185
 20
51.697199276659653
 30
0.0
 42
-0.1022901095122636
  0
VERTEX
  5
D09
  8
0
 10
98.607106781186303
 20
51.402797648600881
 30
0.0
 42
-0.0938662758231421
 70
     2
 50
221.71832827438979
  0
VERTEX
  5
D0A
  8
0
 10
98.287800426404203
 20
51.210988559608268
 30
0.0
 42
-0.0886697977178873
  0
VERTEX
  5
D0B
  8
0
 10
97.899999999999807
 20
51.141671192657668
 30
0.0
 42
-0.0886697977179307
  0
SEQEND
  5
D0C
  8
0
  0
POLYLINE
  5
D0D
  8
0
 66
     1
 10
0.0
 20
0.0
 30
0.0
  0
VERTEX
  5
D0E
  8
0
 10
97.899999999999807
 20
55.941990953278321
 30
0.0
 42
-0.0952163432260962
  0
VERTEX
  5
D0F
  8
0
 10
98.284415162976813
 20
55.868115979335613
 30
0.0
 42
-0.0970739481124141
  0
VERTEX
  5
D10
  8
0
 10
98.607106781186303
 20
55.65979256789646
 30
0.0
 42
-0.0998219286546509
 70
     2
 50
316.06539234553162
  0
VERTEX
  5
D11
  8
0
 10
98.842915191891393
 20
55.318789592533612
 30
0.0
 42
-0.1204853695876511
  0
VERTEX
  5
D12
  8
0
 10
98.89999999999975
 20
54.97850539862776
 30
0.0
 42
-0.101855913339355
  0
VERTEX
  5
D13
  8
0
 10
98.824459578462722
 20
54.611532508281748
 30
0.0
 42
-0.0998219286545923
  0
VERTEX
  5
D14
  8
0
 10
98.607106781186303
 20
54.297218229359061
 30
0.0
 42
-0.0970739481123782
 70
     2
 50
223.93460765446841
  0
VERTEX
  5
D15
  8
0
 10
98.28441516297687
 20
54.088894817919872
 30
0.0
 42
-0.0952163432260542
  0
VERTEX
  5
D16
  8
0
 10
97.899999999999807
 20
54.0150198439772
 30
0.0
 42
-0.0952163432260713
  0
SEQEND
  5
D17
  8
0
  0
POLYLINE
  5
D18
  8
0
 66
     1
 10
0.0
 20
0.0
 30
0.0
  0
VERTEX
  5
D19
  8
0
 10
97.899999999999807
 20
48.807865397185253
 30
0.0
 42
-0.0669004313872827
  0
VERTEX
  5
D1A
  8
0
 10
98.298129219265775
 20
48.754355873302977
 30
0.0
 42
-0.0793633770256028
  0
VERTEX
  5
D1B
  8
0
 10
98.607106781186346
 20
48.614295039559352
 30
0.0
 42
-0.1071437047895626
 70
     2
 50
326.53966129479488
  0
VERTEX
  5
D1C
  8
0
 10
98.846889469698056
 20
48.368654003633111
 30
0.0
 42
-0.1637949989581226
  0
VERTEX
  5
D1D
  8
0
 10
98.899999999999807
 20
48.146974856905437
 30
0.0
 42
-0.1408854874538012
  0
VERTEX
  5
D1E
  8
0
 10
98.831840368172436
 20
47.909878930461637
 30
0.0
 42
-0.1071437047895118
  0
VERTEX
  5
D1F
  8
0
 10
98.607106781186303
 20
47.67965467425153
 30
0.0
 42
-0.0793633770255481
 70
     2
 50
213.4603387052027
  0
VERTEX
  5
D20
  8
0
 10
98.298129219265832
 20
47.539593840507933
 30
0.0
 42
-0.0669004313872653
  0
VERTEX
  5
D21
  8
0
 10
97.899999999999764
 20
47.486084316625629
 30
0.0
 42
-0.066900431387258
  0
SEQEND
  5
D22
  8
0
  0
CIRCLE
  5
D23
  8
0
 10
169.0
 20
60.000000000000057
 30
0.0
 40
9.5000000000000142
  0
CIRCLE
  5
D24
  8
0
 10
169.0
 20
60.000000000000057
 30
0.0
 40
8.7499999999999858
  0
ENDSEC
  0
EOF
