  0
SECTION
  2
HEADER
  9
$ACADVER
  1
AC1009
  9
$INSBASE
 10
0.0
 20
0.0
 30
0.0
  9
$EXTMIN
 10
0.0
 20
-2.960436562073669
 30
0.0
  9
$EXTMAX
 10
184.4994999999991
 20
75.499999999999105
 30
0.0
  9
$LIMMIN
 10
0.0
 20
0.0
  9
$LIMMAX
 10
187.5
 20
135.0
  9
$ORTHOMODE
 70
     1
  9
$REGENMODE
 70
     1
  9
$FILLMODE
 70
     1
  9
$QTEXTMODE
 70
     0
  9
$MIRRTEXT
 70
     0
  9
$DRAGMODE
 70
     2
  9
$LTSCALE
 40
5.0
  9
$OSMODE
 70
    37
  9
$ATTMODE
 70
     1
  9
$TEXTSIZE
 40
5.0
  9
$TRACEWID
 40
0.05
  9
$TEXTSTYLE
  7
STANDARD
  9
$CLAYER
  8
0
  9
$CELTYPE
  6
BYLAYER
  9
$CECOLOR
 62
   256
  9
$DIMSCALE
 40
0.5
  9
$DIMASZ
 40
3.0
  9
$DIMEXO
 40
2.0
  9
$DIMDLI
 40
0.3799999999999999
  9
$DIMRND
 40
0.0
  9
$DIMDLE
 40
0.0
  9
$DIMEXE
 40
2.0
  9
$DIMTP
 40
0.0
  9
$DIMTM
 40
0.0
  9
$DIMTXT
 40
3.0
  9
$DIMCEN
 40
0.09
  9
$DIMTSZ
 40
0.0
  9
$DIMTOL
 70
     0
  9
$DIMLIM
 70
     0
  9
$DIMTIH
 70
     0
  9
$DIMTOH
 70
     0
  9
$DIMSE1
 70
     0
  9
$DIMSE2
 70
     0
  9
$DIMTAD
 70
     1
  9
$DIMZIN
 70
     0
  9
$DIMBLK
  1

  9
$DIMASO
 70
     1
  9
$DIMSHO
 70
     0
  9
$DIMPOST
  1

  9
$DIMAPOST
  1

  9
$DIMALT
 70
     0
  9
$DIMALTD
 70
     2
  9
$DIMALTF
 40
25.399999999999999
  9
$DIMLFAC
 40
1.0
  9
$DIMTOFL
 70
     0
  9
$DIMTVP
 40
1.6000000000000001
  9
$DIMTIX
 70
     1
  9
$DIMSOXD
 70
     0
  9
$DIMSAH
 70
     0
  9
$DIMBLK1
  1

  9
$DIMBLK2
  1

  9
$DIMSTYLE
  2
STANDARD
  9
$DIMCLRD
 70
     0
  9
$DIMCLRE
 70
     0
  9
$DIMCLRT
 70
     0
  9
$DIMTFAC
 40
1.0
  9
$DIMGAP
 40
0.09
  9
$LUNITS
 70
     2
  9
$LUPREC
 70
     1
  9
$SKETCHINC
 40
0.1
  9
$FILLETRAD
 40
0.0
  9
$AUNITS
 70
     0
  9
$AUPREC
 70
     0
  9
$MENU
  1
E:\r13\win\SUPPORT\ACAD
  9
$ELEVATION
 40
0.0
  9
$PELEVATION
 40
0.0
  9
$THICKNESS
 40
0.0
  9
$LIMCHECK
 70
     0
  9
$BLIPMODE
 70
     0
  9
$CHAMFERA
 40
0.0
  9
$CHAMFERB
 40
0.0
  9
$SKPOLY
 70
     0
  9
$TDCREATE
 40
2449839.7862384259
  9
$TDUPDATE
 40
2457178.7287075352
  9
$TDINDWG
 40
0.0129068171
  9
$TDUSRTIMER
 40
0.0129068171
  9
$USRTIMER
 70
     1
  9
$ANGBASE
 50
0.0
  9
$ANGDIR
 70
     0
  9
$PDMODE
 70
     0
  9
$PDSIZE
 40
0.0
  9
$PLINEWID
 40
0.0
  9
$COORDS
 70
     1
  9
$SPLFRAME
 70
     0
  9
$SPLINETYPE
 70
     6
  9
$SPLINESEGS
 70
     8
  9
$ATTDIA
 70
     0
  9
$ATTREQ
 70
     1
  9
$HANDLING
 70
     1
  9
$HANDSEED
  5
E17
  9
$SURFTAB1
 70
     6
  9
$SURFTAB2
 70
     6
  9
$SURFTYPE
 70
     6
  9
$SURFU
 70
     6
  9
$SURFV
 70
     6
  9
$UCSNAME
  2

  9
$UCSORG
 10
0.0
 20
0.0
 30
0.0
  9
$UCSXDIR
 10
1.0
 20
0.0
 30
0.0
  9
$UCSYDIR
 10
0.0
 20
1.0
 30
0.0
  9
$PUCSNAME
  2

  9
$PUCSORG
 10
0.0
 20
0.0
 30
0.0
  9
$PUCSXDIR
 10
1.0
 20
0.0
 30
0.0
  9
$PUCSYDIR
 10
0.0
 20
1.0
 30
0.0
  9
$USERI1
 70
     0
  9
$USERI2
 70
     1
  9
$USERI3
 70
     1
  9
$USERI4
 70
     0
  9
$USERI5
 70
     0
  9
$USERR1
 40
0.0
  9
$USERR2
 40
0.0
  9
$USERR3
 40
0.0
  9
$USERR4
 40
0.0
  9
$USERR5
 40
0.0
  9
$WORLDVIEW
 70
     1
  9
$SHADEDGE
 70
     3
  9
$SHADEDIF
 70
    70
  9
$TILEMODE
 70
     1
  9
$MAXACTVP
 70
    16
  9
$PLIMCHECK
 70
     0
  9
$PEXTMIN
 10
1.0000000000000000E+020
 20
1.0000000000000000E+020
 30
1.0000000000000000E+020
  9
$PEXTMAX
 10
-1.0000000000000000E+020
 20
-1.0000000000000000E+020
 30
-1.0000000000000000E+020
  9
$PLIMMIN
 10
0.0
 20
0.0
  9
$PLIMMAX
 10
12.0
 20
9.0
  9
$UNITMODE
 70
     0
  9
$VISRETAIN
 70
     0
  9
$PLINEGEN
 70
     0
  9
$PSLTSCALE
 70
     0
  0
ENDSEC
  0
SECTION
  2
TABLES
  0
TABLE
  2
VPORT
 70
     1
  0
VPORT
  2
*ACTIVE
 70
     0
 10
0.0
 20
0.0
 11
1.0
 21
1.0
 12
172.54273504273499
 22
95.0
 13
0.0
 23
0.0
 14
5.0
 24
5.0
 15
5.0
 25
5.0
 16
0.0
 26
0.0
 36
1.0
 17
0.0
 27
0.0
 37
0.0
 40
190.0
 41
1.816239316239316
 42
50.0
 43
0.0
 44
0.0
 50
0.0
 51
0.0
 71
     0
 72
   500
 73
     1
 74
     0
 75
     0
 76
     0
 77
     0
 78
     2
  0
ENDTAB
  0
TABLE
  2
LTYPE
 70
     3
  0
LTYPE
  2
CONTINUOUS
 70
     0
  3
Solid Line
 72
    65
 73
     0
 40
0.0
  0
LTYPE
  2
CENTER
 70
     0
  3
____ _ ____ _ ____ _ ____ _ ____ _ ____ _ ____
 72
    65
 73
     4
 40
2.0
 49
1.25
 49
-0.25
 49
0.25
 49
-0.25
  0
LTYPE
  2
PHANTOM2
 70
     0
  3
___ _ _ ___ _ _ ___ _ _ ___ _ _
 72
    65
 73
     6
 40
1.25
 49
0.625
 49
-0.125
 49
0.125
 49
-0.125
 49
0.125
 49
-0.125
  0
ENDTAB
  0
TABLE
  2
LAYER
 70
     3
  0
LAYER
  2
0
 70
     0
 62
     7
  6
CONTINUOUS
  0
LAYER
  2
1
 70
     0
 62
     1
  6
CENTER
  0
LAYER
  2
3
 70
     0
 62
     3
  6
CONTINUOUS
  0
ENDTAB
  0
TABLE
  2
STYLE
 70
     2
  0
STYLE
  2
STANDARD
 70
     0
 40
0.0
 41
1.0
 50
0.0
 71
     0
 42
5.0
  3
TXT
  4
BIGFONT
  0
STYLE
  2
STANDARD1
 70
     0
 40
0.0
 41
1.0
 50
0.0
 71
     0
 42
3.0
  3
txt
  4

  0
ENDTAB
  0
TABLE
  2
VIEW
 70
     1
  0
VIEW
  2
ALL
 70
     0
 40
135.0
 10
110.4957983193277
 20
67.5
 41
0.0
 11
0.0
 21
0.0
 31
1.0
 12
0.0
 22
0.0
 32
0.0
 42
0.0
 43
0.0
 44
0.0
 50
0.0
 71
     0
  0
ENDTAB
  0
TABLE
  2
UCS
 70
     0
  0
ENDTAB
  0
TABLE
  2
APPID
 70
     6
  0
APPID
  2
ACAD
 70
     0
  0
APPID
  2
ACAD_MLEADERVER
 70
     0
  0
APPID
  2
ACAD_EXEMPT_FROM_CAD_STANDARDS
 70
     0
  0
APPID
  2
ACAD_NAV_VCDISPLAY
 70
     0
  0
APPID
  2
ACAD_DSTYLE_DIMJAG
 70
     0
  0
APPID
  2
ACAD_DSTYLE_DIMTALN
 70
     0
  0
ENDTAB
  0
TABLE
  2
DIMSTYLE
 70
     1
  0
DIMSTYLE
  2
STANDARD
 70
     0
  3

  4

  5

  6

  7

 40
1.0
 41
0.18
 42
0.0625
 43
0.38
 44
0.18
 45
0.0
 46
0.0
 47
0.0
 48
0.0
140
0.18
141
0.09
142
0.0
143
25.399999999999999
144
1.0
145
0.0
146
1.0
147
0.09
 71
     0
 72
     0
 73
     1
 74
     1
 75
     0
 76
     0
 77
     0
 78
     0
170
     0
171
     2
172
     0
173
     0
174
     0
175
     0
176
     0
177
     0
178
     0
  0
ENDTAB
  0
ENDSEC
  0
SECTION
  2
BLOCKS
  0
BLOCK
  8
0
  2
$MODEL_SPACE
 70
     0
 10
0.0
 20
0.0
 30
0.0
  3
$MODEL_SPACE
  1

  0
ENDBLK
  5
541
  8
0
  0
BLOCK
 67
     1
  8
0
  2
$PAPER_SPACE
 70
     0
 10
0.0
 20
0.0
 30
0.0
  3
$PAPER_SPACE
  1

  0
ENDBLK
  5
53F
 67
     1
  8
0
  0
ENDSEC
  0
SECTION
  2
ENTITIES
  0
TEXT
  5
95D
  8
0
 62
     3
 10
0.0
 20
0.0
 30
0.0
 40
10.0
  1
KS25X25-SUS
  7
STANDARD1
  0
ARC
  5
BA6
  8
0
 10
53.380290682097268
 20
71.513915683374364
 30
0.0
 40
1.0
 50
343.63636363636328
 51
163.63636363636331
  0
LINE
  5
BA7
  8
0
 10
54.339783655710903
 20
71.232183126533215
 30
0.0
 11
54.328024348144019
 21
71.192134602814605
 31
0.0
  0
LINE
  5
BA8
  8
0
 10
52.420797708483633
 20
71.795648240215542
 30
0.0
 11
52.40903840091687
 21
71.755599716497102
 31
0.0
  0
ARC
  5
BA9
  8
0
 10
56.487189809467388
 20
70.095042393974552
 30
0.0
 40
1.0
 50
327.27272727272759
 51
147.27272727272759
  0
LINE
  5
BAA
  8
0
 10
57.32844334229781
 20
69.554401576519439
 30
0.0
 11
57.305877396327901
 21
69.51928827919528
 31
0.0
  0
LINE
  5
BAB
  8
0
 10
55.645936276636967
 20
70.635683211429637
 30
0.0
 11
55.623370330667107
 21
70.600569914105606
 31
0.0
  0
ARC
  5
BAC
  8
0
 10
59.068494892251408
 20
67.858328807343725
 30
0.0
 40
1.0
 50
310.90909090909167
 51
130.90909090909159
  0
LINE
  5
BAD
  8
0
 10
59.72335562619611
 20
67.102579232990138
 30
0.0
 11
59.691811200560721
 21
67.075245832582851
 31
0.0
  0
LINE
  5
BAE
  8
0
 10
58.413634158306763
 20
68.614078381697311
 30
0.0
 11
58.382089732671488
 21
68.58674498129011
 31
0.0
  0
ARC
  5
BAF
  8
0
 10
60.915083944254597
 20
64.984980156022829
 30
0.0
 40
1.0
 50
294.54545454545399
 51
114.54545454545401
  0
LINE
  5
BB0
  8
0
 10
61.330498957256111
 20
64.075348160669137
 30
0.0
 11
61.292531593718309
 21
64.058009046721679
 31
0.0
  0
LINE
  5
BB1
  8
0
 10
60.499668931253098
 20
65.894612151376521
 30
0.0
 11
60.461701567715409
 21
65.87727303742912
 31
0.0
  0
ARC
  5
BB2
  8
0
 10
61.877357302571632
 20
61.707778059279519
 30
0.0
 40
1.0
 50
278.1818181818179
 51
98.181818181817818
  0
LINE
  5
BB3
  8
0
 10
62.019672140844818
 20
60.717956617399473
 30
0.0
 11
61.978357729397892
 21
60.712016501804207
 31
0.0
  0
LINE
  5
BB4
  8
0
 10
61.735042464298488
 20
62.697599501159537
 30
0.0
 11
61.693728052851668
 21
62.691659385564321
 31
0.0
  0
ARC
  5
BB5
  8
0
 10
61.877357302571632
 20
58.292221940720538
 30
0.0
 40
1.0
 50
261.81818181818221
 51
81.818181818182182
  0
LINE
  5
BB6
  8
0
 10
61.735042464298488
 20
57.302400498840491
 30
0.0
 11
61.693728052851547
 21
57.308340614435728
 31
0.0
  0
LINE
  5
BB7
  8
0
 10
62.019672140844818
 20
59.282043382600563
 30
0.0
 11
61.978357729397999
 21
59.287983498195793
 31
0.0
  0
ARC
  5
BB8
  8
0
 10
60.915083944254661
 20
55.015019843977193
 30
0.0
 40
1.0
 50
245.45454545454589
 51
65.454545454545922
  0
LINE
  5
BB9
  8
0
 10
60.499668931253147
 20
54.105387848623529
 30
0.0
 11
60.461701567715352
 21
54.122726962570972
 31
0.0
  0
LINE
  5
BBA
  8
0
 10
61.330498957256161
 20
55.92465183933092
 30
0.0
 11
61.292531593718529
 21
55.941990953278271
 31
0.0
  0
ARC
  5
BBB
  8
0
 10
59.068494892251458
 20
52.141671192656332
 30
0.0
 40
1.0
 50
229.09090909090841
 51
49.090909090908369
  0
LINE
  5
BBC
  8
0
 10
58.413634158306763
 20
51.385921618302781
 30
0.0
 11
58.382089732671368
 21
51.413255018710061
 31
0.0
  0
LINE
  5
BBD
  8
0
 10
59.72335562619616
 20
52.897420767009919
 30
0.0
 11
59.691811200560892
 21
52.92475416741712
 31
0.0
  0
ARC
  5
BBE
  8
0
 10
56.487189809467452
 20
49.904957606025476
 30
0.0
 40
1.0
 50
212.72727272727241
 51
32.727272727272428
  0
LINE
  5
BBF
  8
0
 10
55.64593627663703
 20
49.36431678857037
 30
0.0
 11
55.623370330667058
 21
49.399430085894487
 31
0.0
  0
LINE
  5
BC0
  8
0
 10
57.328443342297867
 20
50.44559842348059
 30
0.0
 11
57.305877396328007
 21
50.480711720804607
 31
0.0
  0
ARC
  5
BC1
  8
0
 10
53.380290682097318
 20
48.486084316625629
 30
0.0
 40
1.0
 50
196.36363636363669
 51
16.363636363636719
  0
LINE
  5
BC2
  8
0
 10
52.42079770848369
 20
48.204351759784451
 30
0.0
 11
52.40903840091687
 21
48.244400283503069
 31
0.0
  0
LINE
  5
BC3
  8
0
 10
54.339783655710903
 20
48.76781687346682
 30
0.0
 11
54.32802434814414
 21
48.807865397185253
 31
0.0
  0
ARC
  5
BC4
  8
0
 10
49.999500000000012
 20
47.999999999999567
 30
0.0
 40
1.0
 50
180.0
 51
0.0
  0
LINE
  5
BC5
  8
0
 10
48.999500000000921
 20
47.999999999999567
 30
0.0
 11
48.999500000000921
 21
48.041739256898722
 31
0.0
  0
LINE
  5
BC6
  8
0
 10
50.999499999999102
 20
47.999999999999567
 30
0.0
 11
50.999499999999102
 21
48.041739256898552
 31
0.0
  0
ARC
  5
BC7
  8
0
 10
46.618709317902749
 20
48.486084316625629
 30
0.0
 40
1.0
 50
163.63636363636331
 51
343.63636363636328
  0
LINE
  5
BC8
  8
0
 10
45.659216344289121
 20
48.76781687346682
 30
0.0
 11
45.670975651855997
 21
48.807865397185417
 31
0.0
  0
LINE
  5
BC9
  8
0
 10
47.578202291516391
 20
48.204351759784451
 30
0.0
 11
47.589961599083153
 21
48.24440028350292
 31
0.0
  0
ARC
  5
BCA
  8
0
 10
43.511810190532628
 20
49.904957606025476
 30
0.0
 40
1.0
 50
147.27272727272759
 51
327.27272727272759
  0
LINE
  5
BCB
  8
0
 10
42.670556657702207
 20
50.44559842348059
 30
0.0
 11
42.693122603672123
 21
50.48071172080472
 31
0.0
  0
LINE
  5
BCC
  8
0
 10
44.35306372336305
 20
49.36431678857037
 30
0.0
 11
44.375629669332909
 21
49.39943008589438
 31
0.0
  0
ARC
  5
BCD
  8
0
 10
40.930505107748608
 20
52.141671192656297
 30
0.0
 40
1.0
 50
130.90909090909159
 51
310.90909090909167
  0
LINE
  5
BCE
  8
0
 10
40.275644373803907
 20
52.897420767009862
 30
0.0
 11
40.307188799439302
 21
52.924754167417177
 31
0.0
  0
LINE
  5
BCF
  8
0
 10
41.585365841693317
 20
51.385921618302739
 30
0.0
 11
41.616910267328592
 21
51.41325501870994
 31
0.0
  0
ARC
  5
BD0
  8
0
 10
39.083916055745419
 20
55.015019843977193
 30
0.0
 40
1.0
 50
114.54545454545401
 51
294.54545454545399
  0
LINE
  5
BD1
  8
0
 10
38.668501042743863
 20
55.924651839330863
 30
0.0
 11
38.706468406281658
 21
55.941990953278321
 31
0.0
  0
LINE
  5
BD2
  8
0
 10
39.499331068746933
 20
54.105387848623479
 30
0.0
 11
39.537298432284558
 21
54.12272696257088
 31
0.0
  0
ARC
  5
BD3
  8
0
 10
38.121642697428399
 20
58.292221940720509
 30
0.0
 40
1.0
 50
98.181818181817818
 51
278.1818181818179
  0
LINE
  5
BD4
  8
0
 10
37.979327859155198
 20
59.282043382600527
 30
0.0
 11
38.020642270602202
 21
59.287983498195793
 31
0.0
  0
LINE
  5
BD5
  8
0
 10
38.263957535701529
 20
57.302400498840491
 30
0.0
 11
38.305271947148363
 21
57.3083406144357
 31
0.0
  0
ARC
  5
BD6
  8
0
 10
38.121642697428399
 20
61.707778059279462
 30
0.0
 40
1.0
 50
81.818181818182182
 51
261.81818181818221
  0
LINE
  5
BD7
  8
0
 10
38.263957535701593
 20
62.697599501159509
 30
0.0
 11
38.305271947148533
 21
62.691659385564257
 31
0.0
  0
LINE
  5
BD8
  8
0
 10
37.979327859155262
 20
60.717956617399437
 30
0.0
 11
38.020642270602032
 21
60.712016501804207
 31
0.0
  0
ARC
  5
BD9
  8
0
 10
39.083916055745419
 20
64.9849801560228
 30
0.0
 40
1.0
 50
65.454545454545922
 51
245.45454545454589
  0
LINE
  5
BDA
  8
0
 10
39.499331068746933
 20
65.894612151376521
 30
0.0
 11
39.537298432284672
 21
65.877273037429063
 31
0.0
  0
LINE
  5
BDB
  8
0
 10
38.668501042743912
 20
64.075348160669137
 30
0.0
 11
38.706468406281537
 21
64.058009046721736
 31
0.0
  0
ARC
  5
BDC
  8
0
 10
40.930505107748608
 20
67.858328807343696
 30
0.0
 40
1.0
 50
49.090909090908369
 51
229.09090909090841
  0
LINE
  5
BDD
  8
0
 10
41.58536584169326
 20
68.614078381697254
 30
0.0
 11
41.616910267328649
 21
68.586744981289968
 31
0.0
  0
LINE
  5
BDE
  8
0
 10
40.275644373803907
 20
67.102579232990138
 30
0.0
 11
40.307188799439182
 21
67.075245832582937
 31
0.0
  0
ARC
  5
BDF
  8
0
 10
43.511810190532628
 20
70.095042393974552
 30
0.0
 40
1.0
 50
32.727272727272428
 51
212.72727272727241
  0
LINE
  5
BE0
  8
0
 10
44.35306372336305
 20
70.635683211429637
 30
0.0
 11
44.375629669332959
 21
70.600569914105506
 31
0.0
  0
LINE
  5
BE1
  8
0
 10
42.670556657702207
 20
69.55440157651941
 30
0.0
 11
42.693122603672073
 21
69.519288279195393
 31
0.0
  0
ARC
  5
BE2
  8
0
 10
46.618709317902749
 20
71.513915683374364
 30
0.0
 40
1.0
 50
16.363636363636719
 51
196.36363636363669
  0
LINE
  5
BE3
  8
0
 10
47.578202291516391
 20
71.795648240215542
 30
0.0
 11
47.58996159908321
 21
71.755599716496931
 31
0.0
  0
LINE
  5
BE4
  8
0
 10
45.659216344289121
 20
71.232183126533215
 30
0.0
 11
45.670975651855933
 21
71.192134602814747
 31
0.0
  0
LINE
  5
BE5
  8
0
 10
48.999500000000921
 20
72.000000000000426
 30
0.0
 11
48.999500000000921
 21
71.958260743101434
 31
0.0
  0
LINE
  5
BE6
  8
0
 10
50.999499999999102
 20
72.000000000000426
 30
0.0
 11
50.999499999999102
 21
71.958260743101278
 31
0.0
  0
ARC
  5
BE7
  8
0
 10
49.999500000000012
 20
72.000000000000426
 30
0.0
 40
1.0
 50
0.0
 51
180.0
  0
CIRCLE
  5
BE8
  8
0
 10
49.999500000000012
 20
60.0
 30
0.0
 40
12.0
  0
LINE
  5
BE9
  8
1
 10
133.49949999999981
 20
60.0
 30
0.0
 11
85.499500000000225
 21
60.0
 31
0.0
  0
LINE
  5
BEA
  8
1
 10
34.499500000000857
 20
60.0
 30
0.0
 11
65.499499999999102
 21
60.0
 31
0.0
  0
LINE
  5
BEB
  8
1
 10
49.999500000000012
 20
44.500000000000853
 30
0.0
 11
49.999500000000012
 21
75.499999999999105
 31
0.0
  0
LINE
  5
BEC
  8
1
 10
168.99950000000001
 20
44.50000000000108
 30
0.0
 11
168.99950000000001
 21
75.499999999999062
 31
0.0
  0
LINE
  5
BED
  8
1
 10
153.49950000000089
 20
60.0
 30
0.0
 11
184.4994999999991
 21
60.0
 31
0.0
  0
CIRCLE
  5
BEE
  8
0
 10
168.99950000000001
 20
60.0
 30
0.0
 40
12.0
  0
ARC
  5
BEF
  8
0
 10
168.99950000000001
 20
72.000000000000426
 30
0.0
 40
1.0
 50
0.0
 51
180.0
  0
LINE
  5
BF0
  8
0
 10
169.9994999999991
 20
72.000000000000426
 30
0.0
 11
169.9994999999991
 21
71.958260743101278
 31
0.0
  0
LINE
  5
BF1
  8
0
 10
167.99950000000089
 20
72.000000000000426
 30
0.0
 11
167.99950000000089
 21
71.958260743101434
 31
0.0
  0
LINE
  5
BF2
  8
0
 10
164.65921634428909
 20
71.232183126533215
 30
0.0
 11
164.67097565185591
 21
71.192134602814747
 31
0.0
  0
LINE
  5
BF3
  8
0
 10
166.57820229151639
 20
71.795648240215542
 30
0.0
 11
166.58996159908321
 21
71.755599716496931
 31
0.0
  0
ARC
  5
BF4
  8
0
 10
165.6187093179027
 20
71.513915683374364
 30
0.0
 40
1.0
 50
16.363636363636719
 51
196.36363636363669
  0
LINE
  5
BF5
  8
0
 10
161.67055665770221
 20
69.55440157651941
 30
0.0
 11
161.69312260367209
 21
69.519288279195393
 31
0.0
  0
LINE
  5
BF6
  8
0
 10
163.35306372336299
 20
70.635683211429637
 30
0.0
 11
163.37562966933291
 21
70.600569914105506
 31
0.0
  0
ARC
  5
BF7
  8
0
 10
162.5118101905326
 20
70.095042393974552
 30
0.0
 40
1.0
 50
32.727272727272428
 51
212.72727272727241
  0
LINE
  5
BF8
  8
0
 10
159.27564437380391
 20
67.102579232990138
 30
0.0
 11
159.30718879943919
 21
67.075245832582937
 31
0.0
  0
LINE
  5
BF9
  8
0
 10
160.5853658416932
 20
68.614078381697254
 30
0.0
 11
160.61691026732859
 21
68.586744981289968
 31
0.0
  0
ARC
  5
BFA
  8
0
 10
159.93050510774859
 20
67.858328807343696
 30
0.0
 40
1.0
 50
49.090909090908369
 51
229.09090909090841
  0
LINE
  5
BFB
  8
0
 10
157.66850104274391
 20
64.075348160669137
 30
0.0
 11
157.70646840628149
 21
64.058009046721736
 31
0.0
  0
LINE
  5
BFC
  8
0
 10
158.4993310687469
 20
65.894612151376521
 30
0.0
 11
158.53729843228459
 21
65.877273037429063
 31
0.0
  0
ARC
  5
BFD
  8
0
 10
158.08391605574539
 20
64.9849801560228
 30
0.0
 40
1.0
 50
65.454545454545922
 51
245.45454545454589
  0
LINE
  5
BFE
  8
0
 10
156.97932785915521
 20
60.717956617399437
 30
0.0
 11
157.020642270602
 21
60.712016501804207
 31
0.0
  0
LINE
  5
BFF
  8
0
 10
157.26395753570159
 20
62.697599501159509
 30
0.0
 11
157.3052719471485
 21
62.691659385564257
 31
0.0
  0
ARC
  5
C00
  8
0
 10
157.1216426974284
 20
61.707778059279462
 30
0.0
 40
1.0
 50
81.818181818182182
 51
261.81818181818221
  0
LINE
  5
C01
  8
0
 10
157.26395753570151
 20
57.302400498840491
 30
0.0
 11
157.3052719471483
 21
57.3083406144357
 31
0.0
  0
LINE
  5
C02
  8
0
 10
156.97932785915521
 20
59.282043382600527
 30
0.0
 11
157.0206422706022
 21
59.287983498195793
 31
0.0
  0
ARC
  5
C03
  8
0
 10
157.1216426974284
 20
58.292221940720509
 30
0.0
 40
1.0
 50
98.181818181817818
 51
278.1818181818179
  0
LINE
  5
C04
  8
0
 10
158.4993310687469
 20
54.105387848623479
 30
0.0
 11
158.5372984322845
 21
54.12272696257088
 31
0.0
  0
LINE
  5
C05
  8
0
 10
157.6685010427438
 20
55.924651839330863
 30
0.0
 11
157.7064684062816
 21
55.941990953278321
 31
0.0
  0
ARC
  5
C06
  8
0
 10
158.08391605574539
 20
55.015019843977193
 30
0.0
 40
1.0
 50
114.54545454545401
 51
294.54545454545399
  0
LINE
  5
C07
  8
0
 10
160.58536584169329
 20
51.385921618302739
 30
0.0
 11
160.61691026732859
 21
51.41325501870994
 31
0.0
  0
LINE
  5
C08
  8
0
 10
159.27564437380391
 20
52.897420767009862
 30
0.0
 11
159.3071887994393
 21
52.924754167417177
 31
0.0
  0
ARC
  5
C09
  8
0
 10
159.93050510774859
 20
52.141671192656297
 30
0.0
 40
1.0
 50
130.90909090909159
 51
310.90909090909167
  0
LINE
  5
C0A
  8
0
 10
163.35306372336299
 20
49.36431678857037
 30
0.0
 11
163.37562966933291
 21
49.39943008589438
 31
0.0
  0
LINE
  5
C0B
  8
0
 10
161.67055665770221
 20
50.44559842348059
 30
0.0
 11
161.69312260367209
 21
50.48071172080472
 31
0.0
  0
ARC
  5
C0C
  8
0
 10
162.5118101905326
 20
49.904957606025476
 30
0.0
 40
1.0
 50
147.27272727272759
 51
327.27272727272759
  0
LINE
  5
C0D
  8
0
 10
166.57820229151639
 20
48.204351759784451
 30
0.0
 11
166.5899615990831
 21
48.24440028350292
 31
0.0
  0
LINE
  5
C0E
  8
0
 10
164.65921634428909
 20
48.76781687346682
 30
0.0
 11
164.670975651856
 21
48.807865397185417
 31
0.0
  0
ARC
  5
C0F
  8
0
 10
165.6187093179027
 20
48.486084316625629
 30
0.0
 40
1.0
 50
163.63636363636331
 51
343.63636363636328
  0
LINE
  5
C10
  8
0
 10
169.9994999999991
 20
47.999999999999567
 30
0.0
 11
169.9994999999991
 21
48.041739256898552
 31
0.0
  0
LINE
  5
C11
  8
0
 10
167.99950000000089
 20
47.999999999999567
 30
0.0
 11
167.99950000000089
 21
48.041739256898722
 31
0.0
  0
ARC
  5
C12
  8
0
 10
168.99950000000001
 20
47.999999999999567
 30
0.0
 40
1.0
 50
180.0
 51
0.0
  0
LINE
  5
C13
  8
0
 10
173.3397836557109
 20
48.76781687346682
 30
0.0
 11
173.32802434814411
 21
48.807865397185253
 31
0.0
  0
LINE
  5
C14
  8
0
 10
171.42079770848369
 20
48.204351759784451
 30
0.0
 11
171.4090384009169
 21
48.244400283503069
 31
0.0
  0
ARC
  5
C15
  8
0
 10
172.3802906820973
 20
48.486084316625629
 30
0.0
 40
1.0
 50
196.36363636363669
 51
16.363636363636719
  0
LINE
  5
C16
  8
0
 10
176.32844334229779
 20
50.44559842348059
 30
0.0
 11
176.30587739632799
 21
50.480711720804607
 31
0.0
  0
LINE
  5
C17
  8
0
 10
174.645936276637
 20
49.36431678857037
 30
0.0
 11
174.623370330667
 21
49.399430085894487
 31
0.0
  0
ARC
  5
C18
  8
0
 10
175.4871898094674
 20
49.904957606025476
 30
0.0
 40
1.0
 50
212.72727272727241
 51
32.727272727272428
  0
LINE
  5
C19
  8
0
 10
178.72335562619611
 20
52.897420767009919
 30
0.0
 11
178.69181120056089
 21
52.92475416741712
 31
0.0
  0
LINE
  5
C1A
  8
0
 10
177.41363415830671
 20
51.385921618302781
 30
0.0
 11
177.38208973267129
 21
51.413255018710061
 31
0.0
  0
ARC
  5
C1B
  8
0
 10
178.06849489225141
 20
52.141671192656332
 30
0.0
 40
1.0
 50
229.09090909090841
 51
49.090909090908369
  0
LINE
  5
C1C
  8
0
 10
180.33049895725611
 20
55.92465183933092
 30
0.0
 11
180.29253159371851
 21
55.941990953278271
 31
0.0
  0
LINE
  5
C1D
  8
0
 10
179.4996689312531
 20
54.105387848623529
 30
0.0
 11
179.46170156771529
 21
54.122726962570972
 31
0.0
  0
ARC
  5
C1E
  8
0
 10
179.9150839442546
 20
55.015019843977193
 30
0.0
 40
1.0
 50
245.45454545454589
 51
65.454545454545922
  0
LINE
  5
C1F
  8
0
 10
181.01967214084479
 20
59.282043382600563
 30
0.0
 11
180.978357729398
 21
59.287983498195793
 31
0.0
  0
LINE
  5
C20
  8
0
 10
180.73504246429849
 20
57.302400498840491
 30
0.0
 11
180.6937280528515
 21
57.308340614435728
 31
0.0
  0
ARC
  5
C21
  8
0
 10
180.8773573025716
 20
58.292221940720538
 30
0.0
 40
1.0
 50
261.81818181818221
 51
81.818181818182182
  0
LINE
  5
C22
  8
0
 10
180.73504246429849
 20
62.697599501159537
 30
0.0
 11
180.69372805285161
 21
62.691659385564321
 31
0.0
  0
LINE
  5
C23
  8
0
 10
181.01967214084479
 20
60.717956617399473
 30
0.0
 11
180.97835772939791
 21
60.712016501804207
 31
0.0
  0
ARC
  5
C24
  8
0
 10
180.8773573025716
 20
61.707778059279519
 30
0.0
 40
1.0
 50
278.1818181818179
 51
98.181818181817818
  0
LINE
  5
C25
  8
0
 10
179.4996689312531
 20
65.894612151376521
 30
0.0
 11
179.46170156771541
 21
65.87727303742912
 31
0.0
  0
LINE
  5
C26
  8
0
 10
180.33049895725611
 20
64.075348160669137
 30
0.0
 11
180.29253159371831
 21
64.058009046721679
 31
0.0
  0
ARC
  5
C27
  8
0
 10
179.9150839442546
 20
64.984980156022829
 30
0.0
 40
1.0
 50
294.54545454545399
 51
114.54545454545401
  0
LINE
  5
C28
  8
0
 10
177.41363415830671
 20
68.614078381697311
 30
0.0
 11
177.38208973267149
 21
68.58674498129011
 31
0.0
  0
LINE
  5
C29
  8
0
 10
178.72335562619611
 20
67.102579232990138
 30
0.0
 11
178.69181120056069
 21
67.075245832582851
 31
0.0
  0
ARC
  5
C2A
  8
0
 10
178.06849489225141
 20
67.858328807343725
 30
0.0
 40
1.0
 50
310.90909090909167
 51
130.90909090909159
  0
LINE
  5
C2B
  8
0
 10
174.645936276637
 20
70.635683211429637
 30
0.0
 11
174.62337033066709
 21
70.600569914105606
 31
0.0
  0
LINE
  5
C2C
  8
0
 10
176.32844334229779
 20
69.554401576519439
 30
0.0
 11
176.3058773963279
 21
69.51928827919528
 31
0.0
  0
ARC
  5
C2D
  8
0
 10
175.4871898094674
 20
70.095042393974552
 30
0.0
 40
1.0
 50
327.27272727272759
 51
147.27272727272759
  0
LINE
  5
C2E
  8
0
 10
171.4207977084836
 20
71.795648240215542
 30
0.0
 11
171.4090384009169
 21
71.755599716497102
 31
0.0
  0
LINE
  5
C2F
  8
0
 10
173.3397836557109
 20
71.232183126533215
 30
0.0
 11
173.328024348144
 21
71.192134602814605
 31
0.0
  0
ARC
  5
C30
  8
0
 10
172.3802906820973
 20
71.513915683374364
 30
0.0
 40
1.0
 50
343.63636363636328
 51
163.63636363636331
  0
CIRCLE
  5
C31
  8
0
 10
168.99950000000001
 20
60.0
 30
0.0
 40
3.0
  0
CIRCLE
  5
C32
  8
3
 10
168.99950000000001
 20
60.0
 30
0.0
 40
2.458499999999999
  0
CIRCLE
  5
C33
  8
0
 10
168.99950000000001
 20
60.0
 30
0.0
 40
4.5000000000000142
  0
LINE
  5
C34
  8
0
 10
129.99949999999981
 20
57.0
 30
0.0
 11
129.99949999999981
 21
63.0
 31
0.0
  0
LINE
  5
C35
  8
0
 10
130.99949999999981
 20
58.0
 30
0.0
 11
130.99949999999981
 21
62.0
 31
0.0
  0
LINE
  5
C36
  8
0
 10
130.99949999999981
 20
62.0
 30
0.0
 11
129.99949999999981
 21
63.0
 31
0.0
  0
LINE
  5
C37
  8
0
 10
129.99949999999981
 20
63.0
 30
0.0
 11
105.9994999999998
 21
63.0
 31
0.0
  0
LINE
  5
C38
  8
3
 10
130.54099999999971
 20
62.458500000000129
 30
0.0
 11
106.9374055122981
 21
62.458500000000129
 31
0.0
  0
LINE
  5
C39
  8
3
 10
130.54099999999971
 20
57.541499999999871
 30
0.0
 11
106.9374055122981
 21
57.541499999999871
 31
0.0
  0
LINE
  5
C3A
  8
0
 10
129.99949999999981
 20
57.0
 30
0.0
 11
105.9994999999998
 21
57.0
 31
0.0
  0
LINE
  5
C3B
  8
0
 10
130.99949999999981
 20
58.0
 30
0.0
 11
129.99949999999981
 21
57.0
 31
0.0
  0
LINE
  5
C3C
  8
0
 10
106.9374055122981
 20
57.0
 30
0.0
 11
106.9374055122981
 21
63.0
 31
0.0
  0
LINE
  5
C3D
  8
3
 10
106.9374055122981
 20
62.458500000000129
 30
0.0
 11
105.9994999999998
 21
63.0
 31
0.0
  0
LINE
  5
C3E
  8
3
 10
106.9374055122981
 20
57.541499999999871
 30
0.0
 11
105.9994999999998
 21
57.0
 31
0.0
  0
POLYLINE
  5
C3F
  8
0
 66
     1
 10
0.0
 20
0.0
 30
0.0
  0
VERTEX
  5
C40
  8
0
 10
97.899499999999833
 20
71.192134602814747
 30
0.0
 42
0.0669004313872827
  0
VERTEX
  5
C41
  8
0
 10
98.297629219265801
 20
71.245644126697073
 30
0.0
 42
0.0793633770256028
  0
VERTEX
  5
C42
  8
0
 10
98.606606781186372
 20
71.385704960440705
 30
0.0
 42
0.1071437047895626
 70
     2
 50
33.460338705205132
  0
VERTEX
  5
C43
  8
0
 10
98.846389469698082
 20
71.631345996366903
 30
0.0
 42
0.1637949989581226
 50
33.460338705205132
  0
VERTEX
  5
C44
  8
0
 10
98.899499999999819
 20
71.853025143094612
 30
0.0
 42
0.1408854874538012
  0
VERTEX
  5
C45
  8
0
 10
98.831340368172462
 20
72.090121069538384
 30
0.0
 42
0.1071437047895118
  0
VERTEX
  5
C46
  8
0
 10
98.606606781186315
 20
72.320345325748463
 30
0.0
 42
0.0793633770255481
 70
     2
 50
146.5396612947973
  0
VERTEX
  5
C47
  8
0
 10
98.297629219265843
 20
72.460406159492095
 30
0.0
 42
0.0669004313872653
 50
146.5396612947973
  0
VERTEX
  5
C48
  8
0
 10
97.899499999999762
 20
72.513915683374364
 30
0.0
 42
0.066900431387258
  0
SEQEND
  5
C49
  8
0
  0
POLYLINE
  5
C4A
  8
0
 66
     1
 10
0.0
 20
0.0
 30
0.0
  0
VERTEX
  5
C4B
  8
0
 10
97.899499999999833
 20
64.058009046721679
 30
0.0
 42
0.0952163432260962
  0
VERTEX
  5
C4C
  8
0
 10
98.283915162976825
 20
64.131884020664415
 30
0.0
 42
0.0970739481124141
  0
VERTEX
  5
C4D
  8
0
 10
98.606606781186315
 20
64.340207432103568
 30
0.0
 42
0.0998219286546509
 70
     2
 50
43.934607654468422
  0
VERTEX
  5
C4E
  8
0
 10
98.842415191891405
 20
64.681210407466409
 30
0.0
 42
0.1204853695876511
 50
43.934607654468422
  0
VERTEX
  5
C4F
  8
0
 10
98.899499999999776
 20
65.021494601372268
 30
0.0
 42
0.101855913339355
  0
VERTEX
  5
C50
  8
0
 10
98.823959578462734
 20
65.388467491718274
 30
0.0
 42
0.0998219286545923
  0
VERTEX
  5
C51
  8
0
 10
98.606606781186315
 20
65.702781770640954
 30
0.0
 42
0.0970739481123782
 70
     2
 50
136.06539234553151
  0
VERTEX
  5
C52
  8
0
 10
98.283915162976882
 20
65.911105182080121
 30
0.0
 42
0.0952163432260542
 50
136.06539234553151
  0
VERTEX
  5
C53
  8
0
 10
97.899499999999833
 20
65.984980156022829
 30
0.0
 42
0.0952163432260713
  0
SEQEND
  5
C54
  8
0
  0
POLYLINE
  5
C55
  8
0
 66
     1
 10
0.0
 20
0.0
 30
0.0
  0
VERTEX
  5
C56
  8
0
 10
97.899499999999833
 20
67.075245832582894
 30
0.0
 42
0.0886697977179422
  0
VERTEX
  5
C57
  8
0
 10
98.287300426404101
 20
67.144563199534872
 30
0.0
 42
0.093866275823185
  0
VERTEX
  5
C58
  8
0
 10
98.606606781186315
 20
67.336372288527485
 30
0.0
 42
0.1022901095122429
 70
     2
 50
41.718328274389819
  0
VERTEX
  5
C59
  8
0
 10
98.842925646297147
 20
67.654567604558963
 30
0.0
 42
0.1285391797684332
 50
41.718328274389819
  0
VERTEX
  5
C5A
  8
0
 10
98.899499999999776
 20
67.966787319963316
 30
0.0
 42
0.1091635129316081
  0
VERTEX
  5
C5B
  8
0
 10
98.825254432878182
 20
68.302800723340368
 30
0.0
 42
0.1022901095122636
  0
VERTEX
  5
C5C
  8
0
 10
98.606606781186315
 20
68.597202351399133
 30
0.0
 42
0.0938662758231421
 70
     2
 50
138.28167172561021
  0
VERTEX
  5
C5D
  8
0
 10
98.287300426404215
 20
68.789011440391732
 30
0.0
 42
0.0886697977178873
 50
138.28167172561021
  0
VERTEX
  5
C5E
  8
0
 10
97.899499999999833
 20
68.858328807342389
 30
0.0
 42
0.0886697977179307
  0
SEQEND
  5
C5F
  8
0
  0
POLYLINE
  5
C60
  8
0
 66
     1
 10
0.0
 20
0.0
 30
0.0
  0
VERTEX
  5
C61
  8
0
 10
97.899499999999833
 20
69.519288279195337
 30
0.0
 42
0.0790268670844965
  0
VERTEX
  5
C62
  8
0
 10
98.2920720629877
 20
69.581725696695486
 30
0.0
 42
0.0881908777093831
  0
VERTEX
  5
C63
  8
0
 10
98.606606781186372
 20
69.750052126563446
 30
0.0
 42
0.1052534176826681
 70
     2
 50
38.233764002295132
  0
VERTEX
  5
C64
  8
0
 10
98.844062406237981
 20
70.035568294216574
 30
0.0
 42
0.142284125671063
 50
38.233764002295132
  0
VERTEX
  5
C65
  8
0
 10
98.899499999999819
 20
70.307165336584944
 30
0.0
 42
0.121599590368167
  0
VERTEX
  5
C66
  8
0
 10
98.827557710399617
 20
70.598607592150614
 30
0.0
 42
0.1052534176826778
  0
VERTEX
  5
C67
  8
0
 10
98.606606781186372
 20
70.864278546606442
 30
0.0
 42
0.0881908777094005
 70
     2
 50
141.76623599770491
  0
VERTEX
  5
C68
  8
0
 10
98.2920720629877
 20
71.032604976474374
 30
0.0
 42
0.0790268670844963
 50
141.76623599770491
  0
VERTEX
  5
C69
  8
0
 10
97.899499999999833
 20
71.095042393974552
 30
0.0
 42
0.0790268670844787
  0
SEQEND
  5
C6A
  8
0
  0
POLYLINE
  5
C6B
  8
0
 66
     1
 10
0.0
 20
0.0
 30
0.0
  0
VERTEX
  5
C6C
  8
0
 10
97.899499999999833
 20
60.712016501804271
 30
0.0
 42
0.098302216645778
  0
VERTEX
  5
C6D
  8
0
 10
98.282284109109085
 20
60.788007884133947
 30
0.0
 42
0.0984128381818726
  0
VERTEX
  5
C6E
  8
0
 10
98.606606781186315
 20
61.004289015080808
 30
0.0
 42
0.0985696857141959
 70
     2
 50
44.939224407212613
  0
VERTEX
  5
C6F
  8
0
 10
98.842233176883667
 20
61.35623839000661
 30
0.0
 42
0.1169875491068659
 50
44.939224407212613
  0
VERTEX
  5
C70
  8
0
 10
98.899499999999776
 20
61.709897280541888
 30
0.0
 42
0.098680881080023
  0
VERTEX
  5
C71
  8
0
 10
98.823411915868007
 20
62.091669027576948
 30
0.0
 42
0.0985696857141574
  0
VERTEX
  5
C72
  8
0
 10
98.606606781186315
 20
62.415505546002983
 30
0.0
 42
0.0984128381818828
 70
     2
 50
135.06077559278739
  0
VERTEX
  5
C73
  8
0
 10
98.282284109109085
 20
62.631786676949808
 30
0.0
 42
0.0983022166457899
 50
135.06077559278739
  0
VERTEX
  5
C74
  8
0
 10
97.899499999999833
 20
62.707778059279519
 30
0.0
 42
0.0983022166457671
  0
SEQEND
  5
C75
  8
0
  0
ARC
  5
C76
  8
0
 10
97.899499999999833
 20
71.999999999999091
 30
0.0
 40
1.0
 50
0.0000000000455964
 51
90.0
  0
LINE
  5
C77
  8
0
 10
90.850276405003513
 20
48.000000000000107
 30
0.0
 11
90.850276405003513
 21
71.999999999999886
 31
0.0
  0
LINE
  5
C78
  8
0
 10
98.874613955572656
 20
71.999999999999886
 30
0.0
 11
99.399499999999762
 21
71.999999999999886
 31
0.0
  0
LINE
  5
C79
  8
0
 10
91.849775029037062
 20
72.513915683374364
 30
0.0
 11
97.899499999999762
 21
72.513915683374364
 31
0.0
  0
LINE
  5
C7A
  8
0
 10
90.850276405003513
 20
71.192134602814747
 30
0.0
 11
97.899499999999833
 21
71.192134602814747
 31
0.0
  0
LINE
  5
C7B
  8
0
 10
91.843969611167324
 20
71.095042393974552
 30
0.0
 11
97.899499999999833
 21
71.095042393974552
 31
0.0
  0
LINE
  5
C7C
  8
0
 10
91.821165758782513
 20
68.858328807343725
 30
0.0
 11
97.899499999999833
 21
68.858328807343725
 31
0.0
  0
LINE
  5
C7D
  8
0
 10
90.850276405003513
 20
69.519288279195337
 30
0.0
 11
97.899499999999833
 21
69.519288279195337
 31
0.0
  0
LINE
  5
C7E
  8
0
 10
90.850276405003513
 20
67.075245832582894
 30
0.0
 11
97.899499999999833
 21
67.075245832582894
 31
0.0
  0
LINE
  5
C7F
  8
0
 10
91.752185925496448
 20
65.984980156022829
 30
0.0
 11
97.899499999999833
 21
65.984980156022829
 31
0.0
  0
LINE
  5
C80
  8
0
 10
90.850276405003513
 20
64.058009046721679
 30
0.0
 11
97.899499999999833
 21
64.058009046721679
 31
0.0
  0
LINE
  5
C81
  8
0
 10
90.850276405003513
 20
62.707778059279519
 30
0.0
 11
97.899499999999833
 21
62.707778059279519
 31
0.0
  0
LINE
  5
C82
  8
0
 10
90.850276405003513
 20
60.712016501804271
 30
0.0
 11
97.899499999999833
 21
60.712016501804271
 31
0.0
  0
LINE
  5
C83
  8
0
 10
91.850276405003513
 20
72.999999999999062
 30
0.0
 11
97.899499999999833
 21
72.999999999999091
 31
0.0
  0
LINE
  5
C84
  8
0
 10
104.9494999999998
 20
69.5
 30
0.0
 11
104.9494999999998
 21
50.500000000000028
 31
0.0
  0
LINE
  5
C85
  8
0
 10
105.9994999999998
 20
64.5
 30
0.0
 11
105.6994999999997
 21
64.5
 31
0.0
  0
LINE
  5
C86
  8
0
 10
105.6994999999997
 20
68.75
 30
0.0
 11
105.6994999999997
 21
51.250000000000078
 31
0.0
  0
LINE
  5
C87
  8
0
 10
99.999499999999728
 20
48.600000000000101
 30
0.0
 11
99.999499999999728
 21
71.399999999999892
 31
0.0
  0
LINE
  5
C88
  8
0
 10
89.750276405003547
 20
71.999999999999886
 30
0.0
 11
90.850276405003513
 21
71.999999999999886
 31
0.0
  0
ARC
  5
C89
  8
0
 10
99.399499999999762
 20
71.399999999999892
 30
0.0
 40
0.6
 50
0.0
 51
90.0
  0
LINE
  5
C8A
  8
0
 10
104.9494999999997
 20
69.5
 30
0.0
 11
99.999499999999728
 21
69.5
 31
0.0
  0
LINE
  5
C8B
  8
0
 10
105.6994999999997
 20
68.75
 30
0.0
 11
104.9494999999997
 21
69.5
 31
0.0
  0
LINE
  5
C8C
  8
0
 10
89.750276405003603
 20
48.000000000000107
 30
0.0
 11
89.750276405003603
 21
71.999999999999886
 31
0.0
  0
ARC
  5
C8D
  8
0
 10
129.9994999999997
 20
60.0
 30
0.0
 40
42.0
 50
163.3984504009801
 51
196.60154959901979
  0
LINE
  5
C8E
  8
0
 10
105.6994999999997
 20
51.25
 30
0.0
 11
104.9494999999997
 21
50.5
 31
0.0
  0
LINE
  5
C8F
  8
0
 10
104.9494999999997
 20
50.5
 30
0.0
 11
99.999499999999728
 21
50.5
 31
0.0
  0
ARC
  5
C90
  8
0
 10
99.399499999999762
 20
48.600000000000101
 30
0.0
 40
0.6
 50
270.0
 51
0.0
  0
LINE
  5
C91
  8
0
 10
105.9994999999997
 20
55.5
 30
0.0
 11
105.6994999999997
 21
55.5
 31
0.0
  0
LINE
  5
C92
  8
0
 10
105.9994999999998
 20
64.5
 30
0.0
 11
105.9994999999997
 21
55.5
 31
0.0
  0
LINE
  5
C93
  8
0
 10
90.850276405003513
 20
71.999999999999844
 30
0.0
 11
91.850276405003513
 21
72.999999999999062
 31
0.0
  0
POLYLINE
  5
C94
  8
0
 66
     1
 10
0.0
 20
0.0
 30
0.0
  0
VERTEX
  5
C95
  8
0
 10
91.850276405003513
 20
61.85009289755282
 30
0.0
 42
0.1129541415555506
  0
VERTEX
  5
C96
  8
0
 10
91.776720230808451
 20
62.171540595657568
 30
0.0
 42
0.1033526290475138
  0
VERTEX
  5
C97
  8
0
 10
91.557383186190066
 20
62.45656789153287
 30
0.0
 42
0.0921549158927182
 70
     2
 50
139.3807981960291
  0
VERTEX
  5
C98
  8
0
 10
91.23965204495272
 20
62.640666993023608
 30
0.0
 42
0.0855471168292982
 50
139.3807981960291
  0
VERTEX
  5
C99
  8
0
 10
90.850276405003513
 20
62.707778059279519
 30
0.0
 42
0.085547116829313
  0
SEQEND
  5
C9A
  8
0
  0
POLYLINE
  5
C9B
  8
0
 66
     1
 10
0.0
 20
0.0
 30
0.0
  0
VERTEX
  5
C9C
  8
0
 10
90.850276405003513
 20
60.712016501804243
 30
0.0
 42
0.1105754961288046
  0
VERTEX
  5
C9D
  8
0
 10
91.226385222158171
 20
60.796222926850483
 30
0.0
 42
0.1027028081787415
  0
VERTEX
  5
C9E
  8
0
 10
91.557383186189327
 20
61.045351360610653
 30
0.0
 42
0.0932316611711039
 70
     2
 50
48.695014917496898
  0
VERTEX
  5
C9F
  8
0
 10
91.792575198525412
 20
61.442213407496801
 30
0.0
 42
0.1046406765660069
 50
48.695014917496891
  0
VERTEX
  5
CA0
  8
0
 10
91.850276405002504
 20
61.85009289755282
 30
0.0
 42
0.087486245711695
  0
SEQEND
  5
CA1
  8
0
  0
POLYLINE
  5
CA2
  8
0
 66
     1
 10
0.0
 20
0.0
 30
0.0
  0
VERTEX
  5
CA3
  8
0
 10
90.850276405003513
 20
64.058009046721679
 30
0.0
 42
0.1275511589696932
  0
VERTEX
  5
CA4
  8
0
 10
91.216776431148389
 20
64.153050307525092
 30
0.0
 42
0.1061651039332924
  0
VERTEX
  5
CA5
  8
0
 10
91.557383186190066
 20
64.451184838973518
 30
0.0
 42
0.085447083255488
 70
     2
 50
53.316020995599331
  0
VERTEX
  5
CA6
  8
0
 10
91.792502107378596
 20
64.914305154509151
 30
0.0
 42
0.0907458243245316
 50
53.316020995599331
  0
VERTEX
  5
CA7
  8
0
 10
91.850276405003513
 20
65.400395169024705
 30
0.0
 42
0.0749639709484273
  0
VERTEX
  5
CA8
  8
0
 10
91.770431359887141
 20
65.929958552211133
 30
0.0
 42
0.0104494272863164
  0
VERTEX
  5
CA9
  8
0
 10
91.752185925497713
 20
65.984980156022829
 30
0.0
 42
0.1061651039332807
 70
     2
 50
126.6839790044006
  0
SEQEND
  5
CAA
  8
0
  0
POLYLINE
  5
CAB
  8
0
 66
     1
 10
0.0
 20
0.0
 30
0.0
  0
VERTEX
  5
CAC
  8
0
 10
90.850276405003513
 20
67.075245832582894
 30
0.0
 42
0.1351106484703338
  0
VERTEX
  5
CAD
  8
0
 10
91.212400095189835
 20
67.174918886160924
 30
0.0
 42
0.1068916963646837
  0
VERTEX
  5
CAE
  8
0
 10
91.557383186190066
 20
67.496409793898408
 30
0.0
 42
0.0819805859993646
 70
     2
 50
55.183799812925713
  0
VERTEX
  5
CAF
  8
0
 10
91.792594193899106
 20
67.99080780069994
 30
0.0
 42
0.0854524044576932
 50
55.183799812925713
  0
VERTEX
  5
CB0
  8
0
 10
91.850276405003513
 20
68.513189541289023
 30
0.0
 42
0.0420975806111537
  0
VERTEX
  5
CB1
  8
0
 10
91.821165758783366
 20
68.858328807343725
 30
0.0
 42
0.0819805859993421
  0
SEQEND
  5
CB2
  8
0
  0
POLYLINE
  5
CB3
  8
0
 66
     1
 10
0.0
 20
0.0
 30
0.0
  0
VERTEX
  5
CB4
  8
0
 10
90.850276405003513
 20
69.519288279195337
 30
0.0
 42
0.1334752893439902
  0
VERTEX
  5
CB5
  8
0
 10
91.213350734893879
 20
69.617969247542845
 30
0.0
 42
0.1067736914636536
  0
VERTEX
  5
CB6
  8
0
 10
91.557383186190066
 20
69.934320210187252
 30
0.0
 42
0.0827273099433823
 70
     2
 50
54.78890320465932
  0
VERTEX
  5
CB7
  8
0
 10
91.792569508709775
 20
70.421851400968563
 30
0.0
 42
0.0865581525971125
 50
54.788903204659327
  0
VERTEX
  5
CB8
  8
0
 10
91.850276405003513
 20
70.936295926805712
 30
0.0
 42
0.0198565275003651
  0
VERTEX
  5
CB9
  8
0
 10
91.843969611166884
 20
71.095042393974552
 30
0.0
 42
0.0827273099433435
  0
SEQEND
  5
CBA
  8
0
  0
POLYLINE
  5
CBB
  8
0
 66
     1
 10
0.0
 20
0.0
 30
0.0
  0
VERTEX
  5
CBC
  8
0
 10
90.850276405003513
 20
71.192134602814747
 30
0.0
 42
0.1225889545330474
  0
VERTEX
  5
CBD
  8
0
 10
91.21962072091145
 20
71.284071299349932
 30
0.0
 42
0.1054266529349266
  0
VERTEX
  5
CBE
  8
0
 10
91.557383186190066
 20
71.567411084723972
 30
0.0
 42
0.0877347373077107
 70
     2
 50
52.02891796281402
  0
VERTEX
  5
CBF
  8
0
 10
91.792477002891815
 20
72.010619535212072
 30
0.0
 42
0.0944935069643078
 50
52.02891796281402
  0
VERTEX
  5
CC0
  8
0
 10
91.850276405003513
 20
72.473408656988852
 30
0.0
 42
0.0061885160387669
  0
VERTEX
  5
CC1
  8
0
 10
91.849775029036721
 20
72.513915683374364
 30
0.0
 42
0.0877347373077204
  0
SEQEND
  5
CC2
  8
0
  0
POLYLINE
  5
CC3
  8
0
 66
     1
 10
0.0
 20
0.0
 30
0.0
  0
VERTEX
  5
CC4
  8
0
 10
91.752185925496448
 20
65.984980156022829
 30
0.0
 42
0.0123570276110295
  0
VERTEX
  5
CC5
  8
0
 10
91.379151388788216
 20
65.975759551932299
 30
0.0
 42
0.0173599211009302
  0
VERTEX
  5
CC6
  8
0
 10
91.114439587539138
 20
65.953433471368811
 30
0.0
 42
0.0404815745712817
 70
     2
 50
186.8100792311717
  0
VERTEX
  5
CC7
  8
0
 10
90.870402389122489
 20
65.904021267267808
 30
0.0
 50
186.8100792311717
  0
VERTEX
  5
CC8
  8
0
 10
90.850276405003513
 20
65.877273037429177
 30
0.0
  0
SEQEND
  5
CC9
  8
0
  0
POLYLINE
  5
CCA
  8
0
 66
     1
 10
0.0
 20
0.0
 30
0.0
  0
VERTEX
  5
CCB
  8
0
 10
91.821165758783422
 20
68.858328807343753
 30
0.0
 42
0.0288460688622872
  0
VERTEX
  5
CCC
  8
0
 10
91.422171713265186
 20
68.835290818106898
 30
0.0
 42
0.0393711015747251
  0
VERTEX
  5
CCD
  8
0
 10
91.134643312943794
 20
68.778783746353213
 30
0.0
 42
0.0804766448016345
 70
     2
 50
195.627733167304
  0
VERTEX
  5
CCE
  8
0
 10
90.892877128760048
 20
68.666919223315816
 30
0.0
 42
0.249179894909732
 50
195.627733167304
  0
VERTEX
  5
CCF
  8
0
 10
90.850276405003513
 20
68.586744981290053
 30
0.0
 42
0.2491798949097354
  0
SEQEND
  5
CD0
  8
0
  0
POLYLINE
  5
CD1
  8
0
 66
     1
 10
0.0
 20
0.0
 30
0.0
  0
VERTEX
  5
CD2
  8
0
 10
91.843969611167324
 20
71.095042393974552
 30
0.0
 42
0.0508614025396146
  0
VERTEX
  5
CD3
  8
0
 10
91.442004636351214
 20
71.054047339813962
 30
0.0
 42
0.0647060737211076
  0
VERTEX
  5
CD4
  8
0
 10
91.141322406669886
 20
70.950214757731075
 30
0.0
 42
0.1040915032216622
 70
     2
 50
206.4554340875504
  0
VERTEX
  5
CD5
  8
0
 10
90.910805624334841
 20
70.767897941198612
 30
0.0
 42
0.1753110843376959
 50
206.4554340875504
  0
VERTEX
  5
CD6
  8
0
 10
90.850276405003456
 20
70.600569914105733
 30
0.0
 42
0.1753110843376926
  0
SEQEND
  5
CD7
  8
0
  0
POLYLINE
  5
CD8
  8
0
 66
     1
 10
0.0
 20
0.0
 30
0.0
  0
VERTEX
  5
CD9
  8
0
 10
91.849775029037062
 20
72.513915683374364
 30
0.0
 42
0.0762697733728009
  0
VERTEX
  5
CDA
  8
0
 10
91.456089948170074
 20
72.453511765255286
 30
0.0
 42
0.0863521769977534
  0
VERTEX
  5
CDB
  8
0
 10
91.143022774196297
 20
72.291810078958065
 30
0.0
 42
0.1058984519010266
 70
     2
 50
217.187458189995
  0
VERTEX
  5
CDC
  8
0
 10
90.905257338480908
 20
72.015602055675274
 30
0.0
 42
0.1467084770758266
 50
217.187458189995
  0
VERTEX
  5
CDD
  8
0
 10
90.850276405007676
 20
71.755599716496931
 30
0.0
 42
0.1255870348412077
  0
SEQEND
  5
CDE
  8
0
  0
POLYLINE
  5
CDF
  8
0
 66
     1
 10
0.0
 20
0.0
 30
0.0
  0
VERTEX
  5
CE0
  8
0
 10
90.850276405003456
 20
71.958260743101533
 30
0.0
 42
0.0074802436643722
  0
VERTEX
  5
CE1
  8
0
 10
90.879022415530414
 20
71.958690821492382
 30
0.0
 42
0.0999490626455953
  0
SEQEND
  5
CE2
  8
0
  0
POLYLINE
  5
CE3
  8
0
 66
     1
 10
0.0
 20
0.0
 30
0.0
  0
VERTEX
  5
CE4
  8
0
 10
91.736619927667505
 20
72.509031201107632
 30
0.0
 42
0.0293265377833063
 70
     2
 50
46.171133967963179
  0
VERTEX
  5
CE5
  8
0
 10
91.792825744937261
 20
72.629327881060362
 30
0.0
 42
0.1128168172210416
 50
46.171133967963193
  0
VERTEX
  5
CE6
  8
0
 10
91.850276405002717
 20
72.999999999999034
 30
0.0
 42
0.0948959869432876
  0
SEQEND
  5
CE7
  8
0
  0
POLYLINE
  5
CE8
  8
0
 66
     1
 10
0.0
 20
0.0
 30
0.0
  0
VERTEX
  5
CE9
  8
0
 10
91.736619927667505
 20
47.490968798892361
 30
0.0
 42
-0.0293265377833063
 70
     2
 50
313.82886603203679
  0
VERTEX
  5
CEA
  8
0
 10
91.792825744937261
 20
47.370672118939638
 30
0.0
 42
-0.1128168172210416
  0
VERTEX
  5
CEB
  8
0
 10
91.850276405002717
 20
47.000000000000959
 30
0.0
 42
-0.0948959869432876
  0
SEQEND
  5
CEC
  8
0
  0
POLYLINE
  5
CED
  8
0
 66
     1
 10
0.0
 20
0.0
 30
0.0
  0
VERTEX
  5
CEE
  8
0
 10
90.850276405003456
 20
48.041739256898488
 30
0.0
 42
-0.0074802436643722
  0
VERTEX
  5
CEF
  8
0
 10
90.879022415530414
 20
48.041309178507618
 30
0.0
 42
-0.0999490626455953
  0
SEQEND
  5
CF0
  8
0
  0
POLYLINE
  5
CF1
  8
0
 66
     1
 10
0.0
 20
0.0
 30
0.0
  0
VERTEX
  5
CF2
  8
0
 10
91.849775029037062
 20
47.486084316625629
 30
0.0
 42
-0.0762697733728009
  0
VERTEX
  5
CF3
  8
0
 10
91.456089948170074
 20
47.546488234744743
 30
0.0
 42
-0.0863521769977534
  0
VERTEX
  5
CF4
  8
0
 10
91.143022774196297
 20
47.708189921041992
 30
0.0
 42
-0.1058984519010266
 70
     2
 50
142.812541810005
  0
VERTEX
  5
CF5
  8
0
 10
90.905257338480908
 20
47.984397944324741
 30
0.0
 42
-0.1467084770758266
  0
VERTEX
  5
CF6
  8
0
 10
90.850276405007676
 20
48.244400283503069
 30
0.0
 42
-0.1255870348412077
  0
SEQEND
  5
CF7
  8
0
  0
POLYLINE
  5
CF8
  8
0
 66
     1
 10
0.0
 20
0.0
 30
0.0
  0
VERTEX
  5
CF9
  8
0
 10
91.843969611167324
 20
48.904957606025469
 30
0.0
 42
-0.0508614025396146
  0
VERTEX
  5
CFA
  8
0
 10
91.442004636351214
 20
48.945952660186059
 30
0.0
 42
-0.0647060737211076
  0
VERTEX
  5
CFB
  8
0
 10
91.141322406669886
 20
49.049785242268911
 30
0.0
 42
-0.1040915032216622
 70
     2
 50
153.5445659124496
  0
VERTEX
  5
CFC
  8
0
 10
90.910805624334841
 20
49.232102058801452
 30
0.0
 42
-0.1753110843376959
  0
VERTEX
  5
CFD
  8
0
 10
90.850276405003456
 20
49.399430085894302
 30
0.0
 42
-0.1753110843376926
  0
SEQEND
  5
CFE
  8
0
  0
POLYLINE
  5
CFF
  8
0
 66
     1
 10
0.0
 20
0.0
 30
0.0
  0
VERTEX
  5
D00
  8
0
 10
91.821165758783422
 20
51.141671192656297
 30
0.0
 42
-0.0288460688622872
  0
VERTEX
  5
D01
  8
0
 10
91.422171713265186
 20
51.164709181893159
 30
0.0
 42
-0.0393711015747251
  0
VERTEX
  5
D02
  8
0
 10
91.134643312943794
 20
51.221216253646837
 30
0.0
 42
-0.0804766448016345
 70
     2
 50
164.372266832696
  0
VERTEX
  5
D03
  8
0
 10
90.892877128760048
 20
51.333080776684199
 30
0.0
 42
-0.249179894909732
  0
VERTEX
  5
D04
  8
0
 10
90.850276405003513
 20
51.41325501870994
 30
0.0
 42
-0.2491798949097354
  0
SEQEND
  5
D05
  8
0
  0
POLYLINE
  5
D06
  8
0
 66
     1
 10
0.0
 20
0.0
 30
0.0
  0
VERTEX
  5
D07
  8
0
 10
91.752185925496448
 20
54.0150198439772
 30
0.0
 42
-0.0123570276110295
  0
VERTEX
  5
D08
  8
0
 10
91.379151388788216
 20
54.024240448067701
 30
0.0
 42
-0.0173599211009302
  0
VERTEX
  5
D09
  8
0
 10
91.114439587539138
 20
54.04656652863121
 30
0.0
 42
-0.0404815745712817
 70
     2
 50
173.1899207688283
  0
VERTEX
  5
D0A
  8
0
 10
90.870402389122489
 20
54.09597873273222
 30
0.0
  0
VERTEX
  5
D0B
  8
0
 10
90.850276405003513
 20
54.122726962570852
 30
0.0
  0
SEQEND
  5
D0C
  8
0
  0
POLYLINE
  5
D0D
  8
0
 66
     1
 10
0.0
 20
0.0
 30
0.0
  0
VERTEX
  5
D0E
  8
0
 10
90.850276405003513
 20
48.807865397185253
 30
0.0
 42
-0.1225889545330474
  0
VERTEX
  5
D0F
  8
0
 10
91.21962072091145
 20
48.715928700650089
 30
0.0
 42
-0.1054266529349266
  0
VERTEX
  5
D10
  8
0
 10
91.557383186190066
 20
48.432588915276028
 30
0.0
 42
-0.0877347373077107
 70
     2
 50
307.97108203718602
  0
VERTEX
  5
D11
  8
0
 10
91.792477002891815
 20
47.989380464787949
 30
0.0
 42
-0.0944935069643078
  0
VERTEX
  5
D12
  8
0
 10
91.850276405003513
 20
47.526591343011141
 30
0.0
 42
-0.0061885160387669
  0
VERTEX
  5
D13
  8
0
 10
91.849775029036721
 20
47.486084316625629
 30
0.0
 42
-0.0877347373077204
  0
SEQEND
  5
D14
  8
0
  0
POLYLINE
  5
D15
  8
0
 66
     1
 10
0.0
 20
0.0
 30
0.0
  0
VERTEX
  5
D16
  8
0
 10
90.850276405003513
 20
50.480711720804663
 30
0.0
 42
-0.1334752893439902
  0
VERTEX
  5
D17
  8
0
 10
91.213350734893879
 20
50.382030752457183
 30
0.0
 42
-0.1067736914636536
  0
VERTEX
  5
D18
  8
0
 10
91.557383186190066
 20
50.065679789812798
 30
0.0
 42
-0.0827273099433823
 70
     2
 50
305.21109679534072
  0
VERTEX
  5
D19
  8
0
 10
91.792569508709775
 20
49.578148599031458
 30
0.0
 42
-0.0865581525971125
  0
VERTEX
  5
D1A
  8
0
 10
91.850276405003513
 20
49.06370407319428
 30
0.0
 42
-0.0198565275003651
  0
VERTEX
  5
D1B
  8
0
 10
91.843969611166884
 20
48.904957606025469
 30
0.0
 42
-0.0827273099433435
  0
SEQEND
  5
D1C
  8
0
  0
POLYLINE
  5
D1D
  8
0
 66
     1
 10
0.0
 20
0.0
 30
0.0
  0
VERTEX
  5
D1E
  8
0
 10
90.850276405003513
 20
52.92475416741712
 30
0.0
 42
-0.1351106484703338
  0
VERTEX
  5
D1F
  8
0
 10
91.212400095189835
 20
52.825081113839133
 30
0.0
 42
-0.1068916963646837
  0
VERTEX
  5
D20
  8
0
 10
91.557383186190066
 20
52.50359020610162
 30
0.0
 42
-0.0819805859993646
 70
     2
 50
304.8162001870744
  0
VERTEX
  5
D21
  8
0
 10
91.792594193899106
 20
52.009192199300088
 30
0.0
 42
-0.0854524044576932
  0
VERTEX
  5
D22
  8
0
 10
91.850276405003513
 20
51.48681045871097
 30
0.0
 42
-0.0420975806111537
  0
VERTEX
  5
D23
  8
0
 10
91.821165758783366
 20
51.141671192656297
 30
0.0
 42
-0.0819805859993421
  0
SEQEND
  5
D24
  8
0
  0
POLYLINE
  5
D25
  8
0
 66
     1
 10
0.0
 20
0.0
 30
0.0
  0
VERTEX
  5
D26
  8
0
 10
90.850276405003513
 20
55.941990953278321
 30
0.0
 42
-0.1275511589696932
  0
VERTEX
  5
D27
  8
0
 10
91.216776431148389
 20
55.846949692474929
 30
0.0
 42
-0.1061651039332924
  0
VERTEX
  5
D28
  8
0
 10
91.557383186190066
 20
55.548815161026482
 30
0.0
 42
-0.085447083255488
 70
     2
 50
306.68397900440073
  0
VERTEX
  5
D29
  8
0
 10
91.792502107378596
 20
55.085694845490877
 30
0.0
 42
-0.0907458243245316
  0
VERTEX
  5
D2A
  8
0
 10
91.850276405003513
 20
54.599604830975323
 30
0.0
 42
-0.0749639709484273
  0
VERTEX
  5
D2B
  8
0
 10
91.770431359887141
 20
54.070041447788888
 30
0.0
 42
-0.0104494272863164
  0
VERTEX
  5
D2C
  8
0
 10
91.752185925497713
 20
54.0150198439772
 30
0.0
 42
-0.1061651039332807
 70
     2
 50
233.3160209955993
  0
SEQEND
  5
D2D
  8
0
  0
POLYLINE
  5
D2E
  8
0
 66
     1
 10
0.0
 20
0.0
 30
0.0
  0
VERTEX
  5
D2F
  8
0
 10
90.850276405003513
 20
59.287983498195793
 30
0.0
 42
-0.1105754961288046
  0
VERTEX
  5
D30
  8
0
 10
91.226385222158171
 20
59.203777073149553
 30
0.0
 42
-0.1027028081787415
  0
VERTEX
  5
D31
  8
0
 10
91.557383186189327
 20
58.954648639389369
 30
0.0
 42
-0.0932316611711039
 70
     2
 50
311.30498508250309
  0
VERTEX
  5
D32
  8
0
 10
91.792575198525412
 20
58.557786592503248
 30
0.0
 42
-0.1046406765660069
  0
VERTEX
  5
D33
  8
0
 10
91.850276405002504
 20
58.149907102447202
 30
0.0
 42
-0.087486245711695
  0
SEQEND
  5
D34
  8
0
  0
POLYLINE
  5
D35
  8
0
 66
     1
 10
0.0
 20
0.0
 30
0.0
  0
VERTEX
  5
D36
  8
0
 10
91.850276405003513
 20
58.149907102447202
 30
0.0
 42
-0.1129541415555506
  0
VERTEX
  5
D37
  8
0
 10
91.776720230808451
 20
57.82845940434246
 30
0.0
 42
-0.1033526290475138
  0
VERTEX
  5
D38
  8
0
 10
91.557383186190066
 20
57.543432108467186
 30
0.0
 42
-0.0921549158927182
 70
     2
 50
220.61920180397081
  0
VERTEX
  5
D39
  8
0
 10
91.23965204495272
 20
57.359333006976378
 30
0.0
 42
-0.0855471168292982
  0
VERTEX
  5
D3A
  8
0
 10
90.850276405003513
 20
57.292221940720502
 30
0.0
 42
-0.085547116829313
  0
SEQEND
  5
D3B
  8
0
  0
LINE
  5
D3C
  8
0
 10
90.850276405003513
 20
48.000000000000171
 30
0.0
 11
91.850276405003513
 21
47.000000000000959
 31
0.0
  0
LINE
  5
D3D
  8
0
 10
89.750276405003547
 20
48.000000000000142
 30
0.0
 11
90.850276405003513
 21
48.000000000000171
 31
0.0
  0
LINE
  5
D3E
  8
0
 10
91.850276405003513
 20
47.000000000000959
 30
0.0
 11
97.899499999999833
 21
47.000000000000959
 31
0.0
  0
LINE
  5
D3F
  8
0
 10
90.850276405003513
 20
59.287983498195757
 30
0.0
 11
97.899499999999833
 21
59.287983498195793
 31
0.0
  0
LINE
  5
D40
  8
0
 10
90.850276405003513
 20
57.292221940720502
 30
0.0
 11
97.899499999999833
 21
57.292221940720502
 31
0.0
  0
LINE
  5
D41
  8
0
 10
90.850276405003513
 20
55.941990953278349
 30
0.0
 11
97.899499999999833
 21
55.941990953278321
 31
0.0
  0
LINE
  5
D42
  8
0
 10
91.752185925496448
 20
54.0150198439772
 30
0.0
 11
97.899499999999833
 21
54.0150198439772
 31
0.0
  0
LINE
  5
D43
  8
0
 10
90.850276405003513
 20
52.92475416741712
 30
0.0
 11
97.899499999999833
 21
52.92475416741712
 31
0.0
  0
LINE
  5
D44
  8
0
 10
90.850276405003513
 20
50.480711720804692
 30
0.0
 11
97.899499999999833
 21
50.480711720804692
 31
0.0
  0
LINE
  5
D45
  8
0
 10
91.821165758782513
 20
51.141671192656297
 30
0.0
 11
97.899499999999833
 21
51.141671192656297
 31
0.0
  0
LINE
  5
D46
  8
0
 10
91.843969611167324
 20
48.904957606025469
 30
0.0
 11
97.899499999999833
 21
48.904957606025512
 31
0.0
  0
LINE
  5
D47
  8
0
 10
90.850276405003513
 20
48.807865397185253
 30
0.0
 11
97.899499999999833
 21
48.807865397185253
 31
0.0
  0
LINE
  5
D48
  8
0
 10
91.849775029037062
 20
47.486084316625629
 30
0.0
 11
97.899499999999762
 21
47.486084316625629
 31
0.0
  0
LINE
  5
D49
  8
0
 10
98.874613955572656
 20
48.000000000000142
 30
0.0
 11
99.399499999999762
 21
48.000000000000142
 31
0.0
  0
ARC
  5
D4A
  8
0
 10
97.899499999999833
 20
48.000000000000959
 30
0.0
 40
1.0
 50
270.0
 51
359.99999999995282
  0
POLYLINE
  5
D4B
  8
0
 66
     1
 10
0.0
 20
0.0
 30
0.0
  0
VERTEX
  5
D4C
  8
0
 10
97.899499999999833
 20
59.287983498195793
 30
0.0
 42
-0.098302216645778
  0
VERTEX
  5
D4D
  8
0
 10
98.282284109109085
 20
59.211992115866082
 30
0.0
 42
-0.0984128381818726
  0
VERTEX
  5
D4E
  8
0
 10
98.606606781186315
 20
58.995710984919242
 30
0.0
 42
-0.0985696857141959
 70
     2
 50
315.06077559278742
  0
VERTEX
  5
D4F
  8
0
 10
98.842233176883667
 20
58.643761609993412
 30
0.0
 42
-0.1169875491068659
  0
VERTEX
  5
D50
  8
0
 10
98.899499999999776
 20
58.290102719458133
 30
0.0
 42
-0.098680881080023
  0
VERTEX
  5
D51
  8
0
 10
98.823411915868007
 20
57.908330972423073
 30
0.0
 42
-0.0985696857141574
  0
VERTEX
  5
D52
  8
0
 10
98.606606781186315
 20
57.584494453997017
 30
0.0
 42
-0.0984128381818828
 70
     2
 50
224.93922440721269
  0
VERTEX
  5
D53
  8
0
 10
98.282284109109085
 20
57.368213323050213
 30
0.0
 42
-0.0983022166457899
  0
VERTEX
  5
D54
  8
0
 10
97.899499999999833
 20
57.292221940720502
 30
0.0
 42
-0.0983022166457671
  0
SEQEND
  5
D55
  8
0
  0
POLYLINE
  5
D56
  8
0
 66
     1
 10
0.0
 20
0.0
 30
0.0
  0
VERTEX
  5
D57
  8
0
 10
97.899499999999833
 20
50.480711720804692
 30
0.0
 42
-0.0790268670844965
  0
VERTEX
  5
D58
  8
0
 10
98.2920720629877
 20
50.418274303304543
 30
0.0
 42
-0.0881908777093831
  0
VERTEX
  5
D59
  8
0
 10
98.606606781186372
 20
50.249947873436582
 30
0.0
 42
-0.1052534176826681
 70
     2
 50
321.76623599770488
  0
VERTEX
  5
D5A
  8
0
 10
98.844062406237981
 20
49.964431705783447
 30
0.0
 42
-0.142284125671063
  0
VERTEX
  5
D5B
  8
0
 10
98.899499999999819
 20
49.692834663415077
 30
0.0
 42
-0.121599590368167
  0
VERTEX
  5
D5C
  8
0
 10
98.827557710399617
 20
49.401392407849407
 30
0.0
 42
-0.1052534176826778
  0
VERTEX
  5
D5D
  8
0
 10
98.606606781186372
 20
49.135721453393579
 30
0.0
 42
-0.0881908777094005
 70
     2
 50
218.23376400229509
  0
VERTEX
  5
D5E
  8
0
 10
98.2920720629877
 20
48.967395023525633
 30
0.0
 42
-0.0790268670844963
  0
VERTEX
  5
D5F
  8
0
 10
97.899499999999833
 20
48.904957606025512
 30
0.0
 42
-0.0790268670844787
  0
SEQEND
  5
D60
  8
0
  0
POLYLINE
  5
D61
  8
0
 66
     1
 10
0.0
 20
0.0
 30
0.0
  0
VERTEX
  5
D62
  8
0
 10
97.899499999999833
 20
52.92475416741712
 30
0.0
 42
-0.0886697977179422
  0
VERTEX
  5
D63
  8
0
 10
98.287300426404101
 20
52.855436800465149
 30
0.0
 42
-0.093866275823185
  0
VERTEX
  5
D64
  8
0
 10
98.606606781186315
 20
52.663627711472543
 30
0.0
 42
-0.1022901095122429
 70
     2
 50
318.28167172561018
  0
VERTEX
  5
D65
  8
0
 10
98.842925646297147
 20
52.345432395441058
 30
0.0
 42
-0.1285391797684332
  0
VERTEX
  5
D66
  8
0
 10
98.899499999999776
 20
52.033212680036712
 30
0.0
 42
-0.1091635129316081
  0
VERTEX
  5
D67
  8
0
 10
98.825254432878182
 20
51.697199276659653
 30
0.0
 42
-0.1022901095122636
  0
VERTEX
  5
D68
  8
0
 10
98.606606781186315
 20
51.402797648600881
 30
0.0
 42
-0.0938662758231421
 70
     2
 50
221.71832827438979
  0
VERTEX
  5
D69
  8
0
 10
98.287300426404215
 20
51.210988559608268
 30
0.0
 42
-0.0886697977178873
  0
VERTEX
  5
D6A
  8
0
 10
97.899499999999833
 20
51.141671192657668
 30
0.0
 42
-0.0886697977179307
  0
SEQEND
  5
D6B
  8
0
  0
POLYLINE
  5
D6C
  8
0
 66
     1
 10
0.0
 20
0.0
 30
0.0
  0
VERTEX
  5
D6D
  8
0
 10
97.899499999999833
 20
55.941990953278321
 30
0.0
 42
-0.0952163432260962
  0
VERTEX
  5
D6E
  8
0
 10
98.283915162976825
 20
55.868115979335613
 30
0.0
 42
-0.0970739481124141
  0
VERTEX
  5
D6F
  8
0
 10
98.606606781186315
 20
55.65979256789646
 30
0.0
 42
-0.0998219286546509
 70
     2
 50
316.06539234553162
  0
VERTEX
  5
D70
  8
0
 10
98.842415191891405
 20
55.318789592533612
 30
0.0
 42
-0.1204853695876511
  0
VERTEX
  5
D71
  8
0
 10
98.899499999999776
 20
54.97850539862776
 30
0.0
 42
-0.101855913339355
  0
VERTEX
  5
D72
  8
0
 10
98.823959578462734
 20
54.611532508281748
 30
0.0
 42
-0.0998219286545923
  0
VERTEX
  5
D73
  8
0
 10
98.606606781186315
 20
54.297218229359061
 30
0.0
 42
-0.0970739481123782
 70
     2
 50
223.93460765446841
  0
VERTEX
  5
D74
  8
0
 10
98.283915162976882
 20
54.088894817919872
 30
0.0
 42
-0.0952163432260542
  0
VERTEX
  5
D75
  8
0
 10
97.899499999999833
 20
54.0150198439772
 30
0.0
 42
-0.0952163432260713
  0
SEQEND
  5
D76
  8
0
  0
POLYLINE
  5
D77
  8
0
 66
     1
 10
0.0
 20
0.0
 30
0.0
  0
VERTEX
  5
D78
  8
0
 10
97.899499999999833
 20
48.807865397185253
 30
0.0
 42
-0.0669004313872827
  0
VERTEX
  5
D79
  8
0
 10
98.297629219265801
 20
48.754355873302977
 30
0.0
 42
-0.0793633770256028
  0
VERTEX
  5
D7A
  8
0
 10
98.606606781186372
 20
48.614295039559352
 30
0.0
 42
-0.1071437047895626
 70
     2
 50
326.53966129479488
  0
VERTEX
  5
D7B
  8
0
 10
98.846389469698082
 20
48.368654003633111
 30
0.0
 42
-0.1637949989581226
  0
VERTEX
  5
D7C
  8
0
 10
98.899499999999819
 20
48.146974856905437
 30
0.0
 42
-0.1408854874538012
  0
VERTEX
  5
D7D
  8
0
 10
98.831340368172462
 20
47.909878930461637
 30
0.0
 42
-0.1071437047895118
  0
VERTEX
  5
D7E
  8
0
 10
98.606606781186315
 20
47.67965467425153
 30
0.0
 42
-0.0793633770255481
 70
     2
 50
213.4603387052027
  0
VERTEX
  5
D7F
  8
0
 10
98.297629219265843
 20
47.539593840507933
 30
0.0
 42
-0.0669004313872653
  0
VERTEX
  5
D80
  8
0
 10
97.899499999999762
 20
47.486084316625629
 30
0.0
 42
-0.066900431387258
  0
SEQEND
  5
D81
  8
0
  0
CIRCLE
  5
D82
  8
0
 10
168.99950000000001
 20
60.000000000000057
 30
0.0
 40
9.5000000000000142
  0
CIRCLE
  5
D83
  8
0
 10
168.99950000000001
 20
60.000000000000057
 30
0.0
 40
8.7499999999999858
  0
ENDSEC
  0
EOF
