  0
SECTION
  2
HEADER
  9
$ACADVER
  1
AC1009
  9
$INSBASE
 10
0.0
 20
0.0
 30
0.0
  9
$EXTMIN
 10
-0.0005
 20
-2.960436562073669
 30
0.0
  9
$EXTMAX
 10
175.49999999999909
 20
75.500499999999121
 30
0.0
  9
$LIMMIN
 10
0.0
 20
0.0
  9
$LIMMAX
 10
187.5
 20
135.0
  9
$ORTHOMODE
 70
     1
  9
$REGENMODE
 70
     1
  9
$FILLMODE
 70
     1
  9
$QTEXTMODE
 70
     0
  9
$MIRRTEXT
 70
     0
  9
$DRAGMODE
 70
     2
  9
$LTSCALE
 40
5.0
  9
$OSMODE
 70
    37
  9
$ATTMODE
 70
     1
  9
$TEXTSIZE
 40
5.0
  9
$TRACEWID
 40
0.05
  9
$TEXTSTYLE
  7
STANDARD
  9
$CLAYER
  8
0
  9
$CELTYPE
  6
BYLAYER
  9
$CECOLOR
 62
   256
  9
$DIMSCALE
 40
0.5
  9
$DIMASZ
 40
3.0
  9
$DIMEXO
 40
2.0
  9
$DIMDLI
 40
0.3799999999999999
  9
$DIMRND
 40
0.0
  9
$DIMDLE
 40
0.0
  9
$DIMEXE
 40
2.0
  9
$DIMTP
 40
0.0
  9
$DIMTM
 40
0.0
  9
$DIMTXT
 40
3.0
  9
$DIMCEN
 40
0.09
  9
$DIMTSZ
 40
0.0
  9
$DIMTOL
 70
     0
  9
$DIMLIM
 70
     0
  9
$DIMTIH
 70
     0
  9
$DIMTOH
 70
     0
  9
$DIMSE1
 70
     0
  9
$DIMSE2
 70
     0
  9
$DIMTAD
 70
     1
  9
$DIMZIN
 70
     0
  9
$DIMBLK
  1

  9
$DIMASO
 70
     1
  9
$DIMSHO
 70
     0
  9
$DIMPOST
  1

  9
$DIMAPOST
  1

  9
$DIMALT
 70
     0
  9
$DIMALTD
 70
     2
  9
$DIMALTF
 40
25.399999999999999
  9
$DIMLFAC
 40
1.0
  9
$DIMTOFL
 70
     0
  9
$DIMTVP
 40
1.6000000000000001
  9
$DIMTIX
 70
     1
  9
$DIMSOXD
 70
     0
  9
$DIMSAH
 70
     0
  9
$DIMBLK1
  1

  9
$DIMBLK2
  1

  9
$DIMSTYLE
  2
STANDARD
  9
$DIMCLRD
 70
     0
  9
$DIMCLRE
 70
     0
  9
$DIMCLRT
 70
     0
  9
$DIMTFAC
 40
1.0
  9
$DIMGAP
 40
0.09
  9
$LUNITS
 70
     2
  9
$LUPREC
 70
     4
  9
$SKETCHINC
 40
0.1
  9
$FILLETRAD
 40
0.0
  9
$AUNITS
 70
     0
  9
$AUPREC
 70
     0
  9
$MENU
  1
E:\r13\win\SUPPORT\ACAD
  9
$ELEVATION
 40
0.0
  9
$PELEVATION
 40
0.0
  9
$THICKNESS
 40
0.0
  9
$LIMCHECK
 70
     0
  9
$BLIPMODE
 70
     0
  9
$CHAMFERA
 40
0.0
  9
$CHAMFERB
 40
0.0
  9
$SKPOLY
 70
     0
  9
$TDCREATE
 40
2449839.7862037038
  9
$TDUPDATE
 40
2457178.7286918168
  9
$TDINDWG
 40
0.0284865162
  9
$TDUSRTIMER
 40
0.0284865162
  9
$USRTIMER
 70
     1
  9
$ANGBASE
 50
0.0
  9
$ANGDIR
 70
     0
  9
$PDMODE
 70
     0
  9
$PDSIZE
 40
0.0
  9
$PLINEWID
 40
0.0
  9
$COORDS
 70
     1
  9
$SPLFRAME
 70
     0
  9
$SPLINETYPE
 70
     6
  9
$SPLINESEGS
 70
     8
  9
$ATTDIA
 70
     0
  9
$ATTREQ
 70
     1
  9
$HANDLING
 70
     1
  9
$HANDSEED
  5
E26
  9
$SURFTAB1
 70
     6
  9
$SURFTAB2
 70
     6
  9
$SURFTYPE
 70
     6
  9
$SURFU
 70
     6
  9
$SURFV
 70
     6
  9
$UCSNAME
  2

  9
$UCSORG
 10
0.0
 20
0.0
 30
0.0
  9
$UCSXDIR
 10
1.0
 20
0.0
 30
0.0
  9
$UCSYDIR
 10
0.0
 20
1.0
 30
0.0
  9
$PUCSNAME
  2

  9
$PUCSORG
 10
0.0
 20
0.0
 30
0.0
  9
$PUCSXDIR
 10
1.0
 20
0.0
 30
0.0
  9
$PUCSYDIR
 10
0.0
 20
1.0
 30
0.0
  9
$USERI1
 70
     0
  9
$USERI2
 70
     1
  9
$USERI3
 70
     1
  9
$USERI4
 70
     0
  9
$USERI5
 70
     0
  9
$USERR1
 40
0.0
  9
$USERR2
 40
0.0
  9
$USERR3
 40
0.0
  9
$USERR4
 40
0.0
  9
$USERR5
 40
0.0
  9
$WORLDVIEW
 70
     1
  9
$SHADEDGE
 70
     3
  9
$SHADEDIF
 70
    70
  9
$TILEMODE
 70
     1
  9
$MAXACTVP
 70
    16
  9
$PLIMCHECK
 70
     0
  9
$PEXTMIN
 10
1.0000000000000000E+020
 20
1.0000000000000000E+020
 30
1.0000000000000000E+020
  9
$PEXTMAX
 10
-1.0000000000000000E+020
 20
-1.0000000000000000E+020
 30
-1.0000000000000000E+020
  9
$PLIMMIN
 10
0.0
 20
0.0
  9
$PLIMMAX
 10
12.0
 20
9.0
  9
$UNITMODE
 70
     0
  9
$VISRETAIN
 70
     0
  9
$PLINEGEN
 70
     0
  9
$PSLTSCALE
 70
     0
  0
ENDSEC
  0
SECTION
  2
TABLES
  0
TABLE
  2
VPORT
 70
     1
  0
VPORT
  2
*ACTIVE
 70
     0
 10
0.0
 20
0.0
 11
1.0
 21
1.0
 12
172.54273504273499
 22
95.0
 13
0.0
 23
0.0
 14
5.0
 24
5.0
 15
5.0
 25
5.0
 16
0.0
 26
0.0
 36
1.0
 17
0.0
 27
0.0
 37
0.0
 40
190.0
 41
1.816239316239316
 42
50.0
 43
0.0
 44
0.0
 50
0.0
 51
0.0
 71
     0
 72
   500
 73
     1
 74
     0
 75
     0
 76
     0
 77
     0
 78
     2
  0
ENDTAB
  0
TABLE
  2
LTYPE
 70
     3
  0
LTYPE
  2
CONTINUOUS
 70
     0
  3
Solid Line
 72
    65
 73
     0
 40
0.0
  0
LTYPE
  2
CENTER
 70
     0
  3
____ _ ____ _ ____ _ ____ _ ____ _ ____ _ ____
 72
    65
 73
     4
 40
2.0
 49
1.25
 49
-0.25
 49
0.25
 49
-0.25
  0
LTYPE
  2
PHANTOM2
 70
     0
  3
___ _ _ ___ _ _ ___ _ _ ___ _ _
 72
    65
 73
     6
 40
1.25
 49
0.625
 49
-0.125
 49
0.125
 49
-0.125
 49
0.125
 49
-0.125
  0
ENDTAB
  0
TABLE
  2
LAYER
 70
     4
  0
LAYER
  2
0
 70
     0
 62
     7
  6
CONTINUOUS
  0
LAYER
  2
1
 70
     0
 62
     1
  6
CENTER
  0
LAYER
  2
3
 70
     0
 62
     3
  6
CONTINUOUS
  0
LAYER
  2
ITTEN
 70
     0
 62
     1
  6
CENTER
  0
ENDTAB
  0
TABLE
  2
STYLE
 70
     2
  0
STYLE
  2
STANDARD
 70
     0
 40
0.0
 41
1.0
 50
0.0
 71
     0
 42
5.0
  3
TXT
  4
BIGFONT
  0
STYLE
  2
STANDARD1
 70
     0
 40
0.0
 41
1.0
 50
0.0
 71
     0
 42
3.0
  3
txt
  4

  0
ENDTAB
  0
TABLE
  2
VIEW
 70
     1
  0
VIEW
  2
ALL
 70
     0
 40
135.0
 10
110.4957983193277
 20
67.5
 41
0.0
 11
0.0
 21
0.0
 31
1.0
 12
0.0
 22
0.0
 32
0.0
 42
0.0
 43
0.0
 44
0.0
 50
0.0
 71
     0
  0
ENDTAB
  0
TABLE
  2
UCS
 70
     0
  0
ENDTAB
  0
TABLE
  2
APPID
 70
     6
  0
APPID
  2
ACAD
 70
     0
  0
APPID
  2
ACAD_MLEADERVER
 70
     0
  0
APPID
  2
ACAD_EXEMPT_FROM_CAD_STANDARDS
 70
     0
  0
APPID
  2
ACAD_NAV_VCDISPLAY
 70
     0
  0
APPID
  2
ACAD_DSTYLE_DIMJAG
 70
     0
  0
APPID
  2
ACAD_DSTYLE_DIMTALN
 70
     0
  0
ENDTAB
  0
TABLE
  2
DIMSTYLE
 70
     1
  0
DIMSTYLE
  2
STANDARD
 70
     0
  3

  4

  5

  6

  7

 40
1.0
 41
0.18
 42
0.0625
 43
0.38
 44
0.18
 45
0.0
 46
0.0
 47
0.0
 48
0.0
140
0.18
141
0.09
142
0.0
143
25.399999999999999
144
1.0
145
0.0
146
1.0
147
0.09
 71
     0
 72
     0
 73
     1
 74
     1
 75
     0
 76
     0
 77
     0
 78
     0
170
     0
171
     2
172
     0
173
     0
174
     0
175
     0
176
     0
177
     0
178
     0
  0
ENDTAB
  0
ENDSEC
  0
SECTION
  2
BLOCKS
  0
BLOCK
  8
0
  2
$MODEL_SPACE
 70
     0
 10
0.0
 20
0.0
 30
0.0
  3
$MODEL_SPACE
  1

  0
ENDBLK
  5
541
  8
0
  0
BLOCK
 67
     1
  8
0
  2
$PAPER_SPACE
 70
     0
 10
0.0
 20
0.0
 30
0.0
  3
$PAPER_SPACE
  1

  0
ENDBLK
  5
53F
 67
     1
  8
0
  0
BLOCK
  8
0
  2
BATU
 70
     0
 10
0.0
 20
0.0
 30
0.0
  3
BATU
  1

  0
LINE
  5
54C
  8
ITTEN
 10
0.5
 20
0.0
 30
0.0
 11
-0.5
 21
0.0
 31
0.0
  0
LINE
  5
54D
  8
ITTEN
 10
0.0
 20
0.5
 30
0.0
 11
0.0
 21
-0.5
 31
0.0
  0
ENDBLK
  5
54F
  8
0
  0
ENDSEC
  0
SECTION
  2
ENTITIES
  0
INSERT
  5
550
  8
0
  2
BATU
 10
0.0
 20
0.0
 30
0.0
 41
0.001
 42
0.001
 43
0.001
  0
TEXT
  5
95F
  8
0
 62
     3
 10
0.0
 20
0.0
 30
0.0
 40
10.0
  1
KS25X16-SUS
  7
STANDARD1
  0
ARC
  5
BA0
  8
0
 10
53.380790682097263
 20
71.514415683374381
 30
0.0
 40
1.0
 50
343.63636363636328
 51
163.6363636363634
  0
LINE
  5
BA1
  8
0
 10
54.340283655710891
 20
71.232683126533217
 30
0.0
 11
54.328524348144043
 21
71.192634602814607
 31
0.0
  0
LINE
  5
BA2
  8
0
 10
52.421297708483642
 20
71.796148240215544
 30
0.0
 11
52.40953840091683
 21
71.75609971649709
 31
0.0
  0
ARC
  5
BA3
  8
0
 10
56.487689809467383
 20
70.09554239397454
 30
0.0
 40
1.0
 50
327.27272727272782
 51
147.27272727272771
  0
LINE
  5
BA4
  8
0
 10
57.328943342297798
 20
69.554901576519441
 30
0.0
 11
57.306377396327861
 21
69.519788279195296
 31
0.0
  0
LINE
  5
BA5
  8
0
 10
55.646436276636962
 20
70.636183211429653
 30
0.0
 11
55.623870330667103
 21
70.601069914105622
 31
0.0
  0
ARC
  5
BA6
  8
0
 10
59.068994892251389
 20
67.858828807343727
 30
0.0
 40
1.0
 50
310.90909090909167
 51
130.9090909090917
  0
LINE
  5
BA7
  8
0
 10
59.723855626196098
 20
67.103079232990154
 30
0.0
 11
59.692311200560709
 21
67.075745832582854
 31
0.0
  0
LINE
  5
BA8
  8
0
 10
58.414134158306751
 20
68.614578381697299
 30
0.0
 11
58.382589732671477
 21
68.587244981290098
 31
0.0
  0
ARC
  5
BA9
  8
0
 10
60.915583944254593
 20
64.985480156022831
 30
0.0
 40
1.0
 50
294.54545454545388
 51
114.54545454545389
  0
LINE
  5
BAA
  8
0
 10
61.330998957256099
 20
64.075848160669139
 30
0.0
 11
61.293031593718332
 21
64.058509046721696
 31
0.0
  0
LINE
  5
BAB
  8
0
 10
60.500168931253093
 20
65.895112151376523
 30
0.0
 11
60.462201567715432
 21
65.877773037429137
 31
0.0
  0
ARC
  5
BAC
  8
0
 10
61.877857302571613
 20
61.708278059279522
 30
0.0
 40
1.0
 50
278.1818181818179
 51
98.181818181817818
  0
LINE
  5
BAD
  8
0
 10
62.020172140844771
 20
60.718456617399482
 30
0.0
 11
61.978857729397838
 21
60.712516501804231
 31
0.0
  0
LINE
  5
BAE
  8
0
 10
61.735542464298483
 20
62.698099501159547
 30
0.0
 11
61.694228052851649
 21
62.692159385564317
 31
0.0
  0
ARC
  5
BAF
  8
0
 10
61.877857302571613
 20
58.292721940720533
 30
0.0
 40
1.0
 50
261.81818181818221
 51
81.818181818182182
  0
LINE
  5
BB0
  8
0
 10
61.735542464298483
 20
57.302900498840501
 30
0.0
 11
61.694228052851543
 21
57.308840614435752
 31
0.0
  0
LINE
  5
BB1
  8
0
 10
62.020172140844807
 20
59.282543382600572
 30
0.0
 11
61.97885772939798
 21
59.288483498195781
 31
0.0
  0
ARC
  5
BB2
  8
0
 10
60.915583944254649
 20
55.015519843977209
 30
0.0
 40
1.0
 50
245.45454545454609
 51
65.454545454546107
  0
LINE
  5
BB3
  8
0
 10
60.500168931253143
 20
54.105887848623517
 30
0.0
 11
60.46220156771534
 21
54.123226962570961
 31
0.0
  0
LINE
  5
BB4
  8
0
 10
61.330998957256149
 20
55.925151839330908
 30
0.0
 11
61.293031593718503
 21
55.942490953278281
 31
0.0
  0
ARC
  5
BB5
  8
0
 10
59.068994892251453
 20
52.142171192656328
 30
0.0
 40
1.0
 50
229.0909090909083
 51
49.090909090908227
  0
LINE
  5
BB6
  8
0
 10
58.414134158306751
 20
51.386421618302769
 30
0.0
 11
58.382589732671363
 21
51.41375501871007
 31
0.0
  0
LINE
  5
BB7
  8
0
 10
59.723855626196148
 20
52.897920767009921
 30
0.0
 11
59.692311200560852
 21
52.925254167417123
 31
0.0
  0
ARC
  5
BB8
  8
0
 10
56.48768980946744
 20
49.905457606025479
 30
0.0
 40
1.0
 50
212.72727272727241
 51
32.727272727272428
  0
LINE
  5
BB9
  8
0
 10
55.646436276637019
 20
49.364816788570359
 30
0.0
 11
55.623870330667067
 21
49.399930085894511
 31
0.0
  0
LINE
  5
BBA
  8
0
 10
57.328943342297862
 20
50.446098423480578
 30
0.0
 11
57.306377396328003
 21
50.481211720804609
 31
0.0
  0
ARC
  5
BBB
  8
0
 10
53.380790682097313
 20
48.486584316625631
 30
0.0
 40
1.0
 50
196.36363636363669
 51
16.363636363636719
  0
LINE
  5
BBC
  8
0
 10
52.421297708483678
 20
48.204851759784461
 30
0.0
 11
52.40953840091683
 21
48.244900283503071
 31
0.0
  0
LINE
  5
BBD
  8
0
 10
54.34028365571092
 20
48.768316873466802
 30
0.0
 11
54.328524348144128
 21
48.80836539718527
 31
0.0
  0
ARC
  5
BBE
  8
0
 10
50.0
 20
48.000499999999569
 30
0.0
 40
1.0
 50
180.0
 51
0.0
  0
LINE
  5
BBF
  8
0
 10
49.000000000000902
 20
48.000499999999569
 30
0.0
 11
49.000000000000902
 21
48.042239256898711
 31
0.0
  0
LINE
  5
BC0
  8
0
 10
50.999999999999091
 20
48.000499999999569
 30
0.0
 11
50.999999999999091
 21
48.042239256898569
 31
0.0
  0
ARC
  5
BC1
  8
0
 10
46.619209317902737
 20
48.486584316625631
 30
0.0
 40
1.0
 50
163.63636363636331
 51
343.63636363636328
  0
LINE
  5
BC2
  8
0
 10
45.659716344289109
 20
48.768316873466802
 30
0.0
 11
45.67147565185595
 21
48.808365397185412
 31
0.0
  0
LINE
  5
BC3
  8
0
 10
47.57870229151635
 20
48.204851759784461
 30
0.0
 11
47.59046159908317
 21
48.244900283502929
 31
0.0
  0
ARC
  5
BC4
  8
0
 10
43.51231019053261
 20
49.905457606025479
 30
0.0
 40
1.0
 50
147.27272727272771
 51
327.27272727272782
  0
LINE
  5
BC5
  8
0
 10
42.671056657702188
 20
50.446098423480578
 30
0.0
 11
42.693622603672139
 21
50.481211720804723
 31
0.0
  0
LINE
  5
BC6
  8
0
 10
44.353563723363031
 20
49.364816788570359
 30
0.0
 11
44.37612966933289
 21
49.39993008589439
 31
0.0
  0
ARC
  5
BC7
  8
0
 10
40.931005107748597
 20
52.142171192656299
 30
0.0
 40
1.0
 50
130.9090909090917
 51
310.90909090909167
  0
LINE
  5
BC8
  8
0
 10
40.276144373803902
 20
52.897920767009879
 30
0.0
 11
40.307688799439291
 21
52.925254167417172
 31
0.0
  0
LINE
  5
BC9
  8
0
 10
41.585865841693298
 20
51.386421618302727
 30
0.0
 11
41.617410267328573
 21
51.413755018709928
 31
0.0
  0
ARC
  5
BCA
  8
0
 10
39.084416055745407
 20
55.015519843977181
 30
0.0
 40
1.0
 50
114.54545454545389
 51
294.54545454545388
  0
LINE
  5
BCB
  8
0
 10
38.669001042743872
 20
55.925151839330873
 30
0.0
 11
38.706968406281653
 21
55.942490953278323
 31
0.0
  0
LINE
  5
BCC
  8
0
 10
39.499831068746921
 20
54.105887848623489
 30
0.0
 11
39.537798432284553
 21
54.123226962570882
 31
0.0
  0
ARC
  5
BCD
  8
0
 10
38.122142697428387
 20
58.292721940720511
 30
0.0
 40
1.0
 50
98.181818181817818
 51
278.1818181818179
  0
LINE
  5
BCE
  8
0
 10
37.979827859155222
 20
59.282543382600551
 30
0.0
 11
38.021142270602191
 21
59.288483498195802
 31
0.0
  0
LINE
  5
BCF
  8
0
 10
38.264457535701531
 20
57.302900498840472
 30
0.0
 11
38.305771947148337
 21
57.308840614435709
 31
0.0
  0
ARC
  5
BD0
  8
0
 10
38.122142697428387
 20
61.708278059279479
 30
0.0
 40
1.0
 50
81.818181818182182
 51
261.81818181818221
  0
LINE
  5
BD1
  8
0
 10
38.264457535701553
 20
62.698099501159497
 30
0.0
 11
38.305771947148479
 21
62.692159385564253
 31
0.0
  0
LINE
  5
BD2
  8
0
 10
37.97982785915525
 20
60.71845661739944
 30
0.0
 11
38.021142270602013
 21
60.71251650180421
 31
0.0
  0
ARC
  5
BD3
  8
0
 10
39.084416055745407
 20
64.985480156022817
 30
0.0
 40
1.0
 50
65.454545454546107
 51
245.45454545454609
  0
LINE
  5
BD4
  8
0
 10
39.499831068746921
 20
65.895112151376509
 30
0.0
 11
39.53779843228466
 21
65.877773037429066
 31
0.0
  0
LINE
  5
BD5
  8
0
 10
38.669001042743901
 20
64.075848160669125
 30
0.0
 11
38.706968406281533
 21
64.058509046721738
 31
0.0
  0
ARC
  5
BD6
  8
0
 10
40.931005107748597
 20
67.858828807343684
 30
0.0
 40
1.0
 50
49.090909090908227
 51
229.0909090909083
  0
LINE
  5
BD7
  8
0
 10
41.58586584169327
 20
68.614578381697257
 30
0.0
 11
41.617410267328658
 21
68.58724498128997
 31
0.0
  0
LINE
  5
BD8
  8
0
 10
40.276144373803902
 20
67.10307923299014
 30
0.0
 11
40.30768879943917
 21
67.075745832582939
 31
0.0
  0
ARC
  5
BD9
  8
0
 10
43.51231019053261
 20
70.09554239397454
 30
0.0
 40
1.0
 50
32.727272727272251
 51
212.72727272727221
  0
LINE
  5
BDA
  8
0
 10
44.353563723363031
 20
70.636183211429639
 30
0.0
 11
44.376129669332947
 21
70.601069914105494
 31
0.0
  0
LINE
  5
BDB
  8
0
 10
42.671056657702188
 20
69.554901576519427
 30
0.0
 11
42.693622603672047
 21
69.519788279195396
 31
0.0
  0
ARC
  5
BDC
  8
0
 10
46.619209317902737
 20
71.514415683374381
 30
0.0
 40
1.0
 50
16.363636363636719
 51
196.36363636363669
  0
LINE
  5
BDD
  8
0
 10
47.57870229151635
 20
71.796148240215544
 30
0.0
 11
47.590461599083199
 21
71.756099716496948
 31
0.0
  0
LINE
  5
BDE
  8
0
 10
45.659716344289109
 20
71.232683126533217
 30
0.0
 11
45.671475651855921
 21
71.192634602814735
 31
0.0
  0
LINE
  5
BDF
  8
0
 10
49.000000000000902
 20
72.000500000000429
 30
0.0
 11
49.000000000000902
 21
71.958760743101436
 31
0.0
  0
LINE
  5
BE0
  8
0
 10
50.999999999999091
 20
72.000500000000429
 30
0.0
 11
50.999999999999091
 21
71.958760743101294
 31
0.0
  0
ARC
  5
BE1
  8
0
 10
50.0
 20
72.000500000000429
 30
0.0
 40
1.0
 50
0.0
 51
180.0
  0
CIRCLE
  5
BE2
  8
0
 10
50.0
 20
60.000500000000002
 30
0.0
 40
12.0
  0
LINE
  5
BE3
  8
1
 10
124.4999999999997
 20
60.000500000000002
 30
0.0
 11
85.500000000000227
 21
60.000500000000002
 31
0.0
  0
LINE
  5
BE4
  8
1
 10
34.500000000000853
 20
60.000500000000002
 30
0.0
 11
65.499999999999091
 21
60.000500000000002
 31
0.0
  0
LINE
  5
BE5
  8
1
 10
50.0
 20
44.500500000000848
 30
0.0
 11
50.0
 21
75.500499999999121
 31
0.0
  0
LINE
  5
BE6
  8
1
 10
160.0
 20
44.500500000001061
 30
0.0
 11
160.0
 21
75.500499999999064
 31
0.0
  0
LINE
  5
BE7
  8
1
 10
144.50000000000091
 20
60.000500000000002
 30
0.0
 11
175.49999999999909
 21
60.000500000000002
 31
0.0
  0
CIRCLE
  5
BE8
  8
0
 10
160.0
 20
60.000500000000002
 30
0.0
 40
12.0
  0
ARC
  5
BE9
  8
0
 10
160.0
 20
72.000500000000429
 30
0.0
 40
1.0
 50
0.0
 51
180.0
  0
LINE
  5
BEA
  8
0
 10
160.99999999999909
 20
72.000500000000429
 30
0.0
 11
160.99999999999909
 21
71.958760743101294
 31
0.0
  0
LINE
  5
BEB
  8
0
 10
159.00000000000091
 20
72.000500000000429
 30
0.0
 11
159.00000000000091
 21
71.958760743101436
 31
0.0
  0
LINE
  5
BEC
  8
0
 10
155.65971634428911
 20
71.232683126533217
 30
0.0
 11
155.6714756518559
 21
71.192634602814735
 31
0.0
  0
LINE
  5
BED
  8
0
 10
157.57870229151641
 20
71.796148240215544
 30
0.0
 11
157.5904615990832
 21
71.756099716496948
 31
0.0
  0
ARC
  5
BEE
  8
0
 10
156.61920931790269
 20
71.514415683374381
 30
0.0
 40
1.0
 50
16.363636363636719
 51
196.36363636363669
  0
LINE
  5
BEF
  8
0
 10
152.6710566577022
 20
69.554901576519427
 30
0.0
 11
152.693622603672
 21
69.519788279195396
 31
0.0
  0
LINE
  5
BF0
  8
0
 10
154.35356372336301
 20
70.636183211429639
 30
0.0
 11
154.3761296693329
 21
70.601069914105494
 31
0.0
  0
ARC
  5
BF1
  8
0
 10
153.51231019053259
 20
70.09554239397454
 30
0.0
 40
1.0
 50
32.727272727272251
 51
212.72727272727221
  0
LINE
  5
BF2
  8
0
 10
150.2761443738039
 20
67.10307923299014
 30
0.0
 11
150.30768879943921
 21
67.075745832582939
 31
0.0
  0
LINE
  5
BF3
  8
0
 10
151.58586584169319
 20
68.614578381697257
 30
0.0
 11
151.61741026732861
 21
68.58724498128997
 31
0.0
  0
ARC
  5
BF4
  8
0
 10
150.9310051077486
 20
67.858828807343684
 30
0.0
 40
1.0
 50
49.090909090908227
 51
229.0909090909083
  0
LINE
  5
BF5
  8
0
 10
148.6690010427439
 20
64.075848160669125
 30
0.0
 11
148.7069684062815
 21
64.058509046721738
 31
0.0
  0
LINE
  5
BF6
  8
0
 10
149.49983106874689
 20
65.895112151376509
 30
0.0
 11
149.5377984322846
 21
65.877773037429066
 31
0.0
  0
ARC
  5
BF7
  8
0
 10
149.08441605574541
 20
64.985480156022817
 30
0.0
 40
1.0
 50
65.454545454546107
 51
245.45454545454609
  0
LINE
  5
BF8
  8
0
 10
147.97982785915519
 20
60.71845661739944
 30
0.0
 11
148.02114227060201
 21
60.71251650180421
 31
0.0
  0
LINE
  5
BF9
  8
0
 10
148.26445753570161
 20
62.698099501159497
 30
0.0
 11
148.30577194714849
 21
62.692159385564253
 31
0.0
  0
ARC
  5
BFA
  8
0
 10
148.12214269742839
 20
61.708278059279479
 30
0.0
 40
1.0
 50
81.818181818182182
 51
261.81818181818221
  0
LINE
  5
BFB
  8
0
 10
148.2644575357015
 20
57.302900498840472
 30
0.0
 11
148.30577194714829
 21
57.308840614435709
 31
0.0
  0
LINE
  5
BFC
  8
0
 10
147.97982785915519
 20
59.282543382600551
 30
0.0
 11
148.02114227060221
 21
59.288483498195802
 31
0.0
  0
ARC
  5
BFD
  8
0
 10
148.12214269742839
 20
58.292721940720511
 30
0.0
 40
1.0
 50
98.181818181817818
 51
278.1818181818179
  0
LINE
  5
BFE
  8
0
 10
149.49983106874689
 20
54.105887848623489
 30
0.0
 11
149.53779843228449
 21
54.123226962570882
 31
0.0
  0
LINE
  5
BFF
  8
0
 10
148.66900104274379
 20
55.925151839330873
 30
0.0
 11
148.70696840628159
 21
55.942490953278323
 31
0.0
  0
ARC
  5
C00
  8
0
 10
149.08441605574541
 20
55.015519843977181
 30
0.0
 40
1.0
 50
114.54545454545389
 51
294.54545454545388
  0
LINE
  5
C01
  8
0
 10
151.58586584169331
 20
51.386421618302727
 30
0.0
 11
151.61741026732861
 21
51.413755018709928
 31
0.0
  0
LINE
  5
C02
  8
0
 10
150.2761443738039
 20
52.897920767009879
 30
0.0
 11
150.30768879943929
 21
52.925254167417172
 31
0.0
  0
ARC
  5
C03
  8
0
 10
150.9310051077486
 20
52.142171192656299
 30
0.0
 40
1.0
 50
130.9090909090917
 51
310.90909090909167
  0
LINE
  5
C04
  8
0
 10
154.35356372336301
 20
49.364816788570359
 30
0.0
 11
154.3761296693329
 21
49.39993008589439
 31
0.0
  0
LINE
  5
C05
  8
0
 10
152.6710566577022
 20
50.446098423480578
 30
0.0
 11
152.69362260367211
 21
50.481211720804723
 31
0.0
  0
ARC
  5
C06
  8
0
 10
153.51231019053259
 20
49.905457606025479
 30
0.0
 40
1.0
 50
147.27272727272771
 51
327.27272727272782
  0
LINE
  5
C07
  8
0
 10
157.57870229151641
 20
48.204851759784461
 30
0.0
 11
157.59046159908311
 21
48.244900283502929
 31
0.0
  0
LINE
  5
C08
  8
0
 10
155.65971634428911
 20
48.768316873466802
 30
0.0
 11
155.67147565185601
 21
48.808365397185412
 31
0.0
  0
ARC
  5
C09
  8
0
 10
156.61920931790269
 20
48.486584316625631
 30
0.0
 40
1.0
 50
163.63636363636331
 51
343.63636363636328
  0
LINE
  5
C0A
  8
0
 10
160.99999999999909
 20
48.000499999999569
 30
0.0
 11
160.99999999999909
 21
48.042239256898569
 31
0.0
  0
LINE
  5
C0B
  8
0
 10
159.00000000000091
 20
48.000499999999569
 30
0.0
 11
159.00000000000091
 21
48.042239256898711
 31
0.0
  0
ARC
  5
C0C
  8
0
 10
160.0
 20
48.000499999999569
 30
0.0
 40
1.0
 50
180.0
 51
0.0
  0
LINE
  5
C0D
  8
0
 10
164.34028365571089
 20
48.768316873466802
 30
0.0
 11
164.3285243481441
 21
48.80836539718527
 31
0.0
  0
LINE
  5
C0E
  8
0
 10
162.42129770848371
 20
48.204851759784461
 30
0.0
 11
162.4095384009168
 21
48.244900283503071
 31
0.0
  0
ARC
  5
C0F
  8
0
 10
163.38079068209731
 20
48.486584316625631
 30
0.0
 40
1.0
 50
196.36363636363669
 51
16.363636363636719
  0
LINE
  5
C10
  8
0
 10
167.3289433422978
 20
50.446098423480578
 30
0.0
 11
167.306377396328
 21
50.481211720804609
 31
0.0
  0
LINE
  5
C11
  8
0
 10
165.64643627663699
 20
49.364816788570359
 30
0.0
 11
165.62387033066699
 21
49.399930085894511
 31
0.0
  0
ARC
  5
C12
  8
0
 10
166.48768980946741
 20
49.905457606025479
 30
0.0
 40
1.0
 50
212.72727272727241
 51
32.727272727272428
  0
LINE
  5
C13
  8
0
 10
169.7238556261961
 20
52.897920767009921
 30
0.0
 11
169.69231120056091
 21
52.925254167417123
 31
0.0
  0
LINE
  5
C14
  8
0
 10
168.41413415830669
 20
51.386421618302769
 30
0.0
 11
168.38258973267131
 21
51.41375501871007
 31
0.0
  0
ARC
  5
C15
  8
0
 10
169.0689948922514
 20
52.142171192656328
 30
0.0
 40
1.0
 50
229.0909090909083
 51
49.090909090908227
  0
LINE
  5
C16
  8
0
 10
171.3309989572561
 20
55.925151839330908
 30
0.0
 11
171.2930315937185
 21
55.942490953278281
 31
0.0
  0
LINE
  5
C17
  8
0
 10
170.50016893125311
 20
54.105887848623517
 30
0.0
 11
170.46220156771531
 21
54.123226962570961
 31
0.0
  0
ARC
  5
C18
  8
0
 10
170.91558394425459
 20
55.015519843977209
 30
0.0
 40
1.0
 50
245.45454545454609
 51
65.454545454546107
  0
LINE
  5
C19
  8
0
 10
172.02017214084481
 20
59.282543382600572
 30
0.0
 11
171.97885772939799
 21
59.288483498195781
 31
0.0
  0
LINE
  5
C1A
  8
0
 10
171.7355424642985
 20
57.302900498840501
 30
0.0
 11
171.69422805285151
 21
57.308840614435752
 31
0.0
  0
ARC
  5
C1B
  8
0
 10
171.87785730257161
 20
58.292721940720533
 30
0.0
 40
1.0
 50
261.81818181818221
 51
81.818181818182182
  0
LINE
  5
C1C
  8
0
 10
171.7355424642985
 20
62.698099501159547
 30
0.0
 11
171.6942280528516
 21
62.692159385564317
 31
0.0
  0
LINE
  5
C1D
  8
0
 10
172.02017214084481
 20
60.718456617399482
 30
0.0
 11
171.97885772939779
 21
60.712516501804231
 31
0.0
  0
ARC
  5
C1E
  8
0
 10
171.87785730257161
 20
61.708278059279522
 30
0.0
 40
1.0
 50
278.1818181818179
 51
98.181818181817818
  0
LINE
  5
C1F
  8
0
 10
170.500168931253
 20
65.895112151376523
 30
0.0
 11
170.4622015677154
 21
65.877773037429137
 31
0.0
  0
LINE
  5
C20
  8
0
 10
171.3309989572561
 20
64.075848160669139
 30
0.0
 11
171.2930315937183
 21
64.058509046721696
 31
0.0
  0
ARC
  5
C21
  8
0
 10
170.91558394425459
 20
64.985480156022831
 30
0.0
 40
1.0
 50
294.54545454545388
 51
114.54545454545389
  0
LINE
  5
C22
  8
0
 10
168.41413415830669
 20
68.614578381697299
 30
0.0
 11
168.38258973267151
 21
68.587244981290098
 31
0.0
  0
LINE
  5
C23
  8
0
 10
169.7238556261961
 20
67.103079232990154
 30
0.0
 11
169.69231120056071
 21
67.075745832582854
 31
0.0
  0
ARC
  5
C24
  8
0
 10
169.0689948922514
 20
67.858828807343727
 30
0.0
 40
1.0
 50
310.90909090909167
 51
130.9090909090917
  0
LINE
  5
C25
  8
0
 10
165.6464362766369
 20
70.636183211429653
 30
0.0
 11
165.6238703306671
 21
70.601069914105622
 31
0.0
  0
LINE
  5
C26
  8
0
 10
167.3289433422978
 20
69.554901576519441
 30
0.0
 11
167.30637739632789
 21
69.519788279195296
 31
0.0
  0
ARC
  5
C27
  8
0
 10
166.4876898094673
 20
70.09554239397454
 30
0.0
 40
1.0
 50
327.27272727272782
 51
147.27272727272771
  0
LINE
  5
C28
  8
0
 10
162.42129770848359
 20
71.796148240215544
 30
0.0
 11
162.4095384009168
 21
71.75609971649709
 31
0.0
  0
LINE
  5
C29
  8
0
 10
164.34028365571089
 20
71.232683126533217
 30
0.0
 11
164.32852434814399
 21
71.192634602814607
 31
0.0
  0
ARC
  5
C2A
  8
0
 10
163.3807906820972
 20
71.514415683374381
 30
0.0
 40
1.0
 50
343.63636363636328
 51
163.6363636363634
  0
CIRCLE
  5
C2B
  8
0
 10
160.0
 20
60.000500000000002
 30
0.0
 40
3.0
  0
CIRCLE
  5
C2C
  8
3
 10
160.0
 20
60.000500000000002
 30
0.0
 40
2.458499999999999
  0
CIRCLE
  5
C2D
  8
0
 10
160.0
 20
60.000500000000002
 30
0.0
 40
4.5000000000000142
  0
LINE
  5
C2E
  8
0
 10
120.9999999999997
 20
57.000500000000002
 30
0.0
 11
120.9999999999997
 21
63.000500000000002
 31
0.0
  0
LINE
  5
C2F
  8
0
 10
121.9999999999997
 20
58.000500000000002
 30
0.0
 11
121.9999999999997
 21
62.000500000000002
 31
0.0
  0
LINE
  5
C30
  8
0
 10
121.9999999999997
 20
62.000500000000002
 30
0.0
 11
120.9999999999997
 21
63.000500000000002
 31
0.0
  0
LINE
  5
C31
  8
0
 10
120.9999999999997
 20
63.000500000000002
 30
0.0
 11
105.9999999999998
 21
63.000500000000002
 31
0.0
  0
LINE
  5
C32
  8
3
 10
121.5414999999997
 20
62.459000000000117
 30
0.0
 11
106.9379055122981
 21
62.459000000000117
 31
0.0
  0
LINE
  5
C33
  8
3
 10
121.5414999999997
 20
57.541999999999888
 30
0.0
 11
106.9379055122981
 21
57.541999999999888
 31
0.0
  0
LINE
  5
C34
  8
0
 10
120.9999999999997
 20
57.000500000000002
 30
0.0
 11
105.9999999999998
 21
57.000500000000002
 31
0.0
  0
LINE
  5
C35
  8
0
 10
121.9999999999997
 20
58.000500000000002
 30
0.0
 11
120.9999999999997
 21
57.000500000000002
 31
0.0
  0
LINE
  5
C36
  8
0
 10
106.9379055122981
 20
57.000499999999988
 30
0.0
 11
106.9379055122981
 21
63.000499999999981
 31
0.0
  0
LINE
  5
C37
  8
3
 10
106.9379055122981
 20
62.459000000000117
 30
0.0
 11
105.9999999999998
 21
63.000500000000002
 31
0.0
  0
LINE
  5
C38
  8
3
 10
106.9379055122981
 20
57.541999999999888
 30
0.0
 11
105.9999999999998
 21
57.000499999999988
 31
0.0
  0
POLYLINE
  5
C3A
  8
0
 66
     1
 10
0.0
 20
0.0
 30
0.0
  0
VERTEX
  5
C3B
  8
0
 10
97.899999999999807
 20
71.192634602814749
 30
0.0
 42
0.0669004313872827
  0
VERTEX
  5
C3C
  8
0
 10
98.298129219265775
 20
71.246144126697075
 30
0.0
 42
0.0793633770256028
  0
VERTEX
  5
C3D
  8
0
 10
98.607106781186346
 20
71.386204960440708
 30
0.0
 42
0.1071437047895626
 70
     2
 50
33.460338705205132
  0
VERTEX
  5
C3E
  8
0
 10
98.846889469698056
 20
71.63184599636692
 30
0.0
 42
0.1637949989581226
 50
33.460338705205132
  0
VERTEX
  5
C3F
  8
0
 10
98.899999999999807
 20
71.853525143094615
 30
0.0
 42
0.1408854874538012
  0
VERTEX
  5
C40
  8
0
 10
98.831840368172436
 20
72.090621069538386
 30
0.0
 42
0.1071437047895118
  0
VERTEX
  5
C41
  8
0
 10
98.607106781186303
 20
72.320845325748465
 30
0.0
 42
0.0793633770255481
 70
     2
 50
146.5396612947973
  0
VERTEX
  5
C42
  8
0
 10
98.298129219265832
 20
72.460906159492097
 30
0.0
 42
0.0669004313872653
 50
146.5396612947973
  0
VERTEX
  5
C43
  8
0
 10
97.899999999999764
 20
72.514415683374366
 30
0.0
 42
0.066900431387258
  0
SEQEND
  5
C44
  8
0
  0
POLYLINE
  5
C45
  8
0
 66
     1
 10
0.0
 20
0.0
 30
0.0
  0
VERTEX
  5
C46
  8
0
 10
97.899999999999807
 20
64.058509046721682
 30
0.0
 42
0.0952163432260962
  0
VERTEX
  5
C47
  8
0
 10
98.284415162976813
 20
64.132384020664418
 30
0.0
 42
0.0970739481124141
  0
VERTEX
  5
C48
  8
0
 10
98.607106781186303
 20
64.340707432103571
 30
0.0
 42
0.0998219286546509
 70
     2
 50
43.934607654468422
  0
VERTEX
  5
C49
  8
0
 10
98.842915191891393
 20
64.681710407466412
 30
0.0
 42
0.1204853695876511
 50
43.934607654468422
  0
VERTEX
  5
C4A
  8
0
 10
98.89999999999975
 20
65.02199460137227
 30
0.0
 42
0.101855913339355
  0
VERTEX
  5
C4B
  8
0
 10
98.824459578462722
 20
65.388967491718276
 30
0.0
 42
0.0998219286545923
  0
VERTEX
  5
C4C
  8
0
 10
98.607106781186303
 20
65.70328177064097
 30
0.0
 42
0.0970739481123782
 70
     2
 50
136.06539234553151
  0
VERTEX
  5
C4D
  8
0
 10
98.28441516297687
 20
65.911605182080123
 30
0.0
 42
0.0952163432260542
 50
136.06539234553151
  0
VERTEX
  5
C4E
  8
0
 10
97.899999999999807
 20
65.985480156022831
 30
0.0
 42
0.0952163432260713
  0
SEQEND
  5
C4F
  8
0
  0
POLYLINE
  5
C50
  8
0
 66
     1
 10
0.0
 20
0.0
 30
0.0
  0
VERTEX
  5
C51
  8
0
 10
97.899999999999807
 20
67.075745832582911
 30
0.0
 42
0.0886697977179422
  0
VERTEX
  5
C52
  8
0
 10
98.287800426404104
 20
67.145063199534874
 30
0.0
 42
0.093866275823185
  0
VERTEX
  5
C53
  8
0
 10
98.607106781186303
 20
67.336872288527474
 30
0.0
 42
0.1022901095122429
 70
     2
 50
41.718328274389819
  0
VERTEX
  5
C54
  8
0
 10
98.843425646297135
 20
67.655067604558965
 30
0.0
 42
0.1285391797684332
 50
41.718328274389819
  0
VERTEX
  5
C55
  8
0
 10
98.89999999999975
 20
67.967287319963305
 30
0.0
 42
0.1091635129316081
  0
VERTEX
  5
C56
  8
0
 10
98.825754432878185
 20
68.303300723340371
 30
0.0
 42
0.1022901095122636
  0
VERTEX
  5
C57
  8
0
 10
98.607106781186303
 20
68.59770235139915
 30
0.0
 42
0.0938662758231421
 70
     2
 50
138.28167172561021
  0
VERTEX
  5
C58
  8
0
 10
98.287800426404203
 20
68.789511440391735
 30
0.0
 42
0.0886697977178873
 50
138.28167172561021
  0
VERTEX
  5
C59
  8
0
 10
97.899999999999807
 20
68.858828807342391
 30
0.0
 42
0.0886697977179307
  0
SEQEND
  5
C5A
  8
0
  0
POLYLINE
  5
C5B
  8
0
 66
     1
 10
0.0
 20
0.0
 30
0.0
  0
VERTEX
  5
C5C
  8
0
 10
97.899999999999807
 20
69.519788279195339
 30
0.0
 42
0.0790268670844965
  0
VERTEX
  5
C5D
  8
0
 10
98.292572062987702
 20
69.582225696695474
 30
0.0
 42
0.0881908777093831
  0
VERTEX
  5
C5E
  8
0
 10
98.607106781186346
 20
69.750552126563448
 30
0.0
 42
0.1052534176826681
 70
     2
 50
38.233764002295132
  0
VERTEX
  5
C5F
  8
0
 10
98.844562406237984
 20
70.036068294216577
 30
0.0
 42
0.142284125671063
 50
38.233764002295132
  0
VERTEX
  5
C60
  8
0
 10
98.899999999999807
 20
70.307665336584947
 30
0.0
 42
0.121599590368167
  0
VERTEX
  5
C61
  8
0
 10
98.828057710399605
 20
70.599107592150617
 30
0.0
 42
0.1052534176826778
  0
VERTEX
  5
C62
  8
0
 10
98.607106781186346
 20
70.864778546606445
 30
0.0
 42
0.0881908777094005
 70
     2
 50
141.76623599770491
  0
VERTEX
  5
C63
  8
0
 10
98.292572062987702
 20
71.033104976474377
 30
0.0
 42
0.0790268670844963
 50
141.76623599770491
  0
VERTEX
  5
C64
  8
0
 10
97.899999999999807
 20
71.095542393974554
 30
0.0
 42
0.0790268670844787
  0
SEQEND
  5
C65
  8
0
  0
POLYLINE
  5
C66
  8
0
 66
     1
 10
0.0
 20
0.0
 30
0.0
  0
VERTEX
  5
C67
  8
0
 10
97.899999999999807
 20
60.712516501804267
 30
0.0
 42
0.098302216645778
  0
VERTEX
  5
C68
  8
0
 10
98.282784109109059
 20
60.788507884133949
 30
0.0
 42
0.0984128381818726
  0
VERTEX
  5
C69
  8
0
 10
98.607106781186303
 20
61.004789015080817
 30
0.0
 42
0.0985696857141959
 70
     2
 50
44.939224407212613
  0
VERTEX
  5
C6A
  8
0
 10
98.842733176883655
 20
61.356738390006612
 30
0.0
 42
0.1169875491068659
 50
44.939224407212613
  0
VERTEX
  5
C6B
  8
0
 10
98.89999999999975
 20
61.710397280541891
 30
0.0
 42
0.098680881080023
  0
VERTEX
  5
C6C
  8
0
 10
98.823911915867996
 20
62.092169027576951
 30
0.0
 42
0.0985696857141574
  0
VERTEX
  5
C6D
  8
0
 10
98.607106781186303
 20
62.416005546002978
 30
0.0
 42
0.0984128381818828
 70
     2
 50
135.06077559278739
  0
VERTEX
  5
C6E
  8
0
 10
98.282784109109059
 20
62.632286676949811
 30
0.0
 42
0.0983022166457899
 50
135.06077559278739
  0
VERTEX
  5
C6F
  8
0
 10
97.899999999999807
 20
62.708278059279522
 30
0.0
 42
0.0983022166457671
  0
SEQEND
  5
C70
  8
0
  0
ARC
  5
C71
  8
0
 10
97.899999999999807
 20
72.000499999999093
 30
0.0
 40
1.0
 50
0.0000000000455964
 51
90.0
  0
LINE
  5
C72
  8
0
 10
90.850776405003487
 20
48.000500000000123
 30
0.0
 11
90.850776405003487
 21
72.000499999999889
 31
0.0
  0
LINE
  5
C73
  8
0
 10
98.875113955572658
 20
72.000499999999889
 30
0.0
 11
99.399999999999764
 21
72.000499999999889
 31
0.0
  0
LINE
  5
C74
  8
0
 10
91.850275029037064
 20
72.514415683374366
 30
0.0
 11
97.899999999999764
 21
72.514415683374366
 31
0.0
  0
LINE
  5
C75
  8
0
 10
90.850776405003487
 20
71.192634602814749
 30
0.0
 11
97.899999999999807
 21
71.192634602814749
 31
0.0
  0
LINE
  5
C76
  8
0
 10
91.844469611167327
 20
71.095542393974554
 30
0.0
 11
97.899999999999807
 21
71.095542393974554
 31
0.0
  0
LINE
  5
C77
  8
0
 10
91.821665758782501
 20
68.858828807343727
 30
0.0
 11
97.899999999999807
 21
68.858828807343727
 31
0.0
  0
LINE
  5
C78
  8
0
 10
90.850776405003487
 20
69.519788279195339
 30
0.0
 11
97.899999999999807
 21
69.519788279195339
 31
0.0
  0
LINE
  5
C79
  8
0
 10
90.850776405003487
 20
67.075745832582911
 30
0.0
 11
97.899999999999807
 21
67.075745832582911
 31
0.0
  0
LINE
  5
C7A
  8
0
 10
91.752685925496451
 20
65.985480156022831
 30
0.0
 11
97.899999999999807
 21
65.985480156022831
 31
0.0
  0
LINE
  5
C7B
  8
0
 10
90.850776405003487
 20
64.058509046721682
 30
0.0
 11
97.899999999999807
 21
64.058509046721682
 31
0.0
  0
LINE
  5
C7C
  8
0
 10
90.850776405003487
 20
62.708278059279522
 30
0.0
 11
97.899999999999807
 21
62.708278059279522
 31
0.0
  0
LINE
  5
C7D
  8
0
 10
90.850776405003487
 20
60.712516501804267
 30
0.0
 11
97.899999999999807
 21
60.712516501804267
 31
0.0
  0
LINE
  5
C7E
  8
0
 10
91.850776405003515
 20
73.000499999999064
 30
0.0
 11
97.899999999999807
 21
73.000499999999093
 31
0.0
  0
LINE
  5
C7F
  8
0
 10
104.9499999999997
 20
69.500500000000002
 30
0.0
 11
104.9499999999997
 21
50.500500000000031
 31
0.0
  0
LINE
  5
C80
  8
0
 10
105.9999999999998
 20
64.500500000000002
 30
0.0
 11
105.6999999999997
 21
64.500500000000002
 31
0.0
  0
LINE
  5
C81
  8
0
 10
105.6999999999997
 20
68.750500000000002
 30
0.0
 11
105.6999999999997
 21
51.250500000000081
 31
0.0
  0
LINE
  5
C82
  8
0
 10
99.999999999999716
 20
48.60050000000011
 30
0.0
 11
99.999999999999716
 21
71.400499999999894
 31
0.0
  0
LINE
  5
C83
  8
0
 10
89.750776405003535
 20
72.000499999999889
 30
0.0
 11
90.850776405003487
 21
72.000499999999889
 31
0.0
  0
ARC
  5
C84
  8
0
 10
99.399999999999764
 20
71.400499999999894
 30
0.0
 40
0.6
 50
0.0
 51
90.0
  0
LINE
  5
C85
  8
0
 10
104.9499999999997
 20
69.500500000000002
 30
0.0
 11
99.999999999999716
 21
69.500500000000002
 31
0.0
  0
LINE
  5
C86
  8
0
 10
105.6999999999997
 20
68.750500000000002
 30
0.0
 11
104.9499999999997
 21
69.500500000000002
 31
0.0
  0
LINE
  5
C87
  8
0
 10
89.750776405003592
 20
48.000500000000123
 30
0.0
 11
89.750776405003592
 21
72.000499999999889
 31
0.0
  0
ARC
  5
C88
  8
0
 10
129.99999999999969
 20
60.000500000000002
 30
0.0
 40
42.0
 50
163.3984504009801
 51
196.60154959901979
  0
LINE
  5
C89
  8
0
 10
105.6999999999997
 20
51.250500000000002
 30
0.0
 11
104.9499999999997
 21
50.500500000000002
 31
0.0
  0
LINE
  5
C8A
  8
0
 10
104.9499999999997
 20
50.500500000000002
 30
0.0
 11
99.999999999999716
 21
50.500500000000002
 31
0.0
  0
ARC
  5
C8B
  8
0
 10
99.399999999999764
 20
48.60050000000011
 30
0.0
 40
0.6
 50
270.0
 51
0.0
  0
LINE
  5
C8C
  8
0
 10
105.9999999999997
 20
55.500500000000002
 30
0.0
 11
105.6999999999997
 21
55.500500000000002
 31
0.0
  0
LINE
  5
C8D
  8
0
 10
105.9999999999998
 20
64.500500000000002
 30
0.0
 11
105.9999999999997
 21
55.500500000000002
 31
0.0
  0
LINE
  5
C8E
  8
0
 10
90.850776405003487
 20
72.00049999999986
 30
0.0
 11
91.850776405003515
 21
73.000499999999064
 31
0.0
  0
POLYLINE
  5
C8F
  8
0
 66
     1
 10
0.0
 20
0.0
 30
0.0
  0
VERTEX
  5
C90
  8
0
 10
91.850776405003515
 20
61.850592897552829
 30
0.0
 42
0.1129541415555506
  0
VERTEX
  5
C91
  8
0
 10
91.777220230808439
 20
62.172040595657577
 30
0.0
 42
0.1033526290475138
  0
VERTEX
  5
C92
  8
0
 10
91.557883186190054
 20
62.457067891532873
 30
0.0
 42
0.0921549158927182
 70
     2
 50
139.3807981960291
  0
VERTEX
  5
C93
  8
0
 10
91.240152044952694
 20
62.641166993023617
 30
0.0
 42
0.0855471168292982
 50
139.3807981960291
  0
VERTEX
  5
C94
  8
0
 10
90.850776405003487
 20
62.708278059279522
 30
0.0
 42
0.085547116829313
  0
SEQEND
  5
C95
  8
0
  0
POLYLINE
  5
C96
  8
0
 66
     1
 10
0.0
 20
0.0
 30
0.0
  0
VERTEX
  5
C97
  8
0
 10
90.850776405003487
 20
60.712516501804252
 30
0.0
 42
0.1105754961288046
  0
VERTEX
  5
C98
  8
0
 10
91.226885222158145
 20
60.796722926850478
 30
0.0
 42
0.1027028081787415
  0
VERTEX
  5
C99
  8
0
 10
91.557883186189315
 20
61.045851360610648
 30
0.0
 42
0.0932316611711039
 70
     2
 50
48.695014917496898
  0
VERTEX
  5
C9A
  8
0
 10
91.793075198525415
 20
61.442713407496811
 30
0.0
 42
0.1046406765660069
 50
48.695014917496891
  0
VERTEX
  5
C9B
  8
0
 10
91.850776405002478
 20
61.850592897552829
 30
0.0
 42
0.087486245711695
  0
SEQEND
  5
C9C
  8
0
  0
POLYLINE
  5
C9D
  8
0
 66
     1
 10
0.0
 20
0.0
 30
0.0
  0
VERTEX
  5
C9E
  8
0
 10
90.850776405003487
 20
64.058509046721682
 30
0.0
 42
0.1275511589696932
  0
VERTEX
  5
C9F
  8
0
 10
91.217276431148363
 20
64.153550307525094
 30
0.0
 42
0.1061651039332924
  0
VERTEX
  5
CA0
  8
0
 10
91.557883186190054
 20
64.45168483897352
 30
0.0
 42
0.085447083255488
 70
     2
 50
53.316020995599331
  0
VERTEX
  5
CA1
  8
0
 10
91.793002107378584
 20
64.914805154509153
 30
0.0
 42
0.0907458243245316
 50
53.316020995599331
  0
VERTEX
  5
CA2
  8
0
 10
91.850776405003515
 20
65.400895169024707
 30
0.0
 42
0.0749639709484273
  0
VERTEX
  5
CA3
  8
0
 10
91.770931359887115
 20
65.930458552211135
 30
0.0
 42
0.0104494272863164
  0
VERTEX
  5
CA4
  8
0
 10
91.752685925497701
 20
65.985480156022831
 30
0.0
 42
0.1061651039332807
 70
     2
 50
126.6839790044006
  0
SEQEND
  5
CA5
  8
0
  0
POLYLINE
  5
CA6
  8
0
 66
     1
 10
0.0
 20
0.0
 30
0.0
  0
VERTEX
  5
CA7
  8
0
 10
90.850776405003487
 20
67.075745832582911
 30
0.0
 42
0.1351106484703338
  0
VERTEX
  5
CA8
  8
0
 10
91.212900095189809
 20
67.175418886160926
 30
0.0
 42
0.1068916963646837
  0
VERTEX
  5
CA9
  8
0
 10
91.557883186190054
 20
67.496909793898411
 30
0.0
 42
0.0819805859993646
 70
     2
 50
55.183799812925713
  0
VERTEX
  5
CAA
  8
0
 10
91.793094193899094
 20
67.991307800699943
 30
0.0
 42
0.0854524044576932
 50
55.183799812925713
  0
VERTEX
  5
CAB
  8
0
 10
91.850776405003515
 20
68.513689541289025
 30
0.0
 42
0.0420975806111537
  0
VERTEX
  5
CAC
  8
0
 10
91.821665758783354
 20
68.858828807343727
 30
0.0
 42
0.0819805859993421
  0
SEQEND
  5
CAD
  8
0
  0
POLYLINE
  5
CAE
  8
0
 66
     1
 10
0.0
 20
0.0
 30
0.0
  0
VERTEX
  5
CAF
  8
0
 10
90.850776405003487
 20
69.519788279195339
 30
0.0
 42
0.1334752893439902
  0
VERTEX
  5
CB0
  8
0
 10
91.213850734893867
 20
69.618469247542848
 30
0.0
 42
0.1067736914636536
  0
VERTEX
  5
CB1
  8
0
 10
91.557883186190054
 20
69.934820210187254
 30
0.0
 42
0.0827273099433823
 70
     2
 50
54.78890320465932
  0
VERTEX
  5
CB2
  8
0
 10
91.793069508709777
 20
70.422351400968566
 30
0.0
 42
0.0865581525971125
 50
54.788903204659327
  0
VERTEX
  5
CB3
  8
0
 10
91.850776405003515
 20
70.936795926805715
 30
0.0
 42
0.0198565275003651
  0
VERTEX
  5
CB4
  8
0
 10
91.844469611166858
 20
71.095542393974554
 30
0.0
 42
0.0827273099433435
  0
SEQEND
  5
CB5
  8
0
  0
POLYLINE
  5
CB6
  8
0
 66
     1
 10
0.0
 20
0.0
 30
0.0
  0
VERTEX
  5
CB7
  8
0
 10
90.850776405003487
 20
71.192634602814749
 30
0.0
 42
0.1225889545330474
  0
VERTEX
  5
CB8
  8
0
 10
91.220120720911424
 20
71.284571299349935
 30
0.0
 42
0.1054266529349266
  0
VERTEX
  5
CB9
  8
0
 10
91.557883186190054
 20
71.567911084723974
 30
0.0
 42
0.0877347373077107
 70
     2
 50
52.02891796281402
  0
VERTEX
  5
CBA
  8
0
 10
91.792977002891817
 20
72.011119535212075
 30
0.0
 42
0.0944935069643078
 50
52.02891796281402
  0
VERTEX
  5
CBB
  8
0
 10
91.850776405003515
 20
72.473908656988854
 30
0.0
 42
0.0061885160387669
  0
VERTEX
  5
CBC
  8
0
 10
91.850275029036695
 20
72.514415683374366
 30
0.0
 42
0.0877347373077204
  0
SEQEND
  5
CBD
  8
0
  0
POLYLINE
  5
CBE
  8
0
 66
     1
 10
0.0
 20
0.0
 30
0.0
  0
VERTEX
  5
CBF
  8
0
 10
91.752685925496451
 20
65.985480156022831
 30
0.0
 42
0.0123570276110295
  0
VERTEX
  5
CC0
  8
0
 10
91.379651388788204
 20
65.976259551932301
 30
0.0
 42
0.0173599211009302
  0
VERTEX
  5
CC1
  8
0
 10
91.114939587539141
 20
65.953933471368813
 30
0.0
 42
0.0404815745712817
 70
     2
 50
186.8100792311717
  0
VERTEX
  5
CC2
  8
0
 10
90.870902389122477
 20
65.90452126726781
 30
0.0
 50
186.8100792311717
  0
VERTEX
  5
CC3
  8
0
 10
90.850776405003487
 20
65.877773037429165
 30
0.0
  0
SEQEND
  5
CC4
  8
0
  0
POLYLINE
  5
CC5
  8
0
 66
     1
 10
0.0
 20
0.0
 30
0.0
  0
VERTEX
  5
CC6
  8
0
 10
91.821665758783411
 20
68.858828807343755
 30
0.0
 42
0.0288460688622872
  0
VERTEX
  5
CC7
  8
0
 10
91.422671713265174
 20
68.835790818106901
 30
0.0
 42
0.0393711015747251
  0
VERTEX
  5
CC8
  8
0
 10
91.135143312943796
 20
68.779283746353215
 30
0.0
 42
0.0804766448016345
 70
     2
 50
195.627733167304
  0
VERTEX
  5
CC9
  8
0
 10
90.893377128760051
 20
68.667419223315832
 30
0.0
 42
0.249179894909732
 50
195.627733167304
  0
VERTEX
  5
CCA
  8
0
 10
90.850776405003487
 20
68.587244981290056
 30
0.0
 42
0.2491798949097354
  0
SEQEND
  5
CCB
  8
0
  0
POLYLINE
  5
CCC
  8
0
 66
     1
 10
0.0
 20
0.0
 30
0.0
  0
VERTEX
  5
CCD
  8
0
 10
91.844469611167327
 20
71.095542393974554
 30
0.0
 42
0.0508614025396146
  0
VERTEX
  5
CCE
  8
0
 10
91.442504636351202
 20
71.054547339813965
 30
0.0
 42
0.0647060737211076
  0
VERTEX
  5
CCF
  8
0
 10
91.14182240666986
 20
70.950714757731092
 30
0.0
 42
0.1040915032216622
 70
     2
 50
206.4554340875504
  0
VERTEX
  5
CD0
  8
0
 10
90.911305624334815
 20
70.768397941198614
 30
0.0
 42
0.1753110843376959
 50
206.4554340875504
  0
VERTEX
  5
CD1
  8
0
 10
90.850776405003444
 20
70.601069914105736
 30
0.0
 42
0.1753110843376926
  0
SEQEND
  5
CD2
  8
0
  0
POLYLINE
  5
CD3
  8
0
 66
     1
 10
0.0
 20
0.0
 30
0.0
  0
VERTEX
  5
CD4
  8
0
 10
91.850275029037064
 20
72.514415683374366
 30
0.0
 42
0.0762697733728009
  0
VERTEX
  5
CD5
  8
0
 10
91.456589948170063
 20
72.454011765255288
 30
0.0
 42
0.0863521769977534
  0
VERTEX
  5
CD6
  8
0
 10
91.143522774196299
 20
72.292310078958067
 30
0.0
 42
0.1058984519010266
 70
     2
 50
217.187458189995
  0
VERTEX
  5
CD7
  8
0
 10
90.905757338480896
 20
72.01610205567529
 30
0.0
 42
0.1467084770758266
 50
217.187458189995
  0
VERTEX
  5
CD8
  8
0
 10
90.85077640500765
 20
71.756099716496934
 30
0.0
 42
0.1255870348412077
  0
SEQEND
  5
CD9
  8
0
  0
POLYLINE
  5
CDA
  8
0
 66
     1
 10
0.0
 20
0.0
 30
0.0
  0
VERTEX
  5
CDB
  8
0
 10
90.850776405003444
 20
71.958760743101536
 30
0.0
 42
0.0074802436643722
  0
VERTEX
  5
CDC
  8
0
 10
90.879522415530403
 20
71.959190821492385
 30
0.0
 42
0.0999490626455953
  0
SEQEND
  5
CDD
  8
0
  0
POLYLINE
  5
CDE
  8
0
 66
     1
 10
0.0
 20
0.0
 30
0.0
  0
VERTEX
  5
CDF
  8
0
 10
91.737119927667493
 20
72.509531201107635
 30
0.0
 42
0.0293265377833063
 70
     2
 50
46.171133967963179
  0
VERTEX
  5
CE0
  8
0
 10
91.793325744937249
 20
72.629827881060365
 30
0.0
 42
0.1128168172210416
 50
46.171133967963193
  0
VERTEX
  5
CE1
  8
0
 10
91.850776405002705
 20
73.000499999999036
 30
0.0
 42
0.0948959869432876
  0
SEQEND
  5
CE2
  8
0
  0
POLYLINE
  5
CE3
  8
0
 66
     1
 10
0.0
 20
0.0
 30
0.0
  0
VERTEX
  5
CE4
  8
0
 10
91.737119927667493
 20
47.49146879889237
 30
0.0
 42
-0.0293265377833063
 70
     2
 50
313.82886603203679
  0
VERTEX
  5
CE5
  8
0
 10
91.793325744937249
 20
47.37117211893964
 30
0.0
 42
-0.1128168172210416
  0
VERTEX
  5
CE6
  8
0
 10
91.850776405002705
 20
47.000500000000962
 30
0.0
 42
-0.0948959869432876
  0
SEQEND
  5
CE7
  8
0
  0
POLYLINE
  5
CE8
  8
0
 66
     1
 10
0.0
 20
0.0
 30
0.0
  0
VERTEX
  5
CE9
  8
0
 10
90.850776405003444
 20
48.042239256898498
 30
0.0
 42
-0.0074802436643722
  0
VERTEX
  5
CEA
  8
0
 10
90.879522415530403
 20
48.04180917850762
 30
0.0
 42
-0.0999490626455953
  0
SEQEND
  5
CEB
  8
0
  0
POLYLINE
  5
CEC
  8
0
 66
     1
 10
0.0
 20
0.0
 30
0.0
  0
VERTEX
  5
CED
  8
0
 10
91.850275029037064
 20
47.486584316625638
 30
0.0
 42
-0.0762697733728009
  0
VERTEX
  5
CEE
  8
0
 10
91.456589948170063
 20
47.546988234744738
 30
0.0
 42
-0.0863521769977534
  0
VERTEX
  5
CEF
  8
0
 10
91.143522774196299
 20
47.708689921041987
 30
0.0
 42
-0.1058984519010266
 70
     2
 50
142.812541810005
  0
VERTEX
  5
CF0
  8
0
 10
90.905757338480896
 20
47.984897944324743
 30
0.0
 42
-0.1467084770758266
  0
VERTEX
  5
CF1
  8
0
 10
90.85077640500765
 20
48.244900283503071
 30
0.0
 42
-0.1255870348412077
  0
SEQEND
  5
CF2
  8
0
  0
POLYLINE
  5
CF3
  8
0
 66
     1
 10
0.0
 20
0.0
 30
0.0
  0
VERTEX
  5
CF4
  8
0
 10
91.844469611167327
 20
48.905457606025479
 30
0.0
 42
-0.0508614025396146
  0
VERTEX
  5
CF5
  8
0
 10
91.442504636351202
 20
48.946452660186061
 30
0.0
 42
-0.0647060737211076
  0
VERTEX
  5
CF6
  8
0
 10
91.14182240666986
 20
49.050285242268913
 30
0.0
 42
-0.1040915032216622
 70
     2
 50
153.5445659124496
  0
VERTEX
  5
CF7
  8
0
 10
90.911305624334815
 20
49.23260205880144
 30
0.0
 42
-0.1753110843376959
  0
VERTEX
  5
CF8
  8
0
 10
90.850776405003444
 20
49.39993008589429
 30
0.0
 42
-0.1753110843376926
  0
SEQEND
  5
CF9
  8
0
  0
POLYLINE
  5
CFA
  8
0
 66
     1
 10
0.0
 20
0.0
 30
0.0
  0
VERTEX
  5
CFB
  8
0
 10
91.821665758783411
 20
51.142171192656313
 30
0.0
 42
-0.0288460688622872
  0
VERTEX
  5
CFC
  8
0
 10
91.422671713265174
 20
51.165209181893161
 30
0.0
 42
-0.0393711015747251
  0
VERTEX
  5
CFD
  8
0
 10
91.135143312943796
 20
51.221716253646854
 30
0.0
 42
-0.0804766448016345
 70
     2
 50
164.372266832696
  0
VERTEX
  5
CFE
  8
0
 10
90.893377128760051
 20
51.333580776684201
 30
0.0
 42
-0.249179894909732
  0
VERTEX
  5
CFF
  8
0
 10
90.850776405003487
 20
51.413755018709949
 30
0.0
 42
-0.2491798949097354
  0
SEQEND
  5
D00
  8
0
  0
POLYLINE
  5
D01
  8
0
 66
     1
 10
0.0
 20
0.0
 30
0.0
  0
VERTEX
  5
D02
  8
0
 10
91.752685925496451
 20
54.015519843977202
 30
0.0
 42
-0.0123570276110295
  0
VERTEX
  5
D03
  8
0
 10
91.379651388788204
 20
54.024740448067703
 30
0.0
 42
-0.0173599211009302
  0
VERTEX
  5
D04
  8
0
 10
91.114939587539141
 20
54.04706652863122
 30
0.0
 42
-0.0404815745712817
 70
     2
 50
173.1899207688283
  0
VERTEX
  5
D05
  8
0
 10
90.870902389122477
 20
54.096478732732223
 30
0.0
  0
VERTEX
  5
D06
  8
0
 10
90.850776405003487
 20
54.123226962570847
 30
0.0
  0
SEQEND
  5
D07
  8
0
  0
POLYLINE
  5
D08
  8
0
 66
     1
 10
0.0
 20
0.0
 30
0.0
  0
VERTEX
  5
D09
  8
0
 10
90.850776405003487
 20
48.808365397185263
 30
0.0
 42
-0.1225889545330474
  0
VERTEX
  5
D0A
  8
0
 10
91.220120720911424
 20
48.716428700650091
 30
0.0
 42
-0.1054266529349266
  0
VERTEX
  5
D0B
  8
0
 10
91.557883186190054
 20
48.433088915276031
 30
0.0
 42
-0.0877347373077107
 70
     2
 50
307.97108203718602
  0
VERTEX
  5
D0C
  8
0
 10
91.792977002891817
 20
47.989880464787959
 30
0.0
 42
-0.0944935069643078
  0
VERTEX
  5
D0D
  8
0
 10
91.850776405003515
 20
47.527091343011151
 30
0.0
 42
-0.0061885160387669
  0
VERTEX
  5
D0E
  8
0
 10
91.850275029036695
 20
47.486584316625638
 30
0.0
 42
-0.0877347373077204
  0
SEQEND
  5
D0F
  8
0
  0
POLYLINE
  5
D10
  8
0
 66
     1
 10
0.0
 20
0.0
 30
0.0
  0
VERTEX
  5
D11
  8
0
 10
90.850776405003487
 20
50.481211720804673
 30
0.0
 42
-0.1334752893439902
  0
VERTEX
  5
D12
  8
0
 10
91.213850734893867
 20
50.382530752457193
 30
0.0
 42
-0.1067736914636536
  0
VERTEX
  5
D13
  8
0
 10
91.557883186190054
 20
50.066179789812807
 30
0.0
 42
-0.0827273099433823
 70
     2
 50
305.21109679534072
  0
VERTEX
  5
D14
  8
0
 10
91.793069508709777
 20
49.57864859903146
 30
0.0
 42
-0.0865581525971125
  0
VERTEX
  5
D15
  8
0
 10
91.850776405003515
 20
49.06420407319429
 30
0.0
 42
-0.0198565275003651
  0
VERTEX
  5
D16
  8
0
 10
91.844469611166858
 20
48.905457606025479
 30
0.0
 42
-0.0827273099433435
  0
SEQEND
  5
D17
  8
0
  0
POLYLINE
  5
D18
  8
0
 66
     1
 10
0.0
 20
0.0
 30
0.0
  0
VERTEX
  5
D19
  8
0
 10
90.850776405003487
 20
52.925254167417123
 30
0.0
 42
-0.1351106484703338
  0
VERTEX
  5
D1A
  8
0
 10
91.212900095189809
 20
52.825581113839128
 30
0.0
 42
-0.1068916963646837
  0
VERTEX
  5
D1B
  8
0
 10
91.557883186190054
 20
52.504090206101623
 30
0.0
 42
-0.0819805859993646
 70
     2
 50
304.8162001870744
  0
VERTEX
  5
D1C
  8
0
 10
91.793094193899094
 20
52.00969219930009
 30
0.0
 42
-0.0854524044576932
  0
VERTEX
  5
D1D
  8
0
 10
91.850776405003515
 20
51.487310458710979
 30
0.0
 42
-0.0420975806111537
  0
VERTEX
  5
D1E
  8
0
 10
91.821665758783354
 20
51.142171192656313
 30
0.0
 42
-0.0819805859993421
  0
SEQEND
  5
D1F
  8
0
  0
POLYLINE
  5
D20
  8
0
 66
     1
 10
0.0
 20
0.0
 30
0.0
  0
VERTEX
  5
D21
  8
0
 10
90.850776405003487
 20
55.942490953278323
 30
0.0
 42
-0.1275511589696932
  0
VERTEX
  5
D22
  8
0
 10
91.217276431148363
 20
55.847449692474939
 30
0.0
 42
-0.1061651039332924
  0
VERTEX
  5
D23
  8
0
 10
91.557883186190054
 20
55.549315161026477
 30
0.0
 42
-0.085447083255488
 70
     2
 50
306.68397900440073
  0
VERTEX
  5
D24
  8
0
 10
91.793002107378584
 20
55.08619484549088
 30
0.0
 42
-0.0907458243245316
  0
VERTEX
  5
D25
  8
0
 10
91.850776405003515
 20
54.600104830975333
 30
0.0
 42
-0.0749639709484273
  0
VERTEX
  5
D26
  8
0
 10
91.770931359887115
 20
54.070541447788891
 30
0.0
 42
-0.0104494272863164
  0
VERTEX
  5
D27
  8
0
 10
91.752685925497701
 20
54.015519843977202
 30
0.0
 42
-0.1061651039332807
 70
     2
 50
233.3160209955993
  0
SEQEND
  5
D28
  8
0
  0
POLYLINE
  5
D29
  8
0
 66
     1
 10
0.0
 20
0.0
 30
0.0
  0
VERTEX
  5
D2A
  8
0
 10
90.850776405003487
 20
59.288483498195781
 30
0.0
 42
-0.1105754961288046
  0
VERTEX
  5
D2B
  8
0
 10
91.226885222158145
 20
59.204277073149562
 30
0.0
 42
-0.1027028081787415
  0
VERTEX
  5
D2C
  8
0
 10
91.557883186189315
 20
58.955148639389378
 30
0.0
 42
-0.0932316611711039
 70
     2
 50
311.30498508250309
  0
VERTEX
  5
D2D
  8
0
 10
91.793075198525415
 20
58.558286592503251
 30
0.0
 42
-0.1046406765660069
  0
VERTEX
  5
D2E
  8
0
 10
91.850776405002478
 20
58.150407102447197
 30
0.0
 42
-0.087486245711695
  0
SEQEND
  5
D2F
  8
0
  0
POLYLINE
  5
D30
  8
0
 66
     1
 10
0.0
 20
0.0
 30
0.0
  0
VERTEX
  5
D31
  8
0
 10
91.850776405003515
 20
58.150407102447197
 30
0.0
 42
-0.1129541415555506
  0
VERTEX
  5
D32
  8
0
 10
91.777220230808439
 20
57.828959404342449
 30
0.0
 42
-0.1033526290475138
  0
VERTEX
  5
D33
  8
0
 10
91.557883186190054
 20
57.543932108467189
 30
0.0
 42
-0.0921549158927182
 70
     2
 50
220.61920180397081
  0
VERTEX
  5
D34
  8
0
 10
91.240152044952694
 20
57.359833006976388
 30
0.0
 42
-0.0855471168292982
  0
VERTEX
  5
D35
  8
0
 10
90.850776405003487
 20
57.292721940720511
 30
0.0
 42
-0.085547116829313
  0
SEQEND
  5
D36
  8
0
  0
LINE
  5
D37
  8
0
 10
90.850776405003487
 20
48.000500000000173
 30
0.0
 11
91.850776405003515
 21
47.000500000000962
 31
0.0
  0
LINE
  5
D38
  8
0
 10
89.750776405003535
 20
48.000500000000137
 30
0.0
 11
90.850776405003487
 21
48.000500000000173
 31
0.0
  0
LINE
  5
D39
  8
0
 10
91.850776405003515
 20
47.000500000000962
 30
0.0
 11
97.899999999999807
 21
47.000500000000962
 31
0.0
  0
LINE
  5
D3A
  8
0
 10
90.850776405003487
 20
59.28848349819576
 30
0.0
 11
97.899999999999807
 21
59.288483498195781
 31
0.0
  0
LINE
  5
D3B
  8
0
 10
90.850776405003487
 20
57.292721940720511
 30
0.0
 11
97.899999999999807
 21
57.292721940720511
 31
0.0
  0
LINE
  5
D3C
  8
0
 10
90.850776405003487
 20
55.942490953278352
 30
0.0
 11
97.899999999999807
 21
55.942490953278323
 31
0.0
  0
LINE
  5
D3D
  8
0
 10
91.752685925496451
 20
54.015519843977202
 30
0.0
 11
97.899999999999807
 21
54.015519843977202
 31
0.0
  0
LINE
  5
D3E
  8
0
 10
90.850776405003487
 20
52.925254167417123
 30
0.0
 11
97.899999999999807
 21
52.925254167417123
 31
0.0
  0
LINE
  5
D3F
  8
0
 10
90.850776405003487
 20
50.481211720804687
 30
0.0
 11
97.899999999999807
 21
50.481211720804687
 31
0.0
  0
LINE
  5
D40
  8
0
 10
91.821665758782501
 20
51.142171192656313
 30
0.0
 11
97.899999999999807
 21
51.142171192656313
 31
0.0
  0
LINE
  5
D41
  8
0
 10
91.844469611167327
 20
48.905457606025479
 30
0.0
 11
97.899999999999807
 21
48.905457606025507
 31
0.0
  0
LINE
  5
D42
  8
0
 10
90.850776405003487
 20
48.808365397185263
 30
0.0
 11
97.899999999999807
 21
48.808365397185263
 31
0.0
  0
LINE
  5
D43
  8
0
 10
91.850275029037064
 20
47.486584316625638
 30
0.0
 11
97.899999999999764
 21
47.486584316625638
 31
0.0
  0
LINE
  5
D44
  8
0
 10
98.875113955572658
 20
48.000500000000137
 30
0.0
 11
99.399999999999764
 21
48.000500000000137
 31
0.0
  0
ARC
  5
D45
  8
0
 10
97.899999999999807
 20
48.000500000000969
 30
0.0
 40
1.0
 50
270.0
 51
359.99999999995282
  0
POLYLINE
  5
D46
  8
0
 66
     1
 10
0.0
 20
0.0
 30
0.0
  0
VERTEX
  5
D47
  8
0
 10
97.899999999999807
 20
59.288483498195781
 30
0.0
 42
-0.098302216645778
  0
VERTEX
  5
D48
  8
0
 10
98.282784109109059
 20
59.212492115866091
 30
0.0
 42
-0.0984128381818726
  0
VERTEX
  5
D49
  8
0
 10
98.607106781186303
 20
58.996210984919237
 30
0.0
 42
-0.0985696857141959
 70
     2
 50
315.06077559278742
  0
VERTEX
  5
D4A
  8
0
 10
98.842733176883655
 20
58.644261609993421
 30
0.0
 42
-0.1169875491068659
  0
VERTEX
  5
D4B
  8
0
 10
98.89999999999975
 20
58.290602719458128
 30
0.0
 42
-0.098680881080023
  0
VERTEX
  5
D4C
  8
0
 10
98.823911915867996
 20
57.908830972423068
 30
0.0
 42
-0.0985696857141574
  0
VERTEX
  5
D4D
  8
0
 10
98.607106781186303
 20
57.584994453997027
 30
0.0
 42
-0.0984128381818828
 70
     2
 50
224.93922440721269
  0
VERTEX
  5
D4E
  8
0
 10
98.282784109109059
 20
57.368713323050208
 30
0.0
 42
-0.0983022166457899
  0
VERTEX
  5
D4F
  8
0
 10
97.899999999999807
 20
57.292721940720511
 30
0.0
 42
-0.0983022166457671
  0
SEQEND
  5
D50
  8
0
  0
POLYLINE
  5
D51
  8
0
 66
     1
 10
0.0
 20
0.0
 30
0.0
  0
VERTEX
  5
D52
  8
0
 10
97.899999999999807
 20
50.481211720804687
 30
0.0
 42
-0.0790268670844965
  0
VERTEX
  5
D53
  8
0
 10
98.292572062987702
 20
50.418774303304552
 30
0.0
 42
-0.0881908777093831
  0
VERTEX
  5
D54
  8
0
 10
98.607106781186346
 20
50.250447873436592
 30
0.0
 42
-0.1052534176826681
 70
     2
 50
321.76623599770488
  0
VERTEX
  5
D55
  8
0
 10
98.844562406237984
 20
49.964931705783457
 30
0.0
 42
-0.142284125671063
  0
VERTEX
  5
D56
  8
0
 10
98.899999999999807
 20
49.693334663415087
 30
0.0
 42
-0.121599590368167
  0
VERTEX
  5
D57
  8
0
 10
98.828057710399605
 20
49.401892407849417
 30
0.0
 42
-0.1052534176826778
  0
VERTEX
  5
D58
  8
0
 10
98.607106781186346
 20
49.136221453393588
 30
0.0
 42
-0.0881908777094005
 70
     2
 50
218.23376400229509
  0
VERTEX
  5
D59
  8
0
 10
98.292572062987702
 20
48.967895023525628
 30
0.0
 42
-0.0790268670844963
  0
VERTEX
  5
D5A
  8
0
 10
97.899999999999807
 20
48.905457606025507
 30
0.0
 42
-0.0790268670844787
  0
SEQEND
  5
D5B
  8
0
  0
POLYLINE
  5
D5C
  8
0
 66
     1
 10
0.0
 20
0.0
 30
0.0
  0
VERTEX
  5
D5D
  8
0
 10
97.899999999999807
 20
52.925254167417123
 30
0.0
 42
-0.0886697977179422
  0
VERTEX
  5
D5E
  8
0
 10
98.287800426404104
 20
52.855936800465159
 30
0.0
 42
-0.093866275823185
  0
VERTEX
  5
D5F
  8
0
 10
98.607106781186303
 20
52.664127711472553
 30
0.0
 42
-0.1022901095122429
 70
     2
 50
318.28167172561018
  0
VERTEX
  5
D60
  8
0
 10
98.843425646297135
 20
52.345932395441068
 30
0.0
 42
-0.1285391797684332
  0
VERTEX
  5
D61
  8
0
 10
98.89999999999975
 20
52.033712680036707
 30
0.0
 42
-0.1091635129316081
  0
VERTEX
  5
D62
  8
0
 10
98.825754432878185
 20
51.697699276659662
 30
0.0
 42
-0.1022901095122636
  0
VERTEX
  5
D63
  8
0
 10
98.607106781186303
 20
51.403297648600883
 30
0.0
 42
-0.0938662758231421
 70
     2
 50
221.71832827438979
  0
VERTEX
  5
D64
  8
0
 10
98.287800426404203
 20
51.21148855960827
 30
0.0
 42
-0.0886697977178873
  0
VERTEX
  5
D65
  8
0
 10
97.899999999999807
 20
51.142171192657671
 30
0.0
 42
-0.0886697977179307
  0
SEQEND
  5
D66
  8
0
  0
POLYLINE
  5
D67
  8
0
 66
     1
 10
0.0
 20
0.0
 30
0.0
  0
VERTEX
  5
D68
  8
0
 10
97.899999999999807
 20
55.942490953278323
 30
0.0
 42
-0.0952163432260962
  0
VERTEX
  5
D69
  8
0
 10
98.284415162976813
 20
55.868615979335623
 30
0.0
 42
-0.0970739481124141
  0
VERTEX
  5
D6A
  8
0
 10
98.607106781186303
 20
55.660292567896462
 30
0.0
 42
-0.0998219286546509
 70
     2
 50
316.06539234553162
  0
VERTEX
  5
D6B
  8
0
 10
98.842915191891393
 20
55.319289592533622
 30
0.0
 42
-0.1204853695876511
  0
VERTEX
  5
D6C
  8
0
 10
98.89999999999975
 20
54.979005398627763
 30
0.0
 42
-0.101855913339355
  0
VERTEX
  5
D6D
  8
0
 10
98.824459578462722
 20
54.612032508281757
 30
0.0
 42
-0.0998219286545923
  0
VERTEX
  5
D6E
  8
0
 10
98.607106781186303
 20
54.297718229359063
 30
0.0
 42
-0.0970739481123782
 70
     2
 50
223.93460765446841
  0
VERTEX
  5
D6F
  8
0
 10
98.28441516297687
 20
54.089394817919882
 30
0.0
 42
-0.0952163432260542
  0
VERTEX
  5
D70
  8
0
 10
97.899999999999807
 20
54.015519843977202
 30
0.0
 42
-0.0952163432260713
  0
SEQEND
  5
D71
  8
0
  0
POLYLINE
  5
D72
  8
0
 66
     1
 10
0.0
 20
0.0
 30
0.0
  0
VERTEX
  5
D73
  8
0
 10
97.899999999999807
 20
48.808365397185263
 30
0.0
 42
-0.0669004313872827
  0
VERTEX
  5
D74
  8
0
 10
98.298129219265775
 20
48.754855873302994
 30
0.0
 42
-0.0793633770256028
  0
VERTEX
  5
D75
  8
0
 10
98.607106781186346
 20
48.614795039559347
 30
0.0
 42
-0.1071437047895626
 70
     2
 50
326.53966129479488
  0
VERTEX
  5
D76
  8
0
 10
98.846889469698056
 20
48.369154003633113
 30
0.0
 42
-0.1637949989581226
  0
VERTEX
  5
D77
  8
0
 10
98.899999999999807
 20
48.147474856905447
 30
0.0
 42
-0.1408854874538012
  0
VERTEX
  5
D78
  8
0
 10
98.831840368172436
 20
47.910378930461647
 30
0.0
 42
-0.1071437047895118
  0
VERTEX
  5
D79
  8
0
 10
98.607106781186303
 20
47.680154674251533
 30
0.0
 42
-0.0793633770255481
 70
     2
 50
213.4603387052027
  0
VERTEX
  5
D7A
  8
0
 10
98.298129219265832
 20
47.540093840507929
 30
0.0
 42
-0.0669004313872653
  0
VERTEX
  5
D7B
  8
0
 10
97.899999999999764
 20
47.486584316625638
 30
0.0
 42
-0.066900431387258
  0
SEQEND
  5
D7C
  8
0
  0
CIRCLE
  5
D7D
  8
0
 10
160.0
 20
60.000500000000073
 30
0.0
 40
9.5000000000000142
  0
CIRCLE
  5
D7E
  8
0
 10
160.0
 20
60.000500000000073
 30
0.0
 40
8.7499999999999858
  0
ENDSEC
  0
EOF
