  0
SECTION
  2
HEADER
  9
$ACADVER
  1
AC1009
  9
$INSBASE
 10
0.0
 20
0.0
 30
0.0
  9
$EXTMIN
 10
0.0
 20
-2.960436562073669
 30
0.0
  9
$EXTMAX
 10
141.00000000000199
 20
60.000000000001911
 30
0.0
  9
$LIMMIN
 10
0.0
 20
0.0
  9
$LIMMAX
 10
187.5
 20
135.0
  9
$ORTHOMODE
 70
     1
  9
$REGENMODE
 70
     1
  9
$FILLMODE
 70
     1
  9
$QTEXTMODE
 70
     0
  9
$MIRRTEXT
 70
     0
  9
$DRAGMODE
 70
     2
  9
$LTSCALE
 40
5.0
  9
$OSMODE
 70
    37
  9
$ATTMODE
 70
     1
  9
$TEXTSIZE
 40
2.5000000000000488
  9
$TRACEWID
 40
0.05
  9
$TEXTSTYLE
  7
STANDARD
  9
$CLAYER
  8
0
  9
$CELTYPE
  6
BYLAYER
  9
$CECOLOR
 62
   256
  9
$DIMSCALE
 40
0.5
  9
$DIMASZ
 40
3.0
  9
$DIMEXO
 40
2.0
  9
$DIMDLI
 40
0.3799999999999999
  9
$DIMRND
 40
0.0
  9
$DIMDLE
 40
0.0
  9
$DIMEXE
 40
2.0
  9
$DIMTP
 40
0.0
  9
$DIMTM
 40
0.0
  9
$DIMTXT
 40
3.2000000000000002
  9
$DIMCEN
 40
0.09
  9
$DIMTSZ
 40
0.0
  9
$DIMTOL
 70
     0
  9
$DIMLIM
 70
     0
  9
$DIMTIH
 70
     0
  9
$DIMTOH
 70
     0
  9
$DIMSE1
 70
     0
  9
$DIMSE2
 70
     0
  9
$DIMTAD
 70
     1
  9
$DIMZIN
 70
     0
  9
$DIMBLK
  1

  9
$DIMASO
 70
     1
  9
$DIMSHO
 70
     0
  9
$DIMPOST
  1

  9
$DIMAPOST
  1

  9
$DIMALT
 70
     0
  9
$DIMALTD
 70
     2
  9
$DIMALTF
 40
25.399999999999999
  9
$DIMLFAC
 40
1.0
  9
$DIMTOFL
 70
     0
  9
$DIMTVP
 40
1.6000000000000001
  9
$DIMTIX
 70
     1
  9
$DIMSOXD
 70
     0
  9
$DIMSAH
 70
     0
  9
$DIMBLK1
  1

  9
$DIMBLK2
  1

  9
$DIMSTYLE
  2
STANDARD
  9
$DIMCLRD
 70
     0
  9
$DIMCLRE
 70
     0
  9
$DIMCLRT
 70
     0
  9
$DIMTFAC
 40
1.0
  9
$DIMGAP
 40
0.09
  9
$LUNITS
 70
     2
  9
$LUPREC
 70
     4
  9
$SKETCHINC
 40
0.1
  9
$FILLETRAD
 40
0.0
  9
$AUNITS
 70
     0
  9
$AUPREC
 70
     0
  9
$MENU
  1
E:\r13\win\SUPPORT\ACAD
  9
$ELEVATION
 40
0.0
  9
$PELEVATION
 40
0.0
  9
$THICKNESS
 40
0.0
  9
$LIMCHECK
 70
     0
  9
$BLIPMODE
 70
     0
  9
$CHAMFERA
 40
0.0
  9
$CHAMFERB
 40
0.0
  9
$SKPOLY
 70
     0
  9
$TDCREATE
 40
2449839.7860879628
  9
$TDUPDATE
 40
2457179.3855253239
  9
$TDINDWG
 40
0.0011702546
  9
$TDUSRTIMER
 40
0.0011702546
  9
$USRTIMER
 70
     1
  9
$ANGBASE
 50
0.0
  9
$ANGDIR
 70
     0
  9
$PDMODE
 70
     0
  9
$PDSIZE
 40
0.0
  9
$PLINEWID
 40
0.0
  9
$COORDS
 70
     1
  9
$SPLFRAME
 70
     0
  9
$SPLINETYPE
 70
     6
  9
$SPLINESEGS
 70
     8
  9
$ATTDIA
 70
     0
  9
$ATTREQ
 70
     1
  9
$HANDLING
 70
     1
  9
$HANDSEED
  5
7FA
  9
$SURFTAB1
 70
     6
  9
$SURFTAB2
 70
     6
  9
$SURFTYPE
 70
     6
  9
$SURFU
 70
     6
  9
$SURFV
 70
     6
  9
$UCSNAME
  2

  9
$UCSORG
 10
0.0
 20
0.0
 30
0.0
  9
$UCSXDIR
 10
1.0
 20
0.0
 30
0.0
  9
$UCSYDIR
 10
0.0
 20
1.0
 30
0.0
  9
$PUCSNAME
  2

  9
$PUCSORG
 10
0.0
 20
0.0
 30
0.0
  9
$PUCSXDIR
 10
1.0
 20
0.0
 30
0.0
  9
$PUCSYDIR
 10
0.0
 20
1.0
 30
0.0
  9
$USERI1
 70
     0
  9
$USERI2
 70
     1
  9
$USERI3
 70
     1
  9
$USERI4
 70
     0
  9
$USERI5
 70
     0
  9
$USERR1
 40
0.0
  9
$USERR2
 40
0.0
  9
$USERR3
 40
0.0
  9
$USERR4
 40
0.0
  9
$USERR5
 40
0.0
  9
$WORLDVIEW
 70
     1
  9
$SHADEDGE
 70
     3
  9
$SHADEDIF
 70
    70
  9
$TILEMODE
 70
     1
  9
$MAXACTVP
 70
    16
  9
$PLIMCHECK
 70
     0
  9
$PEXTMIN
 10
1.0000000000000000E+020
 20
1.0000000000000000E+020
 30
1.0000000000000000E+020
  9
$PEXTMAX
 10
-1.0000000000000000E+020
 20
-1.0000000000000000E+020
 30
-1.0000000000000000E+020
  9
$PLIMMIN
 10
0.0
 20
0.0
  9
$PLIMMAX
 10
12.0
 20
9.0
  9
$UNITMODE
 70
     0
  9
$VISRETAIN
 70
     0
  9
$PLINEGEN
 70
     0
  9
$PSLTSCALE
 70
     0
  0
ENDSEC
  0
SECTION
  2
TABLES
  0
TABLE
  2
VPORT
 70
     1
  0
VPORT
  2
*ACTIVE
 70
     0
 10
0.0
 20
0.0
 11
1.0
 21
1.0
 12
172.54273504273499
 22
95.0
 13
0.0
 23
0.0
 14
5.0
 24
5.0
 15
5.0
 25
5.0
 16
0.0
 26
0.0
 36
1.0
 17
0.0
 27
0.0
 37
0.0
 40
190.0
 41
1.816239316239316
 42
50.0
 43
0.0
 44
0.0
 50
0.0
 51
0.0
 71
     0
 72
   500
 73
     1
 74
     0
 75
     0
 76
     0
 77
     0
 78
     2
  0
ENDTAB
  0
TABLE
  2
LTYPE
 70
     4
  0
LTYPE
  2
CONTINUOUS
 70
     0
  3
Solid Line
 72
    65
 73
     0
 40
0.0
  0
LTYPE
  2
CENTER
 70
     0
  3
____ _ ____ _ ____ _ ____ _ ____ _ ____ _ ____
 72
    65
 73
     4
 40
2.0
 49
1.25
 49
-0.25
 49
0.25
 49
-0.25
  0
LTYPE
  2
PHANTOM
 70
     0
  3
_____ _ _ _____ _ _ _____ _ _ _____ _ _ ____
 72
    65
 73
     6
 40
2.5
 49
1.25
 49
-0.25
 49
0.25
 49
-0.25
 49
0.25
 49
-0.25
  0
LTYPE
  2
PHANTOM2
 70
     0
  3
___ _ _ ___ _ _ ___ _ _ ___ _ _
 72
    65
 73
     6
 40
1.25
 49
0.625
 49
-0.125
 49
0.125
 49
-0.125
 49
0.125
 49
-0.125
  0
ENDTAB
  0
TABLE
  2
LAYER
 70
     4
  0
LAYER
  2
0
 70
     0
 62
     7
  6
CONTINUOUS
  0
LAYER
  2
1
 70
     0
 62
     1
  6
CENTER
  0
LAYER
  2
3
 70
     0
 62
     3
  6
CONTINUOUS
  0
LAYER
  2
5
 70
     0
 62
     3
  6
PHANTOM
  0
ENDTAB
  0
TABLE
  2
STYLE
 70
     2
  0
STYLE
  2
STANDARD
 70
     0
 40
0.0
 41
1.0
 50
0.0
 71
     0
 42
2.5000000000000488
  3
TXT
  4
BIGFONT
  0
STYLE
  2
STANDARD1
 70
     0
 40
0.0
 41
1.0
 50
0.0
 71
     0
 42
3.0
  3
txt
  4

  0
ENDTAB
  0
TABLE
  2
VIEW
 70
     1
  0
VIEW
  2
ALL
 70
     0
 40
135.0
 10
110.4957983193277
 20
67.5
 41
0.0
 11
0.0
 21
0.0
 31
1.0
 12
0.0
 22
0.0
 32
0.0
 42
0.0
 43
0.0
 44
0.0
 50
0.0
 71
     0
  0
ENDTAB
  0
TABLE
  2
UCS
 70
     0
  0
ENDTAB
  0
TABLE
  2
APPID
 70
     4
  0
APPID
  2
ACAD
 70
     0
  0
APPID
  2
ACAD_MLEADERVER
 70
     0
  0
APPID
  2
ACAD_EXEMPT_FROM_CAD_STANDARDS
 70
     0
  0
APPID
  2
ACAD_NAV_VCDISPLAY
 70
     0
  0
ENDTAB
  0
TABLE
  2
DIMSTYLE
 70
     1
  0
DIMSTYLE
  2
STANDARD
 70
     0
  3

  4

  5

  6

  7

 40
1.0
 41
0.18
 42
0.0625
 43
0.38
 44
0.18
 45
0.0
 46
0.0
 47
0.0
 48
0.0
140
0.18
141
0.09
142
0.0
143
25.399999999999999
144
1.0
145
0.0
146
1.0
147
0.09
 71
     0
 72
     0
 73
     1
 74
     1
 75
     0
 76
     0
 77
     0
 78
     0
170
     0
171
     2
172
     0
173
     0
174
     0
175
     0
176
     0
177
     0
178
     0
  0
ENDTAB
  0
ENDSEC
  0
SECTION
  2
BLOCKS
  0
BLOCK
  8
0
  2
$MODEL_SPACE
 70
     0
 10
0.0
 20
0.0
 30
0.0
  3
$MODEL_SPACE
  1

  0
ENDBLK
  5
3CD
  8
0
  0
BLOCK
 67
     1
  8
0
  2
$PAPER_SPACE
 70
     0
 10
0.0
 20
0.0
 30
0.0
  3
$PAPER_SPACE
  1

  0
ENDBLK
  5
3CB
 67
     1
  8
0
  0
ENDSEC
  0
SECTION
  2
ENTITIES
  0
TEXT
  5
4B9
  8
0
 62
     3
 10
0.0
 20
0.0
 30
0.0
 40
10.0
  1
KS15X10B-SUS
  7
STANDARD1
  0
LINE
  5
63B
  8
0
 10
91.0
 20
46.499999999999901
 30
0.0
 11
91.0
 21
53.499999999999901
 31
0.0
  0
LINE
  5
63C
  8
0
 10
91.0
 20
53.499999999999901
 30
0.0
 11
90.699999999999775
 21
53.499999999999901
 31
0.0
  0
LINE
  5
63D
  8
0
 10
90.699999999999775
 20
46.499999999999922
 30
0.0
 11
91.0
 21
46.499999999999922
 31
0.0
  0
LINE
  5
63E
  8
0
 10
100.09999999999999
 20
47.499999999999908
 30
0.0
 11
100.09999999999999
 21
52.499999999999908
 31
0.0
  0
LINE
  5
63F
  8
0
 10
101.0
 20
48.399999999999913
 30
0.0
 11
101.0
 21
51.599999999999902
 31
0.0
  0
LINE
  5
640
  8
0
 10
91.0
 20
52.499999999999908
 30
0.0
 11
100.09999999999999
 21
52.499999999999908
 31
0.0
  0
LINE
  5
641
  8
0
 10
100.09999999999999
 20
52.499999999999908
 30
0.0
 11
101.0
 21
51.599999999999902
 31
0.0
  0
LINE
  5
642
  8
3
 10
100.5329999999998
 20
52.067000000000121
 30
0.0
 11
91.749977999676958
 21
52.067000000000121
 31
0.0
  0
LINE
  5
643
  8
3
 10
100.5329999999998
 20
47.932999999999701
 30
0.0
 11
91.749977999676958
 21
47.932999999999701
 31
0.0
  0
LINE
  5
644
  8
0
 10
100.09999999999999
 20
47.499999999999908
 30
0.0
 11
101.0
 21
48.399999999999913
 31
0.0
  0
LINE
  5
645
  8
0
 10
91.0
 20
47.499999999999908
 30
0.0
 11
100.09999999999999
 21
47.499999999999908
 31
0.0
  0
LINE
  5
646
  8
5
 10
91.0
 20
47.499999999999908
 30
0.0
 11
91.749977999677355
 21
47.932999999999907
 31
0.0
  0
LINE
  5
647
  8
5
 10
91.0
 20
52.499999999999908
 30
0.0
 11
91.749977999677355
 21
52.066999999999908
 31
0.0
  0
LINE
  5
648
  8
0
 10
91.749977999676958
 20
47.499999999999908
 30
0.0
 11
91.749977999676958
 21
52.499999999999908
 31
0.0
  0
CIRCLE
  5
649
  8
3
 10
131.0
 20
49.999999999999929
 30
0.0
 40
2.0669999999999988
  0
CIRCLE
  5
64A
  8
0
 10
131.0
 20
49.999999999999929
 30
0.0
 40
2.5
  0
LINE
  5
64C
  8
1
 10
50.0
 20
60.000000000001911
 30
0.0
 11
50.0
 21
39.999999999998103
 31
0.0
  0
LINE
  5
64D
  8
1
 10
39.999999999997961
 20
49.999999999999922
 30
0.0
 11
60.000000000001982
 21
49.999999999999922
 31
0.0
  0
CIRCLE
  5
64E
  8
0
 10
50.0
 20
49.999999999999922
 30
0.0
 40
7.0
  0
ARC
  5
64F
  8
0
 10
50.0
 20
56.600000000001202
 30
0.0
 40
0.9
 50
22.937740059523168
 51
157.06225994047679
  0
ARC
  5
650
  8
0
 10
52.684461844300813
 20
56.029400020442253
 30
0.0
 40
0.9
 50
358.93774005952213
 51
133.0622599404787
  0
ARC
  5
651
  8
0
 10
54.904755848151751
 20
54.416262001969251
 30
0.0
 40
0.9
 50
334.93774005952218
 51
109.0622599404782
  0
ARC
  5
652
  8
0
 10
56.276973007549259
 20
52.039512162874992
 30
0.0
 40
0.9
 50
310.93774005952309
 51
85.06225994047719
  0
ARC
  5
653
  8
0
 10
56.563844509431867
 20
49.310112142433262
 30
0.0
 40
0.9
 50
286.93774005952241
 51
61.062259940478363
  0
ARC
  5
654
  8
0
 10
55.715767664978451
 20
46.699999999999257
 30
0.0
 40
0.9
 50
262.93774005952213
 51
37.062259940476771
  0
ARC
  5
655
  8
0
 10
53.879382665131061
 20
44.660487837124222
 30
0.0
 40
0.9
 50
238.9377400595221
 51
13.06225994047842
  0
ARC
  5
656
  8
0
 10
51.372217159397451
 20
43.544225835155522
 30
0.0
 40
0.9
 50
214.93774005952289
 51
349.06225994047747
  0
ARC
  5
657
  8
0
 10
48.627782840602492
 20
43.544225835155537
 30
0.0
 40
0.9
 50
190.93774005952241
 51
325.06225994047702
  0
ARC
  5
658
  8
0
 10
46.120617334868939
 20
44.660487837124229
 30
0.0
 40
0.9
 50
166.9377400595215
 51
301.06225994047787
  0
ARC
  5
659
  8
0
 10
44.284232335021549
 20
46.699999999999257
 30
0.0
 40
0.9
 50
142.93774005952321
 51
277.06225994047787
  0
ARC
  5
65A
  8
0
 10
43.436155490568133
 20
49.310112142433283
 30
0.0
 40
0.9
 50
118.9377400595216
 51
253.06225994047759
  0
ARC
  5
65B
  8
0
 10
43.723026992450741
 20
52.039512162874971
 30
0.0
 40
0.9
 50
94.937740059522795
 51
229.06225994047679
  0
ARC
  5
65C
  8
0
 10
45.095244151848249
 20
54.416262001969208
 30
0.0
 40
0.9
 50
70.937740059521801
 51
205.0622599404777
  0
ARC
  5
65D
  8
0
 10
47.315538155699187
 20
56.029400020442253
 30
0.0
 40
0.9
 50
46.937740059521317
 51
181.06225994047779
  0
LINE
  5
65E
  8
0
 10
81.0
 20
56.999999999999922
 30
0.0
 11
82.0
 21
56.999999999999922
 31
0.0
  0
LINE
  5
65F
  8
0
 10
82.499999999999716
 20
57.499999999999922
 30
0.0
 11
87.199999999999974
 21
57.499999999999922
 31
0.0
  0
LINE
  5
660
  8
0
 10
88.499999999999986
 20
56.999999999999922
 30
0.0
 11
88.0
 21
56.999999999999922
 31
0.0
  0
LINE
  5
661
  8
0
 10
89.0
 20
55.499999999999837
 30
0.0
 11
90.399999999999764
 21
55.499999999999837
 31
0.0
  0
LINE
  5
662
  8
0
 10
90.699999999999775
 20
55.199999999999847
 30
0.0
 11
90.699999999999775
 21
44.800000000000011
 31
0.0
  0
LINE
  5
663
  8
0
 10
89.0
 20
56.499999999999908
 30
0.0
 11
89.0
 21
43.499999999999943
 31
0.0
  0
LINE
  5
664
  8
0
 10
81.999999999999716
 20
56.999999999999922
 30
0.0
 11
82.0
 21
42.99999999999995
 31
0.0
  0
LINE
  5
665
  8
0
 10
81.0
 20
56.999999999999922
 30
0.0
 11
81.0
 21
42.99999999999995
 31
0.0
  0
ARC
  5
666
  8
0
 10
105.0
 20
49.999999999999922
 30
0.0
 40
25.0
 50
163.73979529168849
 51
196.26020470831151
  0
LINE
  5
667
  8
0
 10
81.999999999999716
 20
56.999999999999922
 30
0.0
 11
82.499999999999716
 21
57.499999999999901
 31
0.0
  0
ARC
  5
668
  8
0
 10
88.499999999999986
 20
56.499999999999908
 30
0.0
 40
0.5
 50
0.0000000000001018
 51
90.0
  0
LINE
  5
669
  8
0
 10
90.399999999999764
 20
55.499999999999837
 30
0.0
 11
90.699999999999775
 21
55.199999999999847
 31
0.0
  0
LINE
  5
66A
  8
0
 10
90.399999999999764
 20
44.500000000000007
 30
0.0
 11
90.699999999999775
 21
44.800000000000011
 31
0.0
  0
LINE
  5
66B
  8
0
 10
89.0
 20
44.500000000000007
 30
0.0
 11
90.399999999999764
 21
44.500000000000007
 31
0.0
  0
ARC
  5
66C
  8
0
 10
88.499999999999986
 20
43.499999999999943
 30
0.0
 40
0.5
 50
270.0
 51
359.99999999999989
  0
LINE
  5
66D
  8
0
 10
88.499999999999986
 20
42.999999999999943
 30
0.0
 11
87.888775298314727
 21
42.999999999999943
 31
0.0
  0
LINE
  5
66E
  8
1
 10
103.5
 20
49.999999999999922
 30
0.0
 11
77.5
 21
49.999999999999922
 31
0.0
  0
LINE
  5
66F
  8
0
 10
81.999999999999773
 20
52.936172098107392
 30
0.0
 11
87.199999999999974
 21
52.936172098107392
 31
0.0
  0
LINE
  5
670
  8
0
 10
81.999999999999829
 20
51.35963233127142
 30
0.0
 11
87.199999999999974
 21
51.35963233127142
 31
0.0
  0
POLYLINE
  5
671
  8
0
 66
     1
 10
0.0
 20
0.0
 30
0.0
  0
VERTEX
  5
672
  8
0
 10
87.200000000000045
 20
51.35963233127142
 30
0.0
 42
0.084820698077237
  0
VERTEX
  5
673
  8
0
 10
87.511790500212726
 20
51.41290820300199
 30
0.0
 42
0.0917396304147322
  0
VERTEX
  5
674
  8
0
 10
87.765685424949254
 20
51.558764523556171
 30
0.0
 42
0.1035870499853452
 70
     2
 50
40.359539728161842
  0
VERTEX
  5
675
  8
0
 10
87.955054254257732
 20
51.802787889723533
 30
0.0
 42
0.1337296478510843
 50
40.359539728161842
  0
VERTEX
  5
676
  8
0
 10
88.0
 20
52.039512162874992
 30
0.0
 42
0.1138667826143858
  0
SEQEND
  5
677
  8
0
  0
POLYLINE
  5
678
  8
0
 66
     1
 10
0.0
 20
0.0
 30
0.0
  0
VERTEX
  5
679
  8
0
 10
88.000000000000568
 20
52.039512162874992
 30
0.0
 42
0.0887302727901319
  0
VERTEX
  5
67A
  8
0
 10
87.937807766117018
 20
52.387209677336273
 30
0.0
 42
0.0938982457625659
  0
VERTEX
  5
67B
  8
0
 10
87.765685424949652
 20
52.673546483496111
 30
0.0
 42
0.1022687129458039
 70
     2
 50
131.73934290158991
  0
VERTEX
  5
67C
  8
0
 10
87.501543828353874
 20
52.869587536836121
 30
0.0
 42
0.1090921545779243
 50
131.73934290158991
  0
VERTEX
  5
67D
  8
0
 10
87.199999999999974
 20
52.936172098107392
 30
0.0
 42
0.1090921545779193
  0
SEQEND
  5
67E
  8
0
  0
LINE
  5
67F
  8
0
 10
81.999999999999773
 20
54.035019443095258
 30
0.0
 11
87.199999999999974
 21
54.035019443095258
 31
0.0
  0
POLYLINE
  5
680
  8
0
 66
     1
 10
0.0
 20
0.0
 30
0.0
  0
VERTEX
  5
681
  8
0
 10
88.000000000001421
 20
54.41626200196923
 30
0.0
 42
0.0884260944204741
  0
VERTEX
  5
682
  8
0
 10
87.937768662711107
 20
54.7653938958384
 30
0.0
 42
0.0937369940414797
  0
VERTEX
  5
683
  8
0
 10
87.76568542495022
 20
55.052658105037118
 30
0.0
 42
0.1023760341356386
 70
     2
 50
131.6335393366198
  0
VERTEX
  5
684
  8
0
 10
87.501384828942946
 20
55.249487815854181
 30
0.0
 42
0.109451844686441
 50
131.6335393366198
  0
VERTEX
  5
685
  8
0
 10
87.200000000000045
 20
55.316262001969243
 30
0.0
 42
0.109451844686438
  0
SEQEND
  5
686
  8
0
  0
POLYLINE
  5
687
  8
0
 66
     1
 10
0.0
 20
0.0
 30
0.0
  0
VERTEX
  5
688
  8
0
 10
87.199999999999974
 20
54.035019443095251
 30
0.0
 42
0.0487609169509712
  0
VERTEX
  5
689
  8
0
 10
87.524205312634578
 20
54.066711892568392
 30
0.0
 42
0.0625377209738474
  0
VERTEX
  5
68A
  8
0
 10
87.765685424949254
 20
54.14668280331253
 30
0.0
 42
0.1030003547984925
 70
     2
 50
25.480283648883539
  0
VERTEX
  5
68B
  8
0
 10
87.962610454307367
 20
54.296383486619739
 30
0.0
 42
0.2095873959744552
 50
25.480283648883539
  0
VERTEX
  5
68C
  8
0
 10
88.0
 20
54.416262001969251
 30
0.0
 42
0.1808147028095984
  0
SEQEND
  5
68D
  8
0
  0
LINE
  5
68E
  8
0
 10
81.999999999999773
 20
56.012715036207069
 30
0.0
 11
87.199999999999974
 21
56.012715036207076
 31
0.0
  0
POLYLINE
  5
68F
  8
0
 66
     1
 10
0.0
 20
0.0
 30
0.0
  0
VERTEX
  5
690
  8
0
 10
87.200000000000045
 20
56.012715036207076
 30
0.0
  0
VERTEX
  5
691
  8
0
 10
87.765685424949254
 20
56.017601954945569
 30
0.0
 42
0.0073640581750843
 70
     2
 50
1.1948007534105669
  0
VERTEX
  5
692
  8
0
 10
87.997844162554316
 20
56.025865895972458
 30
0.0
 50
1.1948007534105669
  0
VERTEX
  5
693
  8
0
 10
88.0
 20
56.029400020442253
 30
0.0
  0
SEQEND
  5
694
  8
0
  0
POLYLINE
  5
695
  8
0
 66
     1
 10
0.0
 20
0.0
 30
0.0
  0
VERTEX
  5
696
  8
0
 10
88.0
 20
56.029400020442267
 30
0.0
 42
0.0884260944203366
  0
VERTEX
  5
697
  8
0
 10
87.937768662709786
 20
56.378531914311402
 30
0.0
 42
0.0937369940414775
  0
VERTEX
  5
698
  8
0
 10
87.765685424949254
 20
56.665796123510141
 30
0.0
 42
0.10237603413573
 70
     2
 50
131.63353933657049
  0
VERTEX
  5
699
  8
0
 10
87.501384828942264
 20
56.862625834327247
 30
0.0
 42
0.109451844686613
 50
131.63353933657049
  0
VERTEX
  5
69A
  8
0
 10
87.199999999999974
 20
56.929400020442237
 30
0.0
 42
0.1094518446865995
  0
SEQEND
  5
69B
  8
0
  0
LINE
  5
69C
  8
0
 10
81.999999999999716
 20
56.950757575757422
 30
0.0
 11
88.0
 21
56.950757575757422
 31
0.0
  0
POLYLINE
  5
69D
  8
0
 66
     1
 10
0.0
 20
0.0
 30
0.0
  0
VERTEX
  5
69E
  8
0
 10
88.0
 20
56.950757575757422
 30
0.0
 42
0.1365543211489012
  0
VERTEX
  5
69F
  8
0
 10
87.944776785591088
 20
57.149189460267031
 30
0.0
 42
0.106978483895589
  0
VERTEX
  5
6A0
  8
0
 10
87.765685424949254
 20
57.339130618454618
 30
0.0
 42
0.0813232630570527
 70
     2
 50
145.52833650112001
  0
VERTEX
  5
6A1
  8
0
 10
87.517631682682236
 20
57.455713984527989
 30
0.0
 42
0.0693773007987346
 50
145.52833650112001
  0
VERTEX
  5
6A2
  8
0
 10
87.199999999999974
 20
57.499999999999922
 30
0.0
 42
0.0693773007987297
  0
SEQEND
  5
6A3
  8
0
  0
POLYLINE
  5
6A4
  8
0
 66
     1
 10
0.0
 20
0.0
 30
0.0
  0
VERTEX
  5
6A5
  8
0
 10
81.999999999999829
 20
51.35963233127142
 30
0.0
 42
0.1693013436267476
  0
VERTEX
  5
6A6
  8
0
 10
82.170982032870356
 20
51.41923571559748
 30
0.0
 42
0.1051146160715176
  0
VERTEX
  5
6A7
  8
0
 10
82.353553390593049
 20
51.64022260749163
 30
0.0
 42
0.0671308023179707
 70
     2
 50
62.438893681553111
  0
VERTEX
  5
6A8
  8
0
 10
82.471591490312903
 20
51.966655099680906
 30
0.0
 42
0.0661687674236275
 50
62.438893681553111
  0
VERTEX
  5
6A9
  8
0
 10
82.499999999999716
 20
52.317627457812449
 30
0.0
 42
0.0532781065161093
  0
SEQEND
  5
6AA
  8
0
  0
POLYLINE
  5
6AB
  8
0
 66
     1
 10
0.0
 20
0.0
 30
0.0
  0
VERTEX
  5
6AC
  8
0
 10
82.499999999999716
 20
52.317627457812428
 30
0.0
 42
0.080950176347141
  0
VERTEX
  5
6AD
  8
0
 10
82.460521156014707
 20
52.559876107613121
 30
0.0
 42
0.089415904878838
  0
VERTEX
  5
6AE
  8
0
 10
82.353553390593049
 20
52.755004567431591
 30
0.0
 42
0.1047434678398569
 70
     2
 50
128.9503103546817
  0
VERTEX
  5
6AF
  8
0
 10
82.172965912737126
 20
52.901714739016263
 30
0.0
 42
0.1393379481643415
 50
128.9503103546817
  0
VERTEX
  5
6B0
  8
0
 10
81.999999999999773
 20
52.93617209810597
 30
0.0
 42
0.1189395261856425
  0
SEQEND
  5
6B1
  8
0
  0
LINE
  5
6B2
  8
0
 10
82.476873017002504
 20
55.316262001969221
 30
0.0
 11
87.199999999999974
 21
55.316262001969243
 31
0.0
  0
LINE
  5
6B3
  8
0
 10
82.497840267204523
 20
56.929400020442237
 30
0.0
 11
87.199999999999974
 21
56.929400020442237
 31
0.0
  0
POLYLINE
  5
6B4
  8
0
 66
     1
 10
0.0
 20
0.0
 30
0.0
  0
VERTEX
  5
6B5
  8
0
 10
81.999999999999773
 20
54.035019443095258
 30
0.0
 42
0.1725977341064411
  0
VERTEX
  5
6B6
  8
0
 10
82.170003759844406
 20
54.09550585957814
 30
0.0
 42
0.1045759356935113
  0
VERTEX
  5
6B7
  8
0
 10
82.353553390593049
 20
54.323068238705297
 30
0.0
 42
0.0657934531255044
 70
     2
 50
63.050805064648088
  0
VERTEX
  5
6B8
  8
0
 10
82.471642454609935
 20
54.658014558184867
 30
0.0
 42
0.0646144333252036
 50
63.050805064648088
  0
VERTEX
  5
6B9
  8
0
 10
82.499999999999716
 20
55.018479547692237
 30
0.0
 42
0.038766698201342
  0
VERTEX
  5
6BA
  8
0
 10
82.476881261777521
 20
55.316209237583251
 30
0.0
 42
0.065793453125482
  0
SEQEND
  5
6BB
  8
0
  0
POLYLINE
  5
6BC
  8
0
 66
     1
 10
0.0
 20
0.0
 30
0.0
  0
VERTEX
  5
6BD
  8
0
 10
82.476881261777521
 20
55.316209237583251
 30
0.0
 42
0.0090745727271662
  0
VERTEX
  5
6BE
  8
0
 10
82.293101360639525
 20
55.312034274941141
 30
0.0
 42
0.0143819295871378
  0
VERTEX
  5
6BF
  8
0
 10
82.146446609406439
 20
55.301807082403329
 30
0.0
 42
0.0338992355660602
 70
     2
 50
185.6370843164618
  0
VERTEX
  5
6C0
  8
0
 10
82.006448089457095
 20
55.278328713679599
 30
0.0
 50
185.6370843164618
  0
VERTEX
  5
6C1
  8
0
 10
81.999999999999602
 20
55.266909819544658
 30
0.0
  0
SEQEND
  5
6C2
  8
0
  0
POLYLINE
  5
6C3
  8
0
 66
     1
 10
0.0
 20
0.0
 30
0.0
  0
VERTEX
  5
6C4
  8
0
 10
81.999999999999716
 20
56.012715036207069
 30
0.0
 42
0.1530093298729163
  0
VERTEX
  5
6C5
  8
0
 10
82.175808748863119
 20
56.067805565388447
 30
0.0
 42
0.1068968575474033
  0
VERTEX
  5
6C6
  8
0
 10
82.353553390592992
 20
56.258416097604787
 30
0.0
 42
0.0739980512359383
 70
     2
 50
59.203547677369819
  0
VERTEX
  5
6C7
  8
0
 10
82.471355203213875
 20
56.545185626889861
 30
0.0
 42
0.0745527066866755
 50
59.203547677369819
  0
VERTEX
  5
6C8
  8
0
 10
82.499999999999716
 20
56.851590932320597
 30
0.0
 42
0.0138753326343392
  0
VERTEX
  5
6C9
  8
0
 10
82.49784039319735
 20
56.92939775257129
 30
0.0
 42
0.0739980512359473
  0
SEQEND
  5
6CA
  8
0
  0
POLYLINE
  5
6CB
  8
0
 66
     1
 10
0.0
 20
0.0
 30
0.0
  0
VERTEX
  5
6CC
  8
0
 10
82.49784039319735
 20
56.92939775257129
 30
0.0
 42
0.0490677666176228
  0
VERTEX
  5
6CD
  8
0
 10
82.297517089321033
 20
56.909266581267239
 30
0.0
 42
0.0634045608159079
  0
VERTEX
  5
6CE
  8
0
 10
82.146446609406439
 20
56.858388341997419
 30
0.0
 42
0.1034566318356368
 70
     2
 50
205.86865708366091
  0
VERTEX
  5
6CF
  8
0
 10
82.030097060764547
 20
56.768521931895947
 30
0.0
 42
0.1785993307650415
 50
205.86865708366091
  0
VERTEX
  5
6D0
  8
0
 10
81.999999999999716
 20
56.686950984809073
 30
0.0
 42
0.1785993307650476
  0
SEQEND
  5
6D1
  8
0
  0
POLYLINE
  5
6D2
  8
0
 66
     1
 10
0.0
 20
0.0
 30
0.0
  0
VERTEX
  5
6D3
  8
0
 10
81.999999999999716
 20
56.950757575757422
 30
0.0
 42
0.1071599301239226
  0
VERTEX
  5
6D4
  8
0
 10
82.188996892520606
 20
56.991733904805898
 30
0.0
 42
0.1016693890430089
  0
VERTEX
  5
6D5
  8
0
 10
82.353553390592992
 20
57.11162695730269
 30
0.0
 42
0.0947597749533865
 70
     2
 50
47.687000002127228
  0
VERTEX
  5
6D6
  8
0
 10
82.471189688634595
 20
57.303692332093021
 30
0.0
 42
0.1078501517118088
 50
47.687000002127228
  0
VERTEX
  5
6D7
  8
0
 10
82.499999999999716
 20
57.499999999999901
 30
0.0
 42
0.0903926215511384
  0
SEQEND
  5
6D8
  8
0
  0
LINE
  5
6D9
  8
0
 10
81.999999999999886
 20
50.097743546621217
 30
0.0
 11
87.199999999999974
 21
50.097743546621217
 31
0.0
  0
POLYLINE
  5
6DA
  8
0
 66
     1
 10
0.0
 20
0.0
 30
0.0
  0
VERTEX
  5
6DB
  8
0
 10
88.004123959300145
 20
49.310112142433262
 30
0.0
 42
0.3005210117397037
 70
     2
 50
135.44635927459191
  0
VERTEX
  5
6DC
  8
0
 10
87.506733981543277
 20
50.037603363779951
 30
0.0
 42
0.0971086656708483
 50
135.44635927459191
  0
VERTEX
  5
6DD
  8
0
 10
87.199999999999974
 20
50.097743546621217
 30
0.0
 42
0.0971086656708664
  0
SEQEND
  5
6DE
  8
0
  0
LINE
  5
6DF
  8
0
 10
90.399999999999764
 20
55.499999999999837
 30
0.0
 11
90.399999999999764
 21
44.500000000000043
 31
0.0
  0
ARC
  5
6E0
  8
0
 10
128.31553815569919
 20
56.029400020442253
 30
0.0
 40
0.9
 50
46.937740059521317
 51
181.06225994047779
  0
ARC
  5
6E1
  8
0
 10
126.09524415184821
 20
54.416262001969208
 30
0.0
 40
0.9
 50
70.937740059521801
 51
205.0622599404777
  0
ARC
  5
6E2
  8
0
 10
124.7230269924507
 20
52.039512162874971
 30
0.0
 40
0.9
 50
94.937740059522795
 51
229.06225994047679
  0
ARC
  5
6E3
  8
0
 10
124.4361554905681
 20
49.310112142433283
 30
0.0
 40
0.9
 50
118.9377400595216
 51
253.06225994047759
  0
ARC
  5
6E4
  8
0
 10
125.2842323350215
 20
46.699999999999257
 30
0.0
 40
0.9
 50
142.93774005952321
 51
277.06225994047787
  0
ARC
  5
6E5
  8
0
 10
127.1206173348689
 20
44.660487837124229
 30
0.0
 40
0.9
 50
166.9377400595215
 51
301.06225994047787
  0
ARC
  5
6E6
  8
0
 10
129.62778284060249
 20
43.544225835155537
 30
0.0
 40
0.9
 50
190.93774005952241
 51
325.06225994047702
  0
ARC
  5
6E7
  8
0
 10
132.37221715939739
 20
43.544225835155522
 30
0.0
 40
0.9
 50
214.93774005952289
 51
349.06225994047747
  0
ARC
  5
6E8
  8
0
 10
134.879382665131
 20
44.660487837124222
 30
0.0
 40
0.9
 50
238.9377400595221
 51
13.06225994047842
  0
ARC
  5
6E9
  8
0
 10
136.71576766497839
 20
46.699999999999257
 30
0.0
 40
0.9
 50
262.93774005952213
 51
37.062259940476771
  0
ARC
  5
6EA
  8
0
 10
137.5638445094319
 20
49.310112142433262
 30
0.0
 40
0.9
 50
286.93774005952241
 51
61.062259940478363
  0
ARC
  5
6EB
  8
0
 10
137.2769730075492
 20
52.039512162874992
 30
0.0
 40
0.9
 50
310.93774005952309
 51
85.06225994047719
  0
ARC
  5
6EC
  8
0
 10
135.90475584815169
 20
54.416262001969251
 30
0.0
 40
0.9
 50
334.93774005952218
 51
109.0622599404782
  0
ARC
  5
6ED
  8
0
 10
133.68446184430081
 20
56.029400020442253
 30
0.0
 40
0.9
 50
358.93774005952213
 51
133.0622599404787
  0
ARC
  5
6EE
  8
0
 10
131.0
 20
56.600000000001202
 30
0.0
 40
0.9
 50
22.937740059523161
 51
157.06225994047679
  0
CIRCLE
  5
6EF
  8
0
 10
131.0
 20
49.999999999999922
 30
0.0
 40
7.0
  0
LINE
  5
6F0
  8
1
 10
120.9999999999979
 20
49.999999999999922
 30
0.0
 11
141.00000000000199
 21
49.999999999999922
 31
0.0
  0
LINE
  5
6F1
  8
1
 10
131.0
 20
60.000000000001911
 30
0.0
 11
131.0
 21
39.999999999998103
 31
0.0
  0
CIRCLE
  5
6F2
  8
0
 10
131.0
 20
49.999999999999922
 30
0.0
 40
5.4999999999999067
  0
CIRCLE
  5
6F3
  8
0
 10
131.0
 20
49.999999999999922
 30
0.0
 40
5.1999999999999531
  0
CIRCLE
  5
6F4
  8
0
 10
131.0
 20
49.999999999999922
 30
0.0
 40
3.5
  0
LINE
  5
6F5
  8
0
 10
81.999999999999886
 20
48.449152437498753
 30
0.0
 11
87.199999999999974
 21
48.449152437498753
 31
0.0
  0
LINE
  5
6F6
  8
0
 10
81.999999999999886
 20
47.24241424795197
 30
0.0
 11
87.199999999999974
 21
47.24241424795197
 31
0.0
  0
LINE
  5
6F7
  8
0
 10
81.999999999999929
 20
45.799999999999272
 30
0.0
 11
87.200000000000045
 21
45.799999999999272
 31
0.0
  0
POLYLINE
  5
6F8
  8
0
 66
     1
 10
0.0
 20
0.0
 30
0.0
  0
VERTEX
  5
6F9
  8
0
 10
87.200000000000045
 20
48.449152437498753
 30
0.0
 42
0.1047373095233984
  0
VERTEX
  5
6FA
  8
0
 10
87.505019274607719
 20
48.513754916846132
 30
0.0
 42
0.1008628348932723
  0
VERTEX
  5
6FB
  8
0
 10
87.768601504535354
 20
48.701321696745708
 30
0.0
 42
0.095827105349752
 70
     2
 50
46.954967540051364
  0
VERTEX
  5
6FC
  8
0
 10
87.957849794597806
 20
49.003038761420882
 30
0.0
 42
0.1102268019169668
 50
46.954967540051349
  0
VERTEX
  5
6FD
  8
0
 10
88.004123959300045
 20
49.310112142433262
 30
0.0
 42
0.0925468656453023
  0
SEQEND
  5
6FE
  8
0
  0
POLYLINE
  5
6FF
  8
0
 66
     1
 10
0.0
 20
0.0
 30
0.0
  0
VERTEX
  5
700
  8
0
 10
87.200000000000045
 20
45.799999999999272
 30
0.0
 42
0.109451844686567
  0
VERTEX
  5
701
  8
0
 10
87.501384828942378
 20
45.86677418611427
 30
0.0
 42
0.1023760341356968
  0
VERTEX
  5
702
  8
0
 10
87.765685424949368
 20
46.063603896931383
 30
0.0
 42
0.0937369940414567
 70
     2
 50
48.366460663424753
  0
VERTEX
  5
703
  8
0
 10
87.953857847106406
 20
46.377726310871402
 30
0.0
 42
0.1056789781821704
 50
48.366460663424753
  0
VERTEX
  5
704
  8
0
 10
88.000000000000114
 20
46.699999999999271
 30
0.0
 42
0.0884260944203311
  0
SEQEND
  5
705
  8
0
  0
POLYLINE
  5
706
  8
0
 66
     1
 10
0.0
 20
0.0
 30
0.0
  0
VERTEX
  5
707
  8
0
 10
88.000000000000114
 20
46.69999999999925
 30
0.0
 42
0.1379678187719779
  0
VERTEX
  5
708
  8
0
 10
87.945002820272634
 20
46.895517702410032
 30
0.0
 42
0.1070479250165925
  0
VERTEX
  5
709
  8
0
 10
87.765685424949311
 20
47.083544792938817
 30
0.0
 42
0.0806815452171447
 70
     2
 50
145.8620302455324
  0
VERTEX
  5
70A
  8
0
 10
87.517923310379047
 20
47.198617995415347
 30
0.0
 42
0.068554928873505
 50
145.8620302455324
  0
VERTEX
  5
70B
  8
0
 10
87.199999999999974
 20
47.242414247951977
 30
0.0
 42
0.0685549288734955
  0
SEQEND
  5
70C
  8
0
  0
POLYLINE
  5
70D
  8
0
 66
     1
 10
0.0
 20
0.0
 30
0.0
  0
VERTEX
  5
70E
  8
0
 10
81.999999999999886
 20
48.449152437498753
 30
0.0
 42
0.1424461909456755
  0
VERTEX
  5
70F
  8
0
 10
82.178918776124306
 20
48.501180735690554
 30
0.0
 42
0.1071692163336771
  0
VERTEX
  5
710
  8
0
 10
82.353553390593149
 20
48.673767586488019
 30
0.0
 42
0.0786621310584457
 70
     2
 50
56.896091303302782
  0
VERTEX
  5
711
  8
0
 10
82.47122748644324
 20
48.936727691575747
 30
0.0
 42
0.080734269475578
 50
56.896091303302782
  0
VERTEX
  5
712
  8
0
 10
82.499999999999886
 20
49.216036525492378
 30
0.0
 42
0.0660383150183297
  0
SEQEND
  5
713
  8
0
  0
POLYLINE
  5
714
  8
0
 66
     1
 10
0.0
 20
0.0
 30
0.0
  0
VERTEX
  5
715
  8
0
 10
82.499999999999886
 20
49.216036525492378
 30
0.0
 42
0.0577416765609236
  0
VERTEX
  5
716
  8
0
 10
82.458937817989536
 20
49.570419000829453
 30
0.0
 42
0.0714091702525743
  0
VERTEX
  5
717
  8
0
 10
82.353553390593106
 20
49.839497539152369
 30
0.0
 42
0.1064177416035658
 70
     2
 50
119.5567829051063
  0
VERTEX
  5
718
  8
0
 10
82.174026149561882
 20
50.040954605503238
 30
0.0
 42
0.1590353561062324
 50
119.5567829051063
  0
VERTEX
  5
719
  8
0
 10
81.999999999999886
 20
50.097743546621217
 30
0.0
 42
0.1590353561062325
  0
SEQEND
  5
71A
  8
0
  0
POLYLINE
  5
71B
  8
0
 66
     1
 10
0.0
 20
0.0
 30
0.0
  0
VERTEX
  5
71C
  8
0
 10
81.999999999999929
 20
45.799999999999272
 30
0.0
 42
0.0894458167924512
  0
VERTEX
  5
71D
  8
0
 10
82.193702417820191
 20
45.834931210997297
 30
0.0
 42
0.0942731609262745
  0
VERTEX
  5
71E
  8
0
 10
82.353553390593149
 20
45.931801948465321
 30
0.0
 42
0.1020133445945687
 70
     2
 50
41.987212495820522
  0
VERTEX
  5
71F
  8
0
 10
82.471677689209287
 20
46.09223737331078
 30
0.0
 42
0.1275357601605807
 50
41.987212495820522
  0
VERTEX
  5
720
  8
0
 10
82.499999999999886
 20
46.249999999999261
 30
0.0
 42
0.1082535630563688
  0
SEQEND
  5
721
  8
0
  0
POLYLINE
  5
722
  8
0
 66
     1
 10
0.0
 20
0.0
 30
0.0
  0
VERTEX
  5
723
  8
0
 10
82.502349827280966
 20
46.249999999999282
 30
0.0
 42
0.0517152061915078
  0
VERTEX
  5
724
  8
0
 10
82.460748271402508
 20
46.651142112064967
 30
0.0
 42
0.0655713246559271
  0
VERTEX
  5
725
  8
0
 10
82.355214969398219
 20
46.951742844472783
 30
0.0
 42
0.104480368498406
 70
     2
 50
116.84806113141011
  0
VERTEX
  5
726
  8
0
 10
82.170638179064554
 20
47.181496021041823
 30
0.0
 42
0.1731495608390602
 50
116.84806113141011
  0
VERTEX
  5
727
  8
0
 10
81.999999999999886
 20
47.24241424795197
 30
0.0
 42
0.173149560839035
  0
SEQEND
  5
728
  8
0
  0
LINE
  5
729
  8
0
 10
82.0
 20
44.863896577691911
 30
0.0
 11
87.199999999999974
 21
44.863896577691911
 31
0.0
  0
LINE
  5
72A
  8
0
 10
82.0
 20
43.373457849183673
 30
0.0
 11
88.000000000000114
 21
43.373457849183673
 31
0.0
  0
LINE
  5
72B
  8
0
 10
82.0
 20
43.760487837124217
 30
0.0
 11
87.199999999999974
 21
43.760487837124217
 31
0.0
  0
LINE
  5
72C
  8
0
 10
82.435415786179306
 20
42.644225835155517
 30
0.0
 11
87.199999999999974
 21
42.644225835155517
 31
0.0
  0
POLYLINE
  5
72D
  8
0
 66
     1
 10
0.0
 20
0.0
 30
0.0
  0
VERTEX
  5
72E
  8
0
 10
88.000000000000156
 20
44.660487837124222
 30
0.0
  0
VERTEX
  5
72F
  8
0
 10
87.967149214455404
 20
44.719199131763673
 30
0.0
 42
0.0755304115360041
  0
VERTEX
  5
730
  8
0
 10
87.765685424949311
 20
44.804319536932262
 30
0.0
 42
0.0360289294856224
 70
     2
 50
165.73421560063781
  0
VERTEX
  5
731
  8
0
 10
87.529207438744535
 20
44.846608597023021
 30
0.0
 42
0.0262388941048682
 50
165.73421560063781
  0
VERTEX
  5
732
  8
0
 10
87.199999999999974
 20
44.863896577691911
 30
0.0
 42
0.0262388941048767
  0
SEQEND
  5
733
  8
0
  0
POLYLINE
  5
734
  8
0
 66
     1
 10
0.0
 20
0.0
 30
0.0
  0
VERTEX
  5
735
  8
0
 10
87.199999999999974
 20
43.760487837124217
 30
0.0
 42
0.1094518446865843
  0
VERTEX
  5
736
  8
0
 10
87.501384828942378
 20
43.827262023239243
 30
0.0
 42
0.102376034135693
  0
VERTEX
  5
737
  8
0
 10
87.765685424949311
 20
44.02409173405632
 30
0.0
 42
0.0937369940414574
 70
     2
 50
48.366460663424299
  0
VERTEX
  5
738
  8
0
 10
87.953857847106406
 20
44.338214147996318
 30
0.0
 42
0.1056789781821949
 50
48.366460663424299
  0
VERTEX
  5
739
  8
0
 10
88.000000000000114
 20
44.660487837124222
 30
0.0
 42
0.0884260944203305
  0
SEQEND
  5
73A
  8
0
  0
POLYLINE
  5
73B
  8
0
 66
     1
 10
0.0
 20
0.0
 30
0.0
  0
VERTEX
  5
73C
  8
0
 10
87.199999999999974
 20
42.644225835155517
 30
0.0
 42
0.0905018488886135
  0
VERTEX
  5
73D
  8
0
 10
87.509491163909161
 20
42.700707498094069
 30
0.0
 42
0.0948152213876634
  0
VERTEX
  5
73E
  8
0
 10
87.765685424949368
 20
42.857812947006053
 30
0.0
 42
0.1016292794480442
 70
     2
 50
42.3504241649891
  0
VERTEX
  5
73F
  8
0
 10
87.954611359844705
 20
43.117431823965909
 30
0.0
 42
0.1261922513728324
 50
42.3504241649891
  0
VERTEX
  5
740
  8
0
 10
88.000000000000227
 20
43.373457849183673
 30
0.0
 42
0.10703491817773
  0
SEQEND
  5
741
  8
0
  0
POLYLINE
  5
742
  8
0
 66
     1
 10
0.0
 20
0.0
 30
0.0
  0
VERTEX
  5
743
  8
0
 10
82.0
 20
43.760487837124217
 30
0.0
 42
0.0353755201018935
  0
VERTEX
  5
744
  8
0
 10
82.204684073851524
 20
43.774987593655311
 30
0.0
 42
0.0474531546627637
  0
VERTEX
  5
745
  8
0
 10
82.353553390593234
 20
43.810831701654791
 30
0.0
 42
0.0906507402724792
 70
     2
 50
18.971402395643111
  0
VERTEX
  5
746
  8
0
 10
82.480680622717117
 20
43.88226234820209
 30
0.0
 50
18.971402395643111
  0
VERTEX
  5
747
  8
0
 10
82.499999999999886
 20
43.932372542186762
 30
0.0
  0
SEQEND
  5
748
  8
0
  0
POLYLINE
  5
749
  8
0
 66
     1
 10
0.0
 20
0.0
 30
0.0
  0
VERTEX
  5
74A
  8
0
 10
82.499999999999886
 20
43.932372542186783
 30
0.0
 42
0.054747779625635
  0
VERTEX
  5
74B
  8
0
 10
82.458762755955817
 20
44.307854827812342
 30
0.0
 42
0.0685683081940128
  0
VERTEX
  5
74C
  8
0
 10
82.353553390593149
 20
44.591059504530733
 30
0.0
 42
0.1056237021745601
 70
     2
 50
118.2248930532412
  0
VERTEX
  5
74D
  8
0
 10
82.172019087255137
 20
44.805240400637437
 30
0.0
 42
0.1658060814224231
 50
118.2248930532412
  0
VERTEX
  5
74E
  8
0
 10
82.0
 20
44.863896577691911
 30
0.0
 42
0.1658060814224554
  0
SEQEND
  5
74F
  8
0
  0
LINE
  5
750
  8
0
 10
82.0
 20
42.99999999999995
 30
0.0
 11
81.0
 21
42.999999999999943
 31
0.0
  0
POLYLINE
  5
751
  8
0
 66
     1
 10
0.0
 20
0.0
 30
0.0
  0
VERTEX
  5
752
  8
0
 10
82.499807260066163
 20
42.644225835155517
 30
0.0
 42
0.0048999274164337
 50
54.829284635530513
  0
VERTEX
  5
753
  8
0
 10
82.499999999999886
 20
42.6638929944951
 30
0.0
 42
0.0711168803362826
  0
VERTEX
  5
754
  8
0
 10
82.459804563620082
 20
42.945064942159433
 30
0.0
 42
0.0826512826045296
  0
VERTEX
  5
755
  8
0
 10
82.353553390593234
 20
43.165631114937042
 30
0.0
 42
0.1067866567410894
 70
     2
 50
125.1707153644694
  0
VERTEX
  5
756
  8
0
 10
82.181488877350304
 20
43.324066800185527
 30
0.0
 42
0.133641581777159
 50
125.1707153644694
  0
VERTEX
  5
757
  8
0
 10
82.0
 20
43.373457849183673
 30
0.0
 42
0.1336415817771489
  0
SEQEND
  5
758
  8
0
  0
POLYLINE
  5
759
  8
0
 66
     1
 10
0.0
 20
0.0
 30
0.0
  0
VERTEX
  5
75A
  8
0
 10
82.0
 20
42.99999999999995
 30
0.0
 42
0.1325624329507443
  0
VERTEX
  5
75B
  8
0
 10
82.034910274095637
 20
42.870639056196197
 30
0.0
 42
0.1066985872012934
  0
VERTEX
  5
75C
  8
0
 10
82.146446609406667
 20
42.748429675467477
 30
0.0
 42
0.0831450225330238
 70
     2
 50
324.56631062914312
  0
VERTEX
  5
75D
  8
0
 10
82.31854264815604
 20
42.664760980360569
 30
0.0
 42
0.087184510723947
 50
324.56631062914312
  0
VERTEX
  5
75E
  8
0
 10
82.499999999999886
 20
42.644225835154771
 30
0.0
 42
0.0717773050186755
  0
SEQEND
  5
75F
  8
0
  0
ENDSEC
  0
EOF
