  0
SECTION
  2
HEADER
  9
$ACADVER
  1
AC1009
  9
$INSBASE
 10
0.0
 20
0.0
 30
0.0
  9
$EXTMIN
 10
0.0
 20
-2.960436562073669
 30
0.0
  9
$EXTMAX
 10
185.91145477791591
 20
103.335427493271
 30
0.0
  9
$LIMMIN
 10
0.0
 20
0.0
  9
$LIMMAX
 10
187.5
 20
135.0
  9
$ORTHOMODE
 70
     1
  9
$REGENMODE
 70
     1
  9
$FILLMODE
 70
     1
  9
$QTEXTMODE
 70
     0
  9
$MIRRTEXT
 70
     0
  9
$DRAGMODE
 70
     2
  9
$LTSCALE
 40
5.0
  9
$OSMODE
 70
  3071
  9
$ATTMODE
 70
     1
  9
$TEXTSIZE
 40
0.2
  9
$TRACEWID
 40
0.05
  9
$TEXTSTYLE
  7
STANDARD
  9
$CLAYER
  8
0
  9
$CELTYPE
  6
BYLAYER
  9
$CECOLOR
 62
   256
  9
$DIMSCALE
 40
0.5
  9
$DIMASZ
 40
3.0
  9
$DIMEXO
 40
2.0
  9
$DIMDLI
 40
0.38
  9
$DIMRND
 40
0.0
  9
$DIMDLE
 40
0.0
  9
$DIMEXE
 40
2.0
  9
$DIMTP
 40
0.0
  9
$DIMTM
 40
0.0
  9
$DIMTXT
 40
3.2000000000000002
  9
$DIMCEN
 40
0.0
  9
$DIMTSZ
 40
0.0
  9
$DIMTOL
 70
     0
  9
$DIMLIM
 70
     0
  9
$DIMTIH
 70
     0
  9
$DIMTOH
 70
     0
  9
$DIMSE1
 70
     0
  9
$DIMSE2
 70
     0
  9
$DIMTAD
 70
     1
  9
$DIMZIN
 70
     0
  9
$DIMBLK
  1

  9
$DIMASO
 70
     1
  9
$DIMSHO
 70
     0
  9
$DIMPOST
  1

  9
$DIMAPOST
  1

  9
$DIMALT
 70
     0
  9
$DIMALTD
 70
     2
  9
$DIMALTF
 40
25.399999999999999
  9
$DIMLFAC
 40
1.0
  9
$DIMTOFL
 70
     1
  9
$DIMTVP
 40
1.6000000000000001
  9
$DIMTIX
 70
     1
  9
$DIMSOXD
 70
     0
  9
$DIMSAH
 70
     0
  9
$DIMBLK1
  1

  9
$DIMBLK2
  1

  9
$DIMSTYLE
  2
STANDARD
  9
$DIMCLRD
 70
     0
  9
$DIMCLRE
 70
     0
  9
$DIMCLRT
 70
     0
  9
$DIMTFAC
 40
1.0
  9
$DIMGAP
 40
0.09
  9
$LUNITS
 70
     2
  9
$LUPREC
 70
     4
  9
$SKETCHINC
 40
0.1
  9
$FILLETRAD
 40
0.8
  9
$AUNITS
 70
     1
  9
$AUPREC
 70
     4
  9
$MENU
  1
E:\r13\win\SUPPORT\ACAD
  9
$ELEVATION
 40
0.0
  9
$PELEVATION
 40
0.0
  9
$THICKNESS
 40
0.0
  9
$LIMCHECK
 70
     0
  9
$BLIPMODE
 70
     0
  9
$CHAMFERA
 40
0.0
  9
$CHAMFERB
 40
0.0
  9
$SKPOLY
 70
     0
  9
$TDCREATE
 40
2449839.7859490742
  9
$TDUPDATE
 40
2456597.4865323259
  9
$TDINDWG
 40
0.0706331134
  9
$TDUSRTIMER
 40
0.0706331134
  9
$USRTIMER
 70
     1
  9
$ANGBASE
 50
0.0
  9
$ANGDIR
 70
     0
  9
$PDMODE
 70
     0
  9
$PDSIZE
 40
0.0
  9
$PLINEWID
 40
0.0
  9
$COORDS
 70
     1
  9
$SPLFRAME
 70
     0
  9
$SPLINETYPE
 70
     6
  9
$SPLINESEGS
 70
     8
  9
$ATTDIA
 70
     0
  9
$ATTREQ
 70
     1
  9
$HANDLING
 70
     1
  9
$HANDSEED
  5
C30
  9
$SURFTAB1
 70
     6
  9
$SURFTAB2
 70
     6
  9
$SURFTYPE
 70
     6
  9
$SURFU
 70
     6
  9
$SURFV
 70
     6
  9
$UCSNAME
  2

  9
$UCSORG
 10
0.0
 20
0.0
 30
0.0
  9
$UCSXDIR
 10
1.0
 20
0.0
 30
0.0
  9
$UCSYDIR
 10
0.0
 20
1.0
 30
0.0
  9
$PUCSNAME
  2

  9
$PUCSORG
 10
0.0
 20
0.0
 30
0.0
  9
$PUCSXDIR
 10
1.0
 20
0.0
 30
0.0
  9
$PUCSYDIR
 10
0.0
 20
1.0
 30
0.0
  9
$USERI1
 70
     0
  9
$USERI2
 70
     1
  9
$USERI3
 70
     1
  9
$USERI4
 70
     0
  9
$USERI5
 70
     0
  9
$USERR1
 40
0.0
  9
$USERR2
 40
0.0
  9
$USERR3
 40
0.0
  9
$USERR4
 40
0.0
  9
$USERR5
 40
0.0
  9
$WORLDVIEW
 70
     1
  9
$SHADEDGE
 70
     3
  9
$SHADEDIF
 70
    70
  9
$TILEMODE
 70
     1
  9
$MAXACTVP
 70
    16
  9
$PLIMCHECK
 70
     0
  9
$PEXTMIN
 10
1.0000000000000000E+020
 20
1.0000000000000000E+020
 30
1.0000000000000000E+020
  9
$PEXTMAX
 10
-1.0000000000000000E+020
 20
-1.0000000000000000E+020
 30
-1.0000000000000000E+020
  9
$PLIMMIN
 10
0.0
 20
0.0
  9
$PLIMMAX
 10
12.0
 20
9.0
  9
$UNITMODE
 70
     0
  9
$VISRETAIN
 70
     0
  9
$PLINEGEN
 70
     0
  9
$PSLTSCALE
 70
     0
  0
ENDSEC
  0
SECTION
  2
TABLES
  0
TABLE
  2
VPORT
 70
     1
  0
VPORT
  2
*ACTIVE
 70
     0
 10
0.0
 20
0.0
 11
1.0
 21
1.0
 12
93.74713919532617
 22
80.848703909439024
 13
0.0
 23
0.0
 14
5.0
 24
5.0
 15
5.0
 25
5.0
 16
0.0
 26
0.0
 36
1.0
 17
0.0
 27
0.0
 37
0.0
 40
169.22413112104309
 41
1.9089595375722539
 42
50.0
 43
0.0
 44
0.0
 50
0.0
 51
0.0
 71
     0
 72
   500
 73
     1
 74
     0
 75
     0
 76
     0
 77
     0
 78
     2
  0
ENDTAB
  0
TABLE
  2
LTYPE
 70
     3
  0
LTYPE
  2
CONTINUOUS
 70
     0
  3
Solid Line
 72
    65
 73
     0
 40
0.0
  0
LTYPE
  2
CENTER
 70
     0
  3
____ _ ____ _ ____ _ ____ _ ____ _ ____ _ ____
 72
    65
 73
     4
 40
2.0
 49
1.25
 49
-0.25
 49
0.25
 49
-0.25
  0
LTYPE
  2
PHANTOM2
 70
     0
  3
___ _ _ ___ _ _ ___ _ _ ___ _ _
 72
    65
 73
     6
 40
1.25
 49
0.625
 49
-0.125
 49
0.125
 49
-0.125
 49
0.125
 49
-0.125
  0
ENDTAB
  0
TABLE
  2
LAYER
 70
     4
  0
LAYER
  2
0
 70
     0
 62
     7
  6
CONTINUOUS
  0
LAYER
  2
1
 70
     0
 62
     1
  6
CENTER
  0
LAYER
  2
3
 70
     0
 62
     3
  6
CONTINUOUS
  0
LAYER
  2
DEFPOINTS
 70
     0
 62
     7
  6
CONTINUOUS
  0
ENDTAB
  0
TABLE
  2
STYLE
 70
     2
  0
STYLE
  2
STANDARD
 70
     0
 40
0.0
 41
1.0
 50
0.0
 71
     0
 42
0.2
  3
TXT
  4
BIGFONT
  0
STYLE
  2
STANDARD1
 70
     0
 40
0.0
 41
1.0
 50
0.0
 71
     0
 42
3.0
  3
txt
  4

  0
ENDTAB
  0
TABLE
  2
VIEW
 70
     1
  0
VIEW
  2
ALL
 70
     0
 40
135.0
 10
110.4957983193277
 20
67.5
 41
0.0
 11
0.0
 21
0.0
 31
1.0
 12
0.0
 22
0.0
 32
0.0
 42
0.0
 43
0.0
 44
0.0
 50
0.0
 71
     0
  0
ENDTAB
  0
TABLE
  2
UCS
 70
     0
  0
ENDTAB
  0
TABLE
  2
APPID
 70
    22
  0
APPID
  2
ACAD
 70
     0
  0
APPID
  2
GENIUS_GENODEF_13
 70
     0
  0
APPID
  2
GENIUS_GENOBJ-N-FIL_13
 70
     0
  0
APPID
  2
GENIUS_GENCFG_13
 70
     0
  0
APPID
  2
GENIUS_GENCFG0_13
 70
     0
  0
APPID
  2
GENIUS_GENCFG1_13
 70
     0
  0
APPID
  2
GENIUS_GENCFG2_13
 70
     0
  0
APPID
  2
GENIUS_GENCFG3_13
 70
     0
  0
APPID
  2
GENIUS_GENCFG4_13
 70
     0
  0
APPID
  2
GENIUS_GEVCFG0_13
 70
     0
  0
APPID
  2
GENIUS_GENOENT_13
 70
     0
  0
APPID
  2
GENIUS_GENOBJ-N-HTC_13
 70
     0
  0
APPID
  2
GENIUS_GENHATCH_13
 70
     0
  0
APPID
  2
GENIUS_GENFIL_13
 70
     0
  0
APPID
  2
GENIUS_GENOBJ-N-CHA_13
 70
     0
  0
APPID
  2
GEV_VCCNULL_SWITCH_OFF
 70
     0
  0
APPID
  2
GENIUS_GENDTOL_13
 70
     0
  0
APPID
  2
GENIUS_GEFCFG0_13
 70
     0
  0
APPID
  2
GENIUS_GENOREF_13
 70
     0
  0
APPID
  2
ACAD_EXEMPT_FROM_CAD_STANDARDS
 70
     0
  0
APPID
  2
ACAD_MLEADERVER
 70
     0
  0
APPID
  2
ACAD_NAV_VCDISPLAY
 70
     0
  0
ENDTAB
  0
TABLE
  2
DIMSTYLE
 70
     1
  0
DIMSTYLE
  2
STANDARD
 70
     0
  3

  4

  5

  6

  7

 40
1.0
 41
0.18
 42
0.0625
 43
0.38
 44
0.18
 45
0.0
 46
0.0
 47
0.0
 48
0.0
140
0.18
141
0.09
142
0.0
143
25.399999999999999
144
1.0
145
0.0
146
1.0
147
0.09
 71
     0
 72
     0
 73
     1
 74
     1
 75
     0
 76
     0
 77
     0
 78
     0
170
     0
171
     2
172
     0
173
     0
174
     0
175
     0
176
     0
177
     0
178
     0
  0
ENDTAB
  0
ENDSEC
  0
SECTION
  2
BLOCKS
  0
BLOCK
  8
0
  2
$MODEL_SPACE
 70
     0
 10
0.0
 20
0.0
 30
0.0
  3
$MODEL_SPACE
  1

  0
ENDBLK
  5
633
  8
0
  0
BLOCK
 67
     1
  8
0
  2
$PAPER_SPACE
 70
     0
 10
0.0
 20
0.0
 30
0.0
  3
$PAPER_SPACE
  1

  0
ENDBLK
  5
631
 67
     1
  8
0
  0
ENDSEC
  0
SECTION
  2
ENTITIES
  0
LINE
  5
55A
  8
1
 10
78.798967549181313
 20
71.335427493271027
 30
0.0
 11
14.79896754918132
 21
71.335427493271027
 31
0.0
  0
ARC
  5
55B
  8
0
 10
38.412624882991743
 20
97.14593625409492
 30
0.0
 40
1.1615331748207649
 50
206.08083551522819
 51
9.919164484795937
  0
ARC
  5
55C
  8
0
 10
38.412624883002373
 20
45.524918732443751
 30
0.0
 40
1.1615331748207649
 50
350.08083551522827
 51
153.91916448479591
  0
CIRCLE
  5
55D
  8
0
 10
46.79896754918132
 20
71.335427493271027
 30
0.0
 40
25.434063791051809
  0
CIRCLE
  5
55E
  8
0
 10
46.79896754918132
 20
71.335427493271027
 30
0.0
 40
23.0
  0
CIRCLE
  5
55F
  8
0
 10
46.79896754918132
 20
71.335427493271027
 30
0.0
 40
10.5
  0
ARC
  5
563
  8
0
 10
19.660192598802318
 20
71.335427493265428
 30
0.0
 40
1.1615331748207649
 50
278.08083551522827
 51
81.919164484795914
  0
ARC
  5
567
  8
0
 10
46.79896754918132
 20
71.335427493271027
 30
0.0
 40
27.0
 50
218.44111425648981
 51
231.55888574353381
  0
ARC
  5
568
  8
0
 10
30.847195868068692
 20
49.379697351894009
 30
0.0
 40
1.1615331748207649
 50
332.08083551522827
 51
135.91916448479591
  0
ARC
  5
569
  8
0
 10
46.79896754918132
 20
71.335427493271027
 30
0.0
 40
27.0
 50
236.4411142564899
 51
249.55888574353369
  0
ARC
  5
56A
  8
0
 10
46.79896754918132
 20
71.335427493271027
 30
0.0
 40
27.0
 50
200.44111425648981
 51
213.55888574353369
  0
ARC
  5
56B
  8
0
 10
20.988458788357381
 20
62.949084827081492
 30
0.0
 40
1.1615331748207649
 50
296.08083551522827
 51
99.919164484795942
  0
ARC
  5
56C
  8
0
 10
46.79896754918132
 20
71.335427493271027
 30
0.0
 40
27.0
 50
182.4411142564899
 51
195.55888574353369
  0
ARC
  5
56D
  8
0
 10
24.843237407810818
 20
55.383655812149321
 30
0.0
 40
1.1615331748207649
 50
314.08083551522822
 51
117.919164484796
  0
ARC
  5
574
  8
0
 10
24.843237407804232
 20
87.287199174383673
 30
0.0
 40
1.1615331748207649
 50
242.08083551522819
 51
45.919164484795893
  0
ARC
  5
575
  8
0
 10
46.79896754918132
 20
71.335427493271027
 30
0.0
 40
27.0
 50
146.44111425648981
 51
159.55888574353369
  0
ARC
  5
576
  8
0
 10
20.98845878835397
 20
79.72177015944996
 30
0.0
 40
1.1615331748207649
 50
260.08083551522822
 51
63.9191644847959
  0
ARC
  5
577
  8
0
 10
46.79896754918132
 20
71.335427493271027
 30
0.0
 40
27.0
 50
164.44111425648981
 51
177.55888574353369
  0
ARC
  5
578
  8
0
 10
46.79896754918132
 20
71.335427493271027
 30
0.0
 40
27.0
 50
110.4411142564899
 51
123.55888574353359
  0
ARC
  5
579
  8
0
 10
30.847195868059661
 20
93.291157634641479
 30
0.0
 40
1.1615331748207649
 50
224.08083551522819
 51
27.919164484795949
  0
ARC
  5
57A
  8
0
 10
46.79896754918132
 20
71.335427493271027
 30
0.0
 40
27.0
 50
128.44111425648981
 51
141.55888574353369
  0
LINE
  5
57B
  8
1
 10
46.79896754918132
 20
103.335427493271
 30
0.0
 11
46.79896754918132
 21
39.335427493271027
 31
0.0
  0
ARC
  5
57C
  8
0
 10
73.937742499560329
 20
71.335427493276569
 30
0.0
 40
1.1615331748207649
 50
98.080835515228216
 51
261.91916448479589
  0
CIRCLE
  5
57D
  8
0
 10
46.79896754918132
 20
71.335427493271027
 30
0.0
 40
8.25
  0
ARC
  5
57E
  8
0
 10
46.79896754918132
 20
71.335427493271027
 30
0.0
 40
27.0
 50
308.44111425648993
 51
321.55888574353389
  0
ARC
  5
57F
  8
0
 10
46.79896754918132
 20
71.335427493271027
 30
0.0
 40
27.0
 50
272.44111425648993
 51
285.55888574353378
  0
ARC
  5
580
  8
0
 10
46.79896754918132
 20
71.335427493271027
 30
0.0
 40
27.0
 50
254.44111425648981
 51
267.55888574353378
  0
ARC
  5
581
  8
0
 10
46.798967549186891
 20
44.196652542891989
 30
0.0
 40
1.1615331748207649
 50
8.0808355152282196
 51
171.91916448479591
  0
ARC
  5
582
  8
0
 10
46.79896754918132
 20
71.335427493271027
 30
0.0
 40
27.0
 50
290.44111425648993
 51
303.55888574353372
  0
ARC
  5
583
  8
0
 10
55.185310215370862
 20
45.524918732447162
 30
0.0
 40
1.1615331748207649
 50
26.080835515228241
 51
189.9191644847958
  0
ARC
  5
584
  8
0
 10
62.750739230302941
 20
49.379697351900631
 30
0.0
 40
1.1615331748207649
 50
44.080835515228252
 51
207.91916448479591
  0
ARC
  5
585
  8
0
 10
72.609476310008688
 20
62.949084827092122
 30
0.0
 40
1.1615331748207649
 50
80.080835515228273
 51
243.919164484796
  0
ARC
  5
586
  8
0
 10
46.79896754918132
 20
71.335427493271027
 30
0.0
 40
27.0
 50
326.44111425648993
 51
339.55888574353378
  0
ARC
  5
587
  8
0
 10
68.754697690558316
 20
55.383655812158388
 30
0.0
 40
1.1615331748207649
 50
62.080835515228259
 51
225.91916448479591
  0
ARC
  5
588
  8
0
 10
46.79896754918132
 20
71.335427493271027
 30
0.0
 40
27.0
 50
344.44111425648993
 51
357.55888574353372
  0
ARC
  5
589
  8
0
 10
46.79896754918132
 20
71.335427493271027
 30
0.0
 40
27.0
 50
38.441114256490067
 51
51.558885743533828
  0
ARC
  5
58A
  8
0
 10
46.79896754918132
 20
71.335427493271027
 30
0.0
 40
27.0
 50
74.441114256489683
 51
87.558885743533764
  0
ARC
  5
58B
  8
0
 10
46.79896754918132
 20
71.335427493271027
 30
0.0
 40
27.0
 50
92.441114256489854
 51
105.55888574353369
  0
ARC
  5
58C
  8
0
 10
46.7989675491757
 20
98.474202443650057
 30
0.0
 40
1.1615331748207649
 50
188.08083551522819
 51
351.919164484796
  0
ARC
  5
58D
  8
0
 10
46.79896754918132
 20
71.335427493271027
 30
0.0
 40
27.0
 50
56.441114256489918
 51
69.558885743533693
  0
ARC
  5
58E
  8
0
 10
55.185310215360289
 20
97.145936254098402
 30
0.0
 40
1.1615331748207649
 50
170.08083551522819
 51
333.91916448479589
  0
ARC
  5
58F
  8
0
 10
62.750739230293902
 20
93.291157634648044
 30
0.0
 40
1.1615331748207649
 50
152.08083551522819
 51
315.91916448479589
  0
ARC
  5
590
  8
0
 10
68.754697690551666
 20
87.287199174392754
 30
0.0
 40
1.1615331748207649
 50
134.08083551522819
 51
297.919164484796
  0
ARC
  5
591
  8
0
 10
72.609476310005164
 20
79.721770159460576
 30
0.0
 40
1.1615331748207649
 50
116.0808355152282
 51
279.91916448479589
  0
ARC
  5
592
  8
0
 10
46.79896754918132
 20
71.335427493271027
 30
0.0
 40
27.0
 50
2.4411142564897128
 51
15.5588857435338
  0
ARC
  5
593
  8
0
 10
46.79896754918132
 20
71.335427493271027
 30
0.0
 40
27.0
 50
20.441114256489971
 51
33.558885743533899
  0
LINE
  5
A67
  8
1
 10
95.911454777915807
 20
71.335427493271027
 30
0.0
 11
185.91145477791591
 21
71.335427493270998
 31
0.0
  0
LINE
  5
A68
  8
0
 10
130.91145477791559
 20
66.335427493271823
 30
0.0
 11
179.4347818018968
 21
66.335427493270458
 31
0.0
1001
GENIUS_GENOREF_13
1005
0
1005
0
  0
LINE
  5
A69
  8
0
 10
130.9114547779163
 20
76.335427493270259
 30
0.0
 11
179.43478180189709
 21
76.335427493270259
 31
0.0
1001
GENIUS_GENOREF_13
1005
0
1005
0
  0
LINE
  5
A6A
  8
0
 10
130.9114547779165
 20
77.335427493270913
 30
0.0
 11
130.91145477791551
 21
65.33542749327259
 31
0.0
  0
LINE
  5
A6B
  8
0
 10
100.91145477791579
 20
93.335427493271055
 30
0.0
 11
100.91145477791559
 21
49.335427493270998
 31
0.0
  0
LINE
  5
A6C
  8
0
 10
129.64273079973009
 20
61.333609543270818
 30
0.0
 11
129.64273079973009
 21
81.337245443271215
 31
0.0
  0
LINE
  5
A6D
  8
0
 10
130.61327296791549
 20
80.366703275086024
 30
0.0
 11
130.61327296791561
 21
62.304151711456313
 31
0.0
  0
ARC
  5
A6E
  8
0
 10
101.91145477791559
 20
49.335427493270998
 30
0.0
 40
1.0
 50
180.0
 51
269.99999999999193
1001
GENIUS_GENODEF_13
1002
{
1000
HIER
1070
     0
1002
}
1002
{
1000
MANEDIT
1070
     0
1002
}
1002
{
1000
NOSEL
1070
     0
1002
}
1002
{
1000
BEHIND
1070
     0
1002
}
1002
{
1000
REACTOR
1002
}
1001
GENIUS_GENOBJ-N-FIL_13
1002
{
1000
OWNER
1000
GEN
1002
}
  0
LINE
  5
A6F
  8
0
 10
101.91145477791549
 20
48.335427493270998
 30
0.0
 11
102.0478183979146
 21
48.33542749327097
 31
0.0
  0
LINE
  5
A70
  8
0
 10
129.64273079973009
 20
61.333609543270818
 30
0.0
 11
130.61327296791589
 21
62.304151711456313
 31
0.0
  0
LINE
  5
A71
  8
0
 10
129.64273079973009
 20
61.333609543270818
 30
0.0
 11
118.41145477791331
 21
61.333609543269141
 31
0.0
  0
LINE
  5
A72
  8
0
 10
130.91145477791599
 20
65.335427493271027
 30
0.0
 11
130.61145477791601
 21
65.271660524769985
 31
0.0
  0
LINE
  5
A73
  8
0
 10
101.91145477791549
 20
94.335427493271055
 30
0.0
 11
102.0478183979146
 21
94.335427493271084
 31
0.0
  0
ARC
  5
A74
  8
0
 10
101.91145477791559
 20
93.335427493271055
 30
0.0
 40
1.0
 50
90.000000000008114
 51
180.0
1001
GENIUS_GENODEF_13
1002
{
1000
HIER
1070
     0
1002
}
1002
{
1000
MANEDIT
1070
     0
1002
}
1002
{
1000
NOSEL
1070
     0
1002
}
1002
{
1000
BEHIND
1070
     0
1002
}
1002
{
1000
REACTOR
1002
}
1001
GENIUS_GENOBJ-N-FIL_13
1002
{
1000
OWNER
1000
GEN
1002
}
  0
LINE
  5
A75
  8
0
 10
130.91145477791599
 20
77.335427493271027
 30
0.0
 11
130.61145477791601
 21
77.399194461772055
 31
0.0
  0
LINE
  5
A76
  8
0
 10
129.64273079973009
 20
81.337245443271172
 30
0.0
 11
118.41145477791331
 21
81.337245443272877
 31
0.0
  0
LINE
  5
A77
  8
0
 10
129.64273079973009
 20
81.337245443271172
 30
0.0
 11
130.61327296791589
 21
80.36670327508574
 31
0.0
  0
LINE
  5
A7E
  8
0
 10
132.91145477791619
 20
76.335427493270259
 30
0.0
 11
132.91145477791551
 21
66.335427493271652
 31
0.0
  0
LINE
  5
A7F
  8
0
 10
180.91145477791579
 20
67.835427493270345
 30
0.0
 11
180.91145477791619
 21
74.835427493270103
 31
0.0
1001
GENIUS_GENOREF_13
1005
0
1005
0
  0
LINE
  5
A80
  8
0
 10
179.41145477791571
 20
66.335427493270458
 30
0.0
 11
179.41145477791659
 21
76.335427493269719
 31
0.0
  0
LINE
  5
A82
  8
3
 10
180.35478180189679
 20
67.255427493270389
 30
0.0
 11
132.91145477791559
 21
67.255427493271611
 31
0.0
1001
GENIUS_GENOREF_13
1005
0
1005
0
  0
LINE
  5
A83
  8
3
 10
132.91145477791559
 20
67.25542749327164
 30
0.0
 11
131.99145477791549
 21
66.335427493271723
 31
0.0
  0
LINE
  5
A84
  8
0
 10
179.41145477791571
 20
66.335427493270458
 30
0.0
 11
180.91145477791579
 21
67.835427493270345
 31
0.0
  0
LINE
  5
A8C
  8
3
 10
180.35478180189719
 20
75.415427493270244
 30
0.0
 11
132.91145477791591
 21
75.4154274932703
 31
0.0
1001
GENIUS_GENOREF_13
1005
0
1005
0
  0
LINE
  5
A8D
  8
3
 10
132.91145477791591
 20
75.415427493270272
 30
0.0
 11
131.99145477791589
 21
76.335427493270259
 31
0.0
  0
LINE
  5
A8E
  8
0
 10
179.41145477791611
 20
76.335427493270259
 30
0.0
 11
180.91145477791599
 21
74.835427493270259
 31
0.0
  0
LINE
  5
AAF
  8
0
 10
116.8498897893933
 20
97.346020324900678
 30
0.0
 11
116.8498897893931
 21
98.331056272842147
 31
0.0
  0
ARC
  5
AB0
  8
0
 10
116.8186517901518
 20
95.379824018061868
 30
0.0
 40
1.9664444384786011
 50
61.141589662261033
 51
89.089788266220125
  0
LINE
  5
AB1
  8
0
 10
103.6093833864318
 20
97.346020324900678
 30
0.0
 11
103.6093833864318
 21
98.331056272839547
 31
0.0
  0
ARC
  5
AB2
  8
0
 10
103.6406213856735
 20
95.379824018061868
 30
0.0
 40
1.9664444384786011
 50
90.910211733779875
 51
118.8584103377389
  0
LINE
  5
AB3
  8
0
 10
103.6093833864318
 20
98.331056272839547
 30
0.0
 11
116.8498897893931
 21
98.331056272842105
 31
0.0
  0
LINE
  5
AB4
  8
0
 10
116.84988978943559
 20
97.346020324899996
 30
0.0
 11
103.6093833864318
 21
97.346020324900735
 31
0.0
  0
LINE
  5
AB5
  8
0
 10
116.8498897893935
 20
93.835016961878964
 30
0.0
 11
116.8498897893933
 21
96.635281237838683
 31
0.0
  0
ARC
  5
AB6
  8
0
 10
116.942237470161
 20
99.380133290728054
 30
0.0
 40
2.746405084177153
 50
268.0730701558407
 51
286.53850052338311
  0
LINE
  5
AB7
  8
0
 10
116.8498897893931
 20
88.121597017813684
 30
0.0
 11
116.8498897893934
 21
92.486780970556865
 31
0.0
  0
LINE
  5
AB8
  8
0
 10
116.8498897893931
 20
80.765029844568076
 30
0.0
 11
116.8498897893931
 21
86.261326113852647
 31
0.0
  0
LINE
  5
AB9
  8
0
 10
118.41145477791331
 20
96.769491284319216
 30
0.0
 11
118.41145477791331
 21
45.901363702215569
 31
0.0
  0
LINE
  5
ABA
  8
0
 10
103.6093833864315
 20
93.83501696187659
 30
0.0
 11
103.6093833864317
 21
96.635281237838683
 31
0.0
  0
ARC
  5
ABB
  8
0
 10
103.5170357056643
 20
99.380133290728054
 30
0.0
 40
2.746405084177153
 50
253.46149947661689
 51
271.92692984415919
  0
LINE
  5
ABC
  8
0
 10
103.6093833864318
 20
88.121597017814508
 30
0.0
 11
103.6093833864321
 21
92.483110881607331
 31
0.0
  0
LINE
  5
ABD
  8
0
 10
103.6093833864318
 20
80.765029844568076
 30
0.0
 11
103.6093833864318
 21
86.26085793075265
 31
0.0
  0
ARC
  5
ABE
  8
0
 10
103.68981131806299
 20
87.351979417800749
 30
0.0
 40
1.094081693332148
 50
183.3716441136699
 51
265.7842804461489
  0
LINE
  5
ABF
  8
0
 10
116.8498897893933
 20
96.635281237838001
 30
0.0
 11
103.6093833864317
 21
96.635281237838683
 31
0.0
  0
LINE
  5
AC0
  8
0
 10
103.6093833864318
 20
93.83501696187659
 30
0.0
 11
116.8498897893935
 21
93.835016961878964
 31
0.0
  0
LINE
  5
AC1
  8
0
 10
103.6093833864321
 20
92.483110881607331
 30
0.0
 11
116.8498897893934
 21
92.483110881606535
 31
0.0
  0
LINE
  5
AC2
  8
0
 10
103.6093833864318
 20
86.26085793075265
 30
0.0
 11
116.8498897893931
 21
86.26085793075265
 31
0.0
  0
LINE
  5
AC3
  8
0
 10
103.6093833864397
 20
88.12159701781448
 30
0.0
 11
116.849889789401
 21
88.121597017813684
 31
0.0
  0
LINE
  5
AC4
  8
0
 10
103.6093833864318
 20
80.765029844568076
 30
0.0
 11
116.8498897893931
 21
80.765029844568076
 31
0.0
  0
LINE
  5
AC5
  8
0
 10
103.6093833864318
 20
98.331056272839547
 30
0.0
 11
102.0478183979117
 21
96.769491284319216
 31
0.0
  0
LINE
  5
AC6
  8
0
 10
116.8498897893931
 20
98.331056272839547
 30
0.0
 11
118.41145477791331
 21
96.769491284319216
 31
0.0
  0
ARC
  5
AC7
  8
0
 10
117.6567503763836
 20
96.935695336134927
 30
0.0
 40
0.2
 50
289.65695870431932
 51
56.289462987398089
1001
GENIUS_GENODEF_13
1002
{
1000
HIER
1070
     0
1002
}
1002
{
1000
MANEDIT
1070
     0
1002
}
1002
{
1000
NOSEL
1070
     0
1002
}
1002
{
1000
BEHIND
1070
     0
1002
}
1002
{
1000
REACTOR
1002
}
1001
GENIUS_GENOBJ-N-FIL_13
1002
{
1000
OWNER
1000
GEN
1002
}
  0
ARC
  5
AC8
  8
0
 10
102.8025227994416
 20
96.935695336134927
 30
0.0
 40
0.2
 50
123.7105370126019
 51
250.34304129568079
1001
GENIUS_GENODEF_13
1002
{
1000
HIER
1070
     0
1002
}
1002
{
1000
MANEDIT
1070
     0
1002
}
1002
{
1000
NOSEL
1070
     0
1002
}
1002
{
1000
BEHIND
1070
     0
1002
}
1002
{
1000
REACTOR
1002
}
1001
GENIUS_GENOBJ-N-FIL_13
1002
{
1000
OWNER
1000
GEN
1002
}
  0
LINE
  5
AC9
  8
0
 10
116.8498897893931
 20
72.48542749327288
 30
0.0
 11
116.8498897893931
 21
78.577810836575509
 31
0.0
  0
LINE
  5
ACA
  8
0
 10
116.8498897893931
 20
70.185427493272925
 30
0.0
 11
116.8498897893931
 21
64.093044149959269
 31
0.0
  0
LINE
  5
ACB
  8
0
 10
103.6093833864321
 20
72.48542749327288
 30
0.0
 11
103.6093833864318
 21
78.577599857089297
 31
0.0
  0
LINE
  5
ACC
  8
0
 10
103.6093833864321
 20
70.185427493272925
 30
0.0
 11
103.6093833864318
 21
64.093255129445481
 31
0.0
  0
LINE
  5
ACD
  8
0
 10
116.8498897893931
 20
70.185427493272925
 30
0.0
 11
103.6093833864313
 21
70.185427493272925
 31
0.0
  0
LINE
  5
ACE
  8
0
 10
103.6093833864318
 20
78.577599857089297
 30
0.0
 11
116.8498897893931
 21
78.577599857089297
 31
0.0
  0
LINE
  5
ACF
  8
0
 10
116.8498897893931
 20
72.48542749327288
 30
0.0
 11
103.6093833864313
 21
72.48542749327288
 31
0.0
  0
LINE
  5
AD0
  8
0
 10
116.8498897893931
 20
44.339798713695238
 30
0.0
 11
118.41145477791331
 21
45.901363702215569
 31
0.0
  0
LINE
  5
AD1
  8
0
 10
116.8498897893933
 20
45.3248346616341
 30
0.0
 11
116.8498897893931
 21
44.339798713692623
 31
0.0
  0
LINE
  5
AD2
  8
0
 10
116.8498897893935
 20
48.835838024655793
 30
0.0
 11
116.8498897893933
 21
46.035573748696088
 31
0.0
  0
LINE
  5
AD3
  8
0
 10
116.8498897893931
 20
54.549257968721093
 30
0.0
 11
116.8498897893934
 21
50.184074015977899
 31
0.0
  0
LINE
  5
AD4
  8
0
 10
103.57300833247329
 20
50.184638653802438
 30
0.0
 11
103.57300833247329
 21
50.192257343630331
 31
0.0
  0
LINE
  5
AD5
  8
0
 10
103.6093833864318
 20
45.3248346616341
 30
0.0
 11
103.6093833864318
 21
44.339798713695238
 31
0.0
  0
LINE
  5
AD6
  8
0
 10
103.6093833864318
 20
44.339798713695238
 30
0.0
 11
102.0478183979117
 21
45.901363702215569
 31
0.0
  0
LINE
  5
AD7
  8
0
 10
103.6093833864315
 20
48.83583802465818
 30
0.0
 11
103.6093833864317
 21
46.035573748696088
 31
0.0
  0
LINE
  5
AD8
  8
0
 10
103.6093833864318
 20
54.549257968720291
 30
0.0
 11
103.6093833864321
 21
50.187744104927447
 31
0.0
  0
LINE
  5
AD9
  8
0
 10
103.6093833864318
 20
44.339798713695238
 30
0.0
 11
116.8498897893931
 21
44.339798713692687
 31
0.0
  0
LINE
  5
ADA
  8
0
 10
116.8498897893933
 20
61.905825141966709
 30
0.0
 11
116.8498897893931
 21
56.409528872682131
 31
0.0
  0
LINE
  5
ADB
  8
0
 10
103.6093833864318
 20
61.905825141966709
 30
0.0
 11
103.6093833864318
 21
56.409997055782128
 31
0.0
  0
LINE
  5
ADC
  8
0
 10
102.047818397919
 20
96.769491284326477
 30
0.0
 11
102.0478183979117
 21
45.901363702215569
 31
0.0
  0
POLYLINE
  5
ADD
  8
0
 66
     1
 10
0.0
 20
0.0
 30
0.0
 70
     8
  0
VERTEX
  5
ADE
  8
0
 10
116.815525286349
 20
78.577097206591645
 30
0.0
 70
    32
1001
ACAD
1000
R13OBJECT
1002
{
1005
0
1002
}
  0
VERTEX
  5
ADF
  8
0
 10
117.2562454465837
 20
78.673125846433436
 30
0.0
 70
    32
1001
ACAD
1000
R13OBJECT
1002
{
1005
0
1002
}
  0
VERTEX
  5
AE0
  8
0
 10
117.609675574006
 20
78.975284420618578
 30
0.0
 70
    32
1001
ACAD
1000
R13OBJECT
1002
{
1005
0
1002
}
  0
VERTEX
  5
AE1
  8
0
 10
117.8058144973436
 20
79.423726717797933
 30
0.0
 70
    32
1001
ACAD
1000
R13OBJECT
1002
{
1005
0
1002
}
  0
VERTEX
  5
AE2
  8
0
 10
117.8058144973436
 20
79.929633241231329
 30
0.0
 70
    32
1001
ACAD
1000
R13OBJECT
1002
{
1005
0
1002
}
  0
VERTEX
  5
AE3
  8
0
 10
117.4727378756304
 20
80.523030475460132
 30
0.0
 70
    32
1001
ACAD
1000
R13OBJECT
1002
{
1005
0
1002
}
  0
VERTEX
  5
AE4
  8
0
 10
116.8498897893931
 20
80.765029844568076
 30
0.0
 70
    32
1001
ACAD
1000
R13OBJECT
1002
{
1005
0
1002
}
  0
SEQEND
  5
AE5
  8
0
  0
ARC
  5
AE6
  8
0
 10
103.75711062808359
 20
71.335427493272903
 30
0.0
 40
1.1594495840381169
 50
97.320039823448298
 51
262.67996017656151
  0
ARC
  5
AE7
  8
0
 10
116.6463649133055
 20
71.335427493272903
 30
0.0
 40
1.1594495840381169
 50
277.32003982343861
 51
82.679960176551688
  0
ARC
  5
AE8
  8
0
 10
103.6937655991363
 20
79.671314850828651
 30
0.0
 40
1.096965289036683
 50
94.41173979357383
 51
265.58826020640652
  0
ARC
  5
AE9
  8
0
 10
103.52924037679711
 20
87.188113445141695
 30
0.0
 40
0.9369175430337882
 50
85.092978594354221
 51
173.9024722280225
  0
ARC
  5
AEA
  8
0
 10
116.7694618577777
 20
87.351979417800749
 30
0.0
 40
1.094081693332148
 50
274.2157195538511
 51
356.62835588632998
  0
ARC
  5
AEB
  8
0
 10
116.9300327990437
 20
87.188113445141695
 30
0.0
 40
0.9369175430337882
 50
6.0975277719775161
 51
94.907021405645764
  0
POLYLINE
  5
AEC
  8
0
 66
     1
 10
0.0
 20
0.0
 30
0.0
  0
VERTEX
  5
AED
  8
0
 10
116.8498897893935
 20
92.486780970556865
 30
0.0
 42
0.0802571960934955
  0
VERTEX
  5
AEE
  8
0
 10
117.2435401291101
 20
92.550377152411784
 30
0.0
 42
0.0889799440241004
  0
VERTEX
  5
AEF
  8
0
 10
117.5600113997337
 20
92.722377440839892
 30
0.0
 42
0.1049325311716036
 70
     2
 50
38.693389975352659
  0
VERTEX
  5
AF0
  8
0
 10
117.78157889275001
 20
92.992828845708686
 30
0.0
 42
0.1198868636095806
 50
38.693389975352659
  0
VERTEX
  5
AF1
  8
0
 10
117.8541534016709
 20
93.291157634644378
 30
0.0
 42
0.1198868636095572
  0
SEQEND
  5
AF2
  8
0
  0
POLYLINE
  5
AF3
  8
0
 66
     1
 10
0.0
 20
0.0
 30
0.0
  0
VERTEX
  5
AF4
  8
0
 10
117.8541534016709
 20
93.291157634644378
 30
0.0
 42
0.1647024526072154
  0
VERTEX
  5
AF5
  8
0
 10
117.7906798561016
 20
93.478622071883038
 30
0.0
 42
0.1057707385886025
  0
VERTEX
  5
AF6
  8
0
 10
117.5600113997337
 20
93.675724252943496
 30
0.0
 42
0.0690263387736676
 70
     2
 50
151.56222354989751
  0
VERTEX
  5
AF7
  8
0
 10
117.2545112352156
 20
93.790192083078225
 30
0.0
 42
0.055222215854414
 50
151.56222354989751
  0
VERTEX
  5
AF8
  8
0
 10
116.8498897893935
 20
93.835016961878964
 30
0.0
 42
0.0552222158543657
  0
SEQEND
  5
AF9
  8
0
  0
POLYLINE
  5
AFA
  8
0
 66
     1
 10
0.0
 20
0.0
 30
0.0
  0
VERTEX
  5
AFB
  8
0
 10
103.6093833864317
 20
92.486780970557703
 30
0.0
 42
-0.0802571960934955
  0
VERTEX
  5
AFC
  8
0
 10
103.215733046715
 20
92.550377152412636
 30
0.0
 42
-0.0889799440241004
  0
VERTEX
  5
AFD
  8
0
 10
102.89926177609129
 20
92.72237744084083
 30
0.0
 42
-0.1049325311716036
 70
     2
 50
218.69338997534541
  0
VERTEX
  5
AFE
  8
0
 10
102.6776942830752
 20
92.992828845709653
 30
0.0
 42
-0.1198868636095806
 50
38.693389975352659
  0
VERTEX
  5
AFF
  8
0
 10
102.6051197741542
 20
93.291157634645344
 30
0.0
 42
-0.1198868636095572
  0
SEQEND
  5
B00
  8
0
  0
POLYLINE
  5
B01
  8
0
 66
     1
 10
0.0
 20
0.0
 30
0.0
  0
VERTEX
  5
B02
  8
0
 10
102.6051197741542
 20
93.291157634645344
 30
0.0
 42
-0.1647024526072154
  0
VERTEX
  5
B03
  8
0
 10
102.6685933197236
 20
93.478622071883976
 30
0.0
 42
-0.1057707385886025
  0
VERTEX
  5
B04
  8
0
 10
102.89926177609139
 20
93.675724252944434
 30
0.0
 42
-0.0690263387736676
 70
     2
 50
331.56222354989029
  0
VERTEX
  5
B05
  8
0
 10
103.2047619406097
 20
93.790192083079134
 30
0.0
 42
-0.055222215854414
 50
151.56222354989751
  0
VERTEX
  5
B06
  8
0
 10
103.6093833864318
 20
93.835016961879774
 30
0.0
 42
-0.0552222158543657
  0
SEQEND
  5
B07
  8
0
  0
ARC
  5
B08
  8
0
 10
116.8186517901518
 20
47.29103096847291
 30
0.0
 40
1.9664444384786011
 50
270.91021173377982
 51
298.85841033773897
  0
ARC
  5
B09
  8
0
 10
103.6406213856735
 20
47.29103096847291
 30
0.0
 40
1.9664444384786011
 50
241.141589662261
 51
269.08978826622013
  0
LINE
  5
B0A
  8
0
 10
116.84988978943559
 20
45.324834661634782
 30
0.0
 11
103.6093833864318
 21
45.324834661634043
 31
0.0
  0
ARC
  5
B0B
  8
0
 10
116.942237470161
 20
43.290721695806717
 30
0.0
 40
2.746405084177153
 50
73.461499476616822
 51
91.926929844159233
  0
ARC
  5
B0C
  8
0
 10
103.5170357056643
 20
43.290721695806717
 30
0.0
 40
2.746405084177153
 50
88.073070155840767
 51
106.53850052338321
  0
ARC
  5
B0D
  8
0
 10
103.68981131806299
 20
55.318875568734029
 30
0.0
 40
1.094081693332148
 50
94.215719553851116
 51
176.62835588633001
  0
LINE
  5
B0E
  8
0
 10
116.8498897893933
 20
46.03557374869677
 30
0.0
 11
103.6093833864317
 21
46.035573748696088
 31
0.0
  0
LINE
  5
B0F
  8
0
 10
103.6093833864318
 20
48.83583802465818
 30
0.0
 11
116.8498897893935
 21
48.835838024655793
 31
0.0
  0
LINE
  5
B10
  8
0
 10
103.6093833864321
 20
50.187744104927447
 30
0.0
 11
116.8498897893934
 21
50.187744104928242
 31
0.0
  0
LINE
  5
B11
  8
0
 10
103.6093833864318
 20
56.409997055782128
 30
0.0
 11
116.8498897893931
 21
56.409997055782128
 31
0.0
  0
LINE
  5
B12
  8
0
 10
103.6093833864397
 20
54.549257968720291
 30
0.0
 11
116.849889789401
 21
54.549257968721093
 31
0.0
  0
LINE
  5
B13
  8
0
 10
103.6093833864318
 20
61.905825141966709
 30
0.0
 11
116.8498897893931
 21
61.905825141966709
 31
0.0
  0
ARC
  5
B14
  8
0
 10
117.6567503763836
 20
45.735159650399851
 30
0.0
 40
0.2
 50
303.71053701260189
 51
70.343041295680734
1001
GENIUS_GENODEF_13
1002
{
1000
HIER
1070
     0
1002
}
1002
{
1000
MANEDIT
1070
     0
1002
}
1002
{
1000
NOSEL
1070
     0
1002
}
1002
{
1000
BEHIND
1070
     0
1002
}
1002
{
1000
REACTOR
1002
}
1001
GENIUS_GENOBJ-N-FIL_13
1002
{
1000
OWNER
1000
GEN
1002
}
  0
ARC
  5
B15
  8
0
 10
102.8025227994416
 20
45.735159650399851
 30
0.0
 40
0.2
 50
109.65695870431919
 51
236.28946298739811
1001
GENIUS_GENODEF_13
1002
{
1000
HIER
1070
     0
1002
}
1002
{
1000
MANEDIT
1070
     0
1002
}
1002
{
1000
NOSEL
1070
     0
1002
}
1002
{
1000
BEHIND
1070
     0
1002
}
1002
{
1000
REACTOR
1002
}
1001
GENIUS_GENOBJ-N-FIL_13
1002
{
1000
OWNER
1000
GEN
1002
}
  0
LINE
  5
B16
  8
0
 10
103.6093833864318
 20
64.093255129445481
 30
0.0
 11
116.8498897893931
 21
64.093255129445481
 31
0.0
  0
POLYLINE
  5
B17
  8
0
 66
     1
 10
0.0
 20
0.0
 30
0.0
 70
     8
  0
VERTEX
  5
B18
  8
0
 10
116.815525286349
 20
64.093757779943132
 30
0.0
 70
    32
1001
ACAD
1000
R13OBJECT
1002
{
1005
0
1002
}
  0
VERTEX
  5
B19
  8
0
 10
117.2562454465837
 20
63.997729140101342
 30
0.0
 70
    32
1001
ACAD
1000
R13OBJECT
1002
{
1005
0
1002
}
  0
VERTEX
  5
B1A
  8
0
 10
117.609675574006
 20
63.695570565916199
 30
0.0
 70
    32
1001
ACAD
1000
R13OBJECT
1002
{
1005
0
1002
}
  0
VERTEX
  5
B1B
  8
0
 10
117.8058144973436
 20
63.247128268736837
 30
0.0
 70
    32
1001
ACAD
1000
R13OBJECT
1002
{
1005
0
1002
}
  0
VERTEX
  5
B1C
  8
0
 10
117.8058144973436
 20
62.741221745303449
 30
0.0
 70
    32
1001
ACAD
1000
R13OBJECT
1002
{
1005
0
1002
}
  0
VERTEX
  5
B1D
  8
0
 10
117.4727378756304
 20
62.147824511074639
 30
0.0
 70
    32
1001
ACAD
1000
R13OBJECT
1002
{
1005
0
1002
}
  0
VERTEX
  5
B1E
  8
0
 10
116.8498897893931
 20
61.905825141966709
 30
0.0
 70
    32
1001
ACAD
1000
R13OBJECT
1002
{
1005
0
1002
}
  0
SEQEND
  5
B1F
  8
0
  0
ARC
  5
B20
  8
0
 10
103.6937655991363
 20
62.99954013570612
 30
0.0
 40
1.096965289036683
 50
94.411739793593455
 51
265.58826020642613
  0
ARC
  5
B21
  8
0
 10
103.52924037679711
 20
55.482741541393061
 30
0.0
 40
0.9369175430337882
 50
186.0975277719775
 51
274.90702140564571
  0
ARC
  5
B22
  8
0
 10
116.7694618577777
 20
55.318875568734029
 30
0.0
 40
1.094081693332148
 50
3.3716441136699569
 51
85.784280446148856
  0
ARC
  5
B23
  8
0
 10
116.9300327990437
 20
55.482741541393061
 30
0.0
 40
0.9369175430337882
 50
265.09297859435412
 51
353.90247222802248
  0
POLYLINE
  5
B24
  8
0
 66
     1
 10
0.0
 20
0.0
 30
0.0
  0
VERTEX
  5
B25
  8
0
 10
116.8498897893935
 20
50.184074015977899
 30
0.0
 42
-0.0802571960934955
  0
VERTEX
  5
B26
  8
0
 10
117.2435401291101
 20
50.120477834122987
 30
0.0
 42
-0.0889799440241004
  0
VERTEX
  5
B27
  8
0
 10
117.5600113997337
 20
49.948477545694878
 30
0.0
 42
-0.1049325311716036
 70
     2
 50
38.693389975352659
  0
VERTEX
  5
B28
  8
0
 10
117.78157889275001
 20
49.678026140826091
 30
0.0
 42
-0.1198868636095806
 50
38.693389975352659
  0
VERTEX
  5
B29
  8
0
 10
117.8541534016709
 20
49.3796973518904
 30
0.0
 42
-0.1198868636095572
  0
SEQEND
  5
B2A
  8
0
  0
POLYLINE
  5
B2B
  8
0
 66
     1
 10
0.0
 20
0.0
 30
0.0
  0
VERTEX
  5
B2C
  8
0
 10
117.8541534016709
 20
49.3796973518904
 30
0.0
 42
-0.1647024526072154
  0
VERTEX
  5
B2D
  8
0
 10
117.7906798561016
 20
49.192232914651719
 30
0.0
 42
-0.1057707385886025
  0
VERTEX
  5
B2E
  8
0
 10
117.5600113997337
 20
48.995130733591282
 30
0.0
 42
-0.0690263387736676
 70
     2
 50
151.56222354989751
  0
VERTEX
  5
B2F
  8
0
 10
117.2545112352156
 20
48.880662903456539
 30
0.0
 42
-0.055222215854414
 50
151.56222354989751
  0
VERTEX
  5
B30
  8
0
 10
116.8498897893935
 20
48.835838024655793
 30
0.0
 42
-0.0552222158543657
  0
SEQEND
  5
B31
  8
0
  0
POLYLINE
  5
B32
  8
0
 66
     1
 10
0.0
 20
0.0
 30
0.0
  0
VERTEX
  5
B33
  8
0
 10
103.6093833864317
 20
50.184074015977068
 30
0.0
 42
0.0802571960934955
  0
VERTEX
  5
B34
  8
0
 10
103.215733046715
 20
50.120477834122141
 30
0.0
 42
0.0889799440241004
  0
VERTEX
  5
B35
  8
0
 10
102.89926177609129
 20
49.948477545693947
 30
0.0
 42
0.1049325311716036
 70
     2
 50
218.69338997534541
  0
VERTEX
  5
B36
  8
0
 10
102.6776942830752
 20
49.678026140825118
 30
0.0
 42
0.1198868636095806
 50
38.693389975352659
  0
VERTEX
  5
B37
  8
0
 10
102.6051197741542
 20
49.379697351889433
 30
0.0
 42
0.1198868636095572
  0
SEQEND
  5
B38
  8
0
  0
POLYLINE
  5
B39
  8
0
 66
     1
 10
0.0
 20
0.0
 30
0.0
  0
VERTEX
  5
B3A
  8
0
 10
102.6051197741542
 20
49.379697351889433
 30
0.0
 42
0.1647024526072154
  0
VERTEX
  5
B3B
  8
0
 10
102.6685933197236
 20
49.192232914650788
 30
0.0
 42
0.1057707385886025
  0
VERTEX
  5
B3C
  8
0
 10
102.89926177609139
 20
48.995130733590351
 30
0.0
 42
0.0690263387736676
 70
     2
 50
331.56222354989029
  0
VERTEX
  5
B3D
  8
0
 10
103.2047619406097
 20
48.880662903455622
 30
0.0
 42
0.055222215854414
 50
151.56222354989751
  0
VERTEX
  5
B3E
  8
0
 10
103.6093833864318
 20
48.835838024654997
 30
0.0
 42
0.0552222158543657
  0
SEQEND
  5
B3F
  8
0
  0
TEXT
  5
BCC
  8
0
 62
     3
 10
0.0
 20
0.0
 30
0.0
 40
10.0
  1
KN55X50SOFT
  7
STANDARD1
  0
ENDSEC
  0
EOF
