  0
SECTION
  2
HEADER
  9
$ACADVER
  1
AC1009
  9
$INSBASE
 10
0.0
 20
0.0
 30
0.0
  9
$EXTMIN
 10
0.0
 20
-2.960436562073669
 30
0.0
  9
$EXTMAX
 10
184.25587651944031
 20
106.3601904992836
 30
0.0
  9
$LIMMIN
 10
0.0
 20
0.0
  9
$LIMMAX
 10
187.5
 20
135.0
  9
$ORTHOMODE
 70
     1
  9
$REGENMODE
 70
     1
  9
$FILLMODE
 70
     1
  9
$QTEXTMODE
 70
     0
  9
$MIRRTEXT
 70
     0
  9
$DRAGMODE
 70
     2
  9
$LTSCALE
 40
5.0
  9
$OSMODE
 70
  3071
  9
$ATTMODE
 70
     1
  9
$TEXTSIZE
 40
0.2
  9
$TRACEWID
 40
0.05
  9
$TEXTSTYLE
  7
STANDARD
  9
$CLAYER
  8
0
  9
$CELTYPE
  6
BYLAYER
  9
$CECOLOR
 62
   256
  9
$DIMSCALE
 40
0.5
  9
$DIMASZ
 40
3.0
  9
$DIMEXO
 40
2.0
  9
$DIMDLI
 40
0.38
  9
$DIMRND
 40
0.0
  9
$DIMDLE
 40
0.0
  9
$DIMEXE
 40
2.0
  9
$DIMTP
 40
0.0
  9
$DIMTM
 40
0.0
  9
$DIMTXT
 40
3.2000000000000002
  9
$DIMCEN
 40
0.0
  9
$DIMTSZ
 40
0.0
  9
$DIMTOL
 70
     0
  9
$DIMLIM
 70
     0
  9
$DIMTIH
 70
     0
  9
$DIMTOH
 70
     0
  9
$DIMSE1
 70
     0
  9
$DIMSE2
 70
     0
  9
$DIMTAD
 70
     1
  9
$DIMZIN
 70
     0
  9
$DIMBLK
  1

  9
$DIMASO
 70
     1
  9
$DIMSHO
 70
     0
  9
$DIMPOST
  1

  9
$DIMAPOST
  1

  9
$DIMALT
 70
     0
  9
$DIMALTD
 70
     2
  9
$DIMALTF
 40
25.399999999999999
  9
$DIMLFAC
 40
1.0
  9
$DIMTOFL
 70
     1
  9
$DIMTVP
 40
1.6000000000000001
  9
$DIMTIX
 70
     1
  9
$DIMSOXD
 70
     0
  9
$DIMSAH
 70
     0
  9
$DIMBLK1
  1

  9
$DIMBLK2
  1

  9
$DIMSTYLE
  2
STANDARD
  9
$DIMCLRD
 70
     0
  9
$DIMCLRE
 70
     0
  9
$DIMCLRT
 70
     0
  9
$DIMTFAC
 40
1.0
  9
$DIMGAP
 40
0.09
  9
$LUNITS
 70
     2
  9
$LUPREC
 70
     4
  9
$SKETCHINC
 40
0.1
  9
$FILLETRAD
 40
0.8
  9
$AUNITS
 70
     1
  9
$AUPREC
 70
     4
  9
$MENU
  1
E:\r13\win\SUPPORT\ACAD
  9
$ELEVATION
 40
0.0
  9
$PELEVATION
 40
0.0
  9
$THICKNESS
 40
0.0
  9
$LIMCHECK
 70
     0
  9
$BLIPMODE
 70
     0
  9
$CHAMFERA
 40
0.0
  9
$CHAMFERB
 40
0.0
  9
$SKPOLY
 70
     0
  9
$TDCREATE
 40
2449839.7859490742
  9
$TDUPDATE
 40
2456597.4863934838
  9
$TDINDWG
 40
0.0443769792
  9
$TDUSRTIMER
 40
0.0443769792
  9
$USRTIMER
 70
     1
  9
$ANGBASE
 50
0.0
  9
$ANGDIR
 70
     0
  9
$PDMODE
 70
     0
  9
$PDSIZE
 40
0.0
  9
$PLINEWID
 40
0.0
  9
$COORDS
 70
     1
  9
$SPLFRAME
 70
     0
  9
$SPLINETYPE
 70
     6
  9
$SPLINESEGS
 70
     8
  9
$ATTDIA
 70
     0
  9
$ATTREQ
 70
     1
  9
$HANDLING
 70
     1
  9
$HANDSEED
  5
D67
  9
$SURFTAB1
 70
     6
  9
$SURFTAB2
 70
     6
  9
$SURFTYPE
 70
     6
  9
$SURFU
 70
     6
  9
$SURFV
 70
     6
  9
$UCSNAME
  2

  9
$UCSORG
 10
0.0
 20
0.0
 30
0.0
  9
$UCSXDIR
 10
1.0
 20
0.0
 30
0.0
  9
$UCSYDIR
 10
0.0
 20
1.0
 30
0.0
  9
$PUCSNAME
  2

  9
$PUCSORG
 10
0.0
 20
0.0
 30
0.0
  9
$PUCSXDIR
 10
1.0
 20
0.0
 30
0.0
  9
$PUCSYDIR
 10
0.0
 20
1.0
 30
0.0
  9
$USERI1
 70
     0
  9
$USERI2
 70
     1
  9
$USERI3
 70
     1
  9
$USERI4
 70
     0
  9
$USERI5
 70
     0
  9
$USERR1
 40
0.0
  9
$USERR2
 40
0.0
  9
$USERR3
 40
0.0
  9
$USERR4
 40
0.0
  9
$USERR5
 40
0.0
  9
$WORLDVIEW
 70
     1
  9
$SHADEDGE
 70
     3
  9
$SHADEDIF
 70
    70
  9
$TILEMODE
 70
     1
  9
$MAXACTVP
 70
    16
  9
$PLIMCHECK
 70
     0
  9
$PEXTMIN
 10
1.0000000000000000E+020
 20
1.0000000000000000E+020
 30
1.0000000000000000E+020
  9
$PEXTMAX
 10
-1.0000000000000000E+020
 20
-1.0000000000000000E+020
 30
-1.0000000000000000E+020
  9
$PLIMMIN
 10
0.0
 20
0.0
  9
$PLIMMAX
 10
12.0
 20
9.0
  9
$UNITMODE
 70
     0
  9
$VISRETAIN
 70
     0
  9
$PLINEGEN
 70
     0
  9
$PSLTSCALE
 70
     0
  0
ENDSEC
  0
SECTION
  2
TABLES
  0
TABLE
  2
VPORT
 70
     1
  0
VPORT
  2
*ACTIVE
 70
     0
 10
0.0
 20
0.0
 11
1.0
 21
1.0
 12
93.74713919532617
 22
80.848703909439024
 13
0.0
 23
0.0
 14
5.0
 24
5.0
 15
5.0
 25
5.0
 16
0.0
 26
0.0
 36
1.0
 17
0.0
 27
0.0
 37
0.0
 40
169.22413112104309
 41
1.9089595375722539
 42
50.0
 43
0.0
 44
0.0
 50
0.0
 51
0.0
 71
     0
 72
   500
 73
     1
 74
     0
 75
     0
 76
     0
 77
     0
 78
     2
  0
ENDTAB
  0
TABLE
  2
LTYPE
 70
     3
  0
LTYPE
  2
CONTINUOUS
 70
     0
  3
Solid Line
 72
    65
 73
     0
 40
0.0
  0
LTYPE
  2
CENTER
 70
     0
  3
____ _ ____ _ ____ _ ____ _ ____ _ ____ _ ____
 72
    65
 73
     4
 40
2.0
 49
1.25
 49
-0.25
 49
0.25
 49
-0.25
  0
LTYPE
  2
PHANTOM2
 70
     0
  3
___ _ _ ___ _ _ ___ _ _ ___ _ _
 72
    65
 73
     6
 40
1.25
 49
0.625
 49
-0.125
 49
0.125
 49
-0.125
 49
0.125
 49
-0.125
  0
ENDTAB
  0
TABLE
  2
LAYER
 70
     4
  0
LAYER
  2
0
 70
     0
 62
     7
  6
CONTINUOUS
  0
LAYER
  2
1
 70
     0
 62
     1
  6
CENTER
  0
LAYER
  2
DEFPOINTS
 70
     0
 62
     7
  6
CONTINUOUS
  0
LAYER
  2
3
 70
     0
 62
     3
  6
CONTINUOUS
  0
ENDTAB
  0
TABLE
  2
STYLE
 70
     2
  0
STYLE
  2
STANDARD
 70
     0
 40
0.0
 41
1.0
 50
0.0
 71
     0
 42
0.2
  3
TXT
  4
BIGFONT
  0
STYLE
  2
STANDARD1
 70
     0
 40
0.0
 41
1.0
 50
0.0
 71
     0
 42
3.0
  3
txt
  4

  0
ENDTAB
  0
TABLE
  2
VIEW
 70
     1
  0
VIEW
  2
ALL
 70
     0
 40
135.0
 10
110.4957983193277
 20
67.5
 41
0.0
 11
0.0
 21
0.0
 31
1.0
 12
0.0
 22
0.0
 32
0.0
 42
0.0
 43
0.0
 44
0.0
 50
0.0
 71
     0
  0
ENDTAB
  0
TABLE
  2
UCS
 70
     0
  0
ENDTAB
  0
TABLE
  2
APPID
 70
    22
  0
APPID
  2
ACAD
 70
     0
  0
APPID
  2
GENIUS_GENODEF_13
 70
     0
  0
APPID
  2
GENIUS_GENOBJ-N-FIL_13
 70
     0
  0
APPID
  2
GENIUS_GENCFG_13
 70
     0
  0
APPID
  2
GENIUS_GENCFG0_13
 70
     0
  0
APPID
  2
GENIUS_GENCFG1_13
 70
     0
  0
APPID
  2
GENIUS_GENCFG2_13
 70
     0
  0
APPID
  2
GENIUS_GENCFG3_13
 70
     0
  0
APPID
  2
GENIUS_GENCFG4_13
 70
     0
  0
APPID
  2
GENIUS_GEVCFG0_13
 70
     0
  0
APPID
  2
GENIUS_GENOENT_13
 70
     0
  0
APPID
  2
GENIUS_GENOBJ-N-HTC_13
 70
     0
  0
APPID
  2
GENIUS_GENHATCH_13
 70
     0
  0
APPID
  2
GENIUS_GENFIL_13
 70
     0
  0
APPID
  2
GENIUS_GENOBJ-N-CHA_13
 70
     0
  0
APPID
  2
GEV_VCCNULL_SWITCH_OFF
 70
     0
  0
APPID
  2
GENIUS_GENDTOL_13
 70
     0
  0
APPID
  2
GENIUS_GEFCFG0_13
 70
     0
  0
APPID
  2
GENIUS_GENOREF_13
 70
     0
  0
APPID
  2
ACAD_EXEMPT_FROM_CAD_STANDARDS
 70
     0
  0
APPID
  2
ACAD_MLEADERVER
 70
     0
  0
APPID
  2
ACAD_NAV_VCDISPLAY
 70
     0
  0
ENDTAB
  0
TABLE
  2
DIMSTYLE
 70
     1
  0
DIMSTYLE
  2
STANDARD
 70
     0
  3

  4

  5

  6

  7

 40
1.0
 41
0.18
 42
0.0625
 43
0.38
 44
0.18
 45
0.0
 46
0.0
 47
0.0
 48
0.0
140
0.18
141
0.09
142
0.0
143
25.399999999999999
144
1.0
145
0.0
146
1.0
147
0.09
 71
     0
 72
     0
 73
     1
 74
     1
 75
     0
 76
     0
 77
     0
 78
     0
170
     0
171
     2
172
     0
173
     0
174
     0
175
     0
176
     0
177
     0
178
     0
  0
ENDTAB
  0
ENDSEC
  0
SECTION
  2
BLOCKS
  0
BLOCK
  8
0
  2
$MODEL_SPACE
 70
     0
 10
0.0
 20
0.0
 30
0.0
  3
$MODEL_SPACE
  1

  0
ENDBLK
  5
62A
  8
0
  0
BLOCK
 67
     1
  8
0
  2
$PAPER_SPACE
 70
     0
 10
0.0
 20
0.0
 30
0.0
  3
$PAPER_SPACE
  1

  0
ENDBLK
  5
628
 67
     1
  8
0
  0
ENDSEC
  0
SECTION
  2
ENTITIES
  0
ARC
  5
4F2
  8
0
 10
54.699971312502441
 20
74.36019049928359
 30
0.0
 40
27.0
 50
56.441114256489918
 51
69.558885743533693
  0
ARC
  5
4F3
  8
0
 10
54.699971312502441
 20
74.36019049928359
 30
0.0
 40
27.0
 50
290.44111425648993
 51
303.55888574353372
  0
CIRCLE
  5
4F4
  8
0
 10
54.699971312502441
 20
74.36019049928359
 30
0.0
 40
25.434063791051809
  0
CIRCLE
  5
4F5
  8
0
 10
54.699971312502441
 20
74.36019049928359
 30
0.0
 40
23.0
  0
LINE
  5
4F6
  8
1
 10
86.699971312502441
 20
74.36019049928359
 30
0.0
 11
22.699971312502441
 21
74.36019049928359
 31
0.0
  0
LINE
  5
4F7
  8
1
 10
54.699971312502441
 20
106.3601904992836
 30
0.0
 11
54.699971312502441
 21
42.360190499283583
 31
0.0
  0
ARC
  5
4F8
  8
0
 10
28.889462551675081
 20
82.746533165462537
 30
0.0
 40
1.1615331748207649
 50
260.08083551522822
 51
63.9191644847959
  0
CIRCLE
  5
4F9
  8
0
 10
54.699971312502441
 20
74.36019049928359
 30
0.0
 40
8.25
  0
CIRCLE
  5
4FA
  8
0
 10
54.699971312502441
 20
74.36019049928359
 30
0.0
 40
10.5
  0
ARC
  5
4FB
  8
0
 10
54.699971312502441
 20
74.36019049928359
 30
0.0
 40
27.0
 50
236.4411142564899
 51
249.55888574353369
  0
ARC
  5
4FC
  8
0
 10
54.699971312502441
 20
74.36019049928359
 30
0.0
 40
27.0
 50
200.44111425648981
 51
213.55888574353369
  0
ARC
  5
4FD
  8
0
 10
54.699971312502441
 20
74.36019049928359
 30
0.0
 40
27.0
 50
218.44111425648981
 51
231.55888574353381
  0
ARC
  5
4FE
  8
0
 10
38.748199631389809
 20
52.404460357906601
 30
0.0
 40
1.1615331748207649
 50
332.08083551522827
 51
135.91916448479591
  0
ARC
  5
4FF
  8
0
 10
32.744241171131939
 20
58.408418818161863
 30
0.0
 40
1.1615331748207649
 50
314.08083551522822
 51
117.919164484796
  0
ARC
  5
500
  8
0
 10
54.699971312502441
 20
74.36019049928359
 30
0.0
 40
27.0
 50
182.4411142564899
 51
195.55888574353369
  0
ARC
  5
501
  8
0
 10
28.889462551678491
 20
65.973847833094055
 30
0.0
 40
1.1615331748207649
 50
296.08083551522827
 51
99.919164484795942
  0
ARC
  5
502
  8
0
 10
54.699971312502441
 20
74.36019049928359
 30
0.0
 40
27.0
 50
164.44111425648981
 51
177.55888574353369
  0
ARC
  5
503
  8
0
 10
27.561196362123439
 20
74.360190499278019
 30
0.0
 40
1.1615331748207649
 50
278.08083551522827
 51
81.919164484795914
  0
ARC
  5
504
  8
0
 10
54.699971312508012
 20
47.221415548904581
 30
0.0
 40
1.1615331748207649
 50
8.0808355152282196
 51
171.91916448479591
  0
ARC
  5
505
  8
0
 10
46.31362864632348
 20
48.549681738456343
 30
0.0
 40
1.1615331748207649
 50
350.08083551522827
 51
153.91916448479591
  0
ARC
  5
506
  8
0
 10
54.699971312502441
 20
74.36019049928359
 30
0.0
 40
27.0
 50
254.44111425648981
 51
267.55888574353378
  0
ARC
  5
507
  8
0
 10
54.699971312502441
 20
74.36019049928359
 30
0.0
 40
27.0
 50
272.44111425648993
 51
285.55888574353378
  0
ARC
  5
508
  8
0
 10
63.086313978691983
 20
48.549681738459753
 30
0.0
 40
1.1615331748207649
 50
26.080835515228241
 51
189.9191644847958
  0
ARC
  5
509
  8
0
 10
54.699971312502441
 20
74.36019049928359
 30
0.0
 40
27.0
 50
110.4411142564899
 51
123.55888574353359
  0
ARC
  5
50A
  8
0
 10
32.744241171125338
 20
90.311962180396236
 30
0.0
 40
1.1615331748207649
 50
242.08083551522819
 51
45.919164484795893
  0
ARC
  5
50B
  8
0
 10
54.699971312502441
 20
74.36019049928359
 30
0.0
 40
27.0
 50
146.44111425648981
 51
159.55888574353369
  0
ARC
  5
50C
  8
0
 10
54.699971312502441
 20
74.36019049928359
 30
0.0
 40
27.0
 50
128.44111425648981
 51
141.55888574353369
  0
ARC
  5
50D
  8
0
 10
38.748199631380771
 20
96.315920640654042
 30
0.0
 40
1.1615331748207649
 50
224.08083551522819
 51
27.919164484795949
  0
ARC
  5
50E
  8
0
 10
46.313628646312843
 20
100.1706992601075
 30
0.0
 40
1.1615331748207649
 50
206.08083551522819
 51
9.919164484795937
  0
ARC
  5
50F
  8
0
 10
63.086313978681403
 20
100.17069926011089
 30
0.0
 40
1.1615331748207649
 50
170.08083551522819
 51
333.91916448479589
  0
ARC
  5
510
  8
0
 10
54.699971312496807
 20
101.49896544966261
 30
0.0
 40
1.1615331748207649
 50
188.08083551522819
 51
351.919164484796
  0
ARC
  5
511
  8
0
 10
54.699971312502441
 20
74.36019049928359
 30
0.0
 40
27.0
 50
92.441114256489854
 51
105.55888574353369
  0
ARC
  5
512
  8
0
 10
54.699971312502441
 20
74.36019049928359
 30
0.0
 40
27.0
 50
74.441114256489683
 51
87.558885743533764
  0
LINE
  5
513
  8
1
 10
115.06519301420499
 20
74.36019049928359
 30
0.0
 11
184.25587651944031
 21
74.360190499283675
 31
0.0
  0
ARC
  5
514
  8
0
 10
80.510480073326278
 20
82.746533165473124
 30
0.0
 40
1.1615331748207649
 50
116.0808355152282
 51
279.91916448479589
  0
ARC
  5
515
  8
0
 10
54.699971312502441
 20
74.36019049928359
 30
0.0
 40
27.0
 50
326.44111425648993
 51
339.55888574353378
  0
ARC
  5
516
  8
0
 10
54.699971312502441
 20
74.36019049928359
 30
0.0
 40
27.0
 50
308.44111425648993
 51
321.55888574353389
  0
ARC
  5
517
  8
0
 10
70.651742993624055
 20
52.404460357913187
 30
0.0
 40
1.1615331748207649
 50
44.080835515228252
 51
207.91916448479591
  0
ARC
  5
518
  8
0
 10
76.655701453879431
 20
58.408418818170951
 30
0.0
 40
1.1615331748207649
 50
62.080835515228259
 51
225.91916448479591
  0
ARC
  5
519
  8
0
 10
80.510480073329802
 20
65.973847833104685
 30
0.0
 40
1.1615331748207649
 50
80.080835515228273
 51
243.919164484796
  0
ARC
  5
51A
  8
0
 10
54.699971312502441
 20
74.36019049928359
 30
0.0
 40
27.0
 50
344.44111425648993
 51
357.55888574353372
  0
ARC
  5
51B
  8
0
 10
54.699971312502441
 20
74.36019049928359
 30
0.0
 40
27.0
 50
2.4411142564897128
 51
15.5588857435338
  0
ARC
  5
51C
  8
0
 10
81.838746262881443
 20
74.36019049928916
 30
0.0
 40
1.1615331748207649
 50
98.080835515228216
 51
261.91916448479589
  0
ARC
  5
51D
  8
0
 10
54.699971312502441
 20
74.36019049928359
 30
0.0
 40
27.0
 50
20.441114256489971
 51
33.558885743533899
  0
ARC
  5
51E
  8
0
 10
76.655701453872766
 20
90.311962180405317
 30
0.0
 40
1.1615331748207649
 50
134.08083551522819
 51
297.919164484796
  0
ARC
  5
51F
  8
0
 10
54.699971312502441
 20
74.36019049928359
 30
0.0
 40
27.0
 50
38.441114256490067
 51
51.558885743533828
  0
ARC
  5
520
  8
0
 10
70.651742993615017
 20
96.315920640660579
 30
0.0
 40
1.1615331748207649
 50
152.08083551522819
 51
315.91916448479589
  0
LINE
  5
52E
  8
0
 10
148.79646903601949
 20
64.358372549283445
 30
0.0
 11
137.56519301420269
 21
64.358372549281725
 31
0.0
  0
LINE
  5
52F
  8
0
 10
120.06519301420509
 20
96.36019049928359
 30
0.0
 11
120.06519301420479
 21
52.360190499283583
 31
0.0
  0
ARC
  5
543
  8
0
 10
121.06519301420479
 20
52.360190499283583
 30
0.0
 40
1.0
 50
179.9999999999996
 51
269.99999999999193
1001
GENIUS_GENODEF_13
1002
{
1000
HIER
1070
     0
1002
}
1002
{
1000
MANEDIT
1070
     0
1002
}
1002
{
1000
NOSEL
1070
     0
1002
}
1002
{
1000
BEHIND
1070
     0
1002
}
1002
{
1000
REACTOR
1002
}
1001
GENIUS_GENOBJ-N-FIL_13
1002
{
1000
OWNER
1000
GEN
1002
}
  0
LINE
  5
544
  8
0
 10
121.0651930142047
 20
51.36019049928359
 30
0.0
 11
121.2015566342038
 21
51.36019049928354
 31
0.0
  0
LINE
  5
568
  8
0
 10
148.79646903601949
 20
64.358372549283445
 30
0.0
 11
148.79646903601949
 21
84.362008449283721
 31
0.0
  0
LINE
  5
569
  8
0
 10
149.76701120420501
 20
83.391466281098573
 30
0.0
 11
149.76701120420501
 21
65.328914717468876
 31
0.0
  0
LINE
  5
56A
  8
0
 10
150.06519301420499
 20
67.861802113511771
 30
0.0
 11
149.76701120420501
 21
67.861802113511771
 31
0.0
  0
LINE
  5
56B
  8
0
 10
148.79646903601949
 20
64.358372549283445
 30
0.0
 11
149.76701120420529
 21
65.328914717468876
 31
0.0
  0
LINE
  5
56C
  8
0
 10
150.06519301420499
 20
67.861802113511786
 30
0.0
 11
150.06519301420499
 21
80.858578885055408
 31
0.0
  0
LINE
  5
56D
  8
0
 10
150.06519301420499
 20
80.858578885055408
 30
0.0
 11
149.76701120420501
 21
80.858578885055408
 31
0.0
  0
LINE
  5
56E
  8
0
 10
148.79646903601949
 20
84.362008449283735
 30
0.0
 11
137.56519301420269
 21
84.36200844928544
 31
0.0
  0
LINE
  5
57E
  8
0
 10
121.0651930142047
 20
97.360190499283576
 30
0.0
 11
121.2015566342038
 21
97.360190499283661
 31
0.0
  0
ARC
  5
57F
  8
0
 10
121.06519301420479
 20
96.36019049928359
 30
0.0
 40
1.0
 50
90.000000000008157
 51
180.0000000000004
1001
GENIUS_GENODEF_13
1002
{
1000
HIER
1070
     0
1002
}
1002
{
1000
MANEDIT
1070
     0
1002
}
1002
{
1000
NOSEL
1070
     0
1002
}
1002
{
1000
BEHIND
1070
     0
1002
}
1002
{
1000
REACTOR
1002
}
1001
GENIUS_GENOBJ-N-FIL_13
1002
{
1000
OWNER
1000
GEN
1002
}
  0
LINE
  5
58F
  8
0
 10
148.79646903601949
 20
84.362008449283735
 30
0.0
 11
149.76701120420529
 21
83.391466281098303
 31
0.0
  0
LINE
  5
AC5
  8
0
 10
178.81519301420499
 20
70.360190499283675
 30
0.0
 11
180.06519301420499
 21
71.610190499283675
 31
0.0
  0
LINE
  5
AC6
  8
0
 10
180.06519301420499
 20
71.610190499283675
 30
0.0
 11
180.06519301420499
 21
77.110190499283704
 31
0.0
1001
GENIUS_GENOREF_13
1005
0
1005
0
  0
LINE
  5
AC7
  8
0
 10
178.81519301420499
 20
70.360190499283675
 30
0.0
 11
178.81519301420499
 21
78.360190499283675
 31
0.0
  0
LINE
  5
AC9
  8
0
 10
178.81519301420499
 20
78.360190499283675
 30
0.0
 11
180.06519301420499
 21
77.110190499283675
 31
0.0
  0
LINE
  5
ACC
  8
3
 10
152.06519301420499
 20
71.127190499283586
 30
0.0
 11
151.29819301420511
 21
70.36019049928359
 31
0.0
  0
LINE
  5
ACD
  8
0
 10
152.06519301420499
 20
78.360190499283604
 30
0.0
 11
152.06519301420499
 21
70.36019049928359
 31
0.0
1001
GENIUS_GENOREF_13
1005
0
  0
LINE
  5
ACE
  8
3
 10
152.06519301420499
 20
77.593190499283594
 30
0.0
 11
151.29819301420511
 21
78.36019049928359
 31
0.0
  0
LINE
  5
AD4
  8
3
 10
179.5821930142051
 20
71.127190499283671
 30
0.0
 11
152.06519301420499
 21
71.127190499283586
 31
0.0
1001
GENIUS_GENOREF_13
1005
0
1005
0
  0
LINE
  5
AD5
  8
3
 10
179.5821930142051
 20
77.593190499283679
 30
0.0
 11
152.06519301420499
 21
77.593190499283594
 31
0.0
1001
GENIUS_GENOREF_13
1005
0
1005
0
  0
LINE
  5
AD6
  8
0
 10
150.06519301420499
 20
78.36019049928359
 30
0.0
 11
178.81519301420499
 21
78.360190499283675
 31
0.0
1001
GENIUS_GENOREF_13
1005
0
1005
0
  0
LINE
  5
AD7
  8
0
 10
150.06519301420499
 20
70.36019049928359
 30
0.0
 11
178.81519301420499
 21
70.360190499283675
 31
0.0
1001
GENIUS_GENOREF_13
1005
0
1005
0
  0
LINE
  5
BD8
  8
0
 10
136.00362802568441
 20
100.3707833309132
 30
0.0
 11
136.00362802568429
 21
101.3558192788547
 31
0.0
  0
ARC
  5
BD9
  8
0
 10
135.97239002644289
 20
98.404587024074445
 30
0.0
 40
1.9664444384786011
 50
61.141589662261381
 51
89.089788266220125
  0
LINE
  5
BDA
  8
0
 10
122.76312162272291
 20
100.3707833309132
 30
0.0
 11
122.76312162272301
 21
101.3558192788521
 31
0.0
  0
ARC
  5
BDB
  8
0
 10
122.7943596219647
 20
98.404587024074445
 30
0.0
 40
1.9664444384786011
 50
90.910211733779875
 51
118.8584103377386
  0
LINE
  5
BDC
  8
0
 10
122.76312162272301
 20
101.3558192788521
 30
0.0
 11
136.00362802568429
 21
101.3558192788546
 31
0.0
  0
LINE
  5
BDD
  8
0
 10
136.0036280257267
 20
100.3707833309126
 30
0.0
 11
122.76312162272291
 21
100.3707833309133
 31
0.0
  0
LINE
  5
BDE
  8
0
 10
136.00362802568469
 20
96.859779967891555
 30
0.0
 11
136.00362802568441
 21
99.66004424385126
 31
0.0
  0
ARC
  5
BDF
  8
0
 10
136.09597570645209
 20
102.4048962967406
 30
0.0
 40
2.746405084177153
 50
268.0730701558407
 51
286.53850052338299
  0
LINE
  5
BE0
  8
0
 10
136.00362802568429
 20
91.146360023826261
 30
0.0
 11
136.00362802568449
 21
95.511543976569456
 31
0.0
  0
LINE
  5
BE1
  8
0
 10
136.00362802568429
 20
83.789792850580625
 30
0.0
 11
136.00362802568429
 21
89.286089119865224
 31
0.0
  0
LINE
  5
BE2
  8
0
 10
137.5651930142044
 20
99.794254290331764
 30
0.0
 11
137.5651930142044
 21
48.926126708228153
 31
0.0
  0
LINE
  5
BE3
  8
0
 10
122.76312162272269
 20
96.859779967889168
 30
0.0
 11
122.76312162272291
 21
99.66004424385126
 31
0.0
  0
ARC
  5
BE4
  8
0
 10
122.6707739419554
 20
102.4048962967406
 30
0.0
 40
2.746405084177153
 50
253.46149947661701
 51
271.92692984415919
  0
LINE
  5
BE5
  8
0
 10
122.76312162272301
 20
91.146360023827086
 30
0.0
 11
122.7631216227233
 21
95.507873887619908
 31
0.0
  0
LINE
  5
BE6
  8
0
 10
122.76312162272301
 20
83.789792850580625
 30
0.0
 11
122.76312162272301
 21
89.285620936765227
 31
0.0
  0
ARC
  5
BE7
  8
0
 10
122.8435495543542
 20
90.376742423813326
 30
0.0
 40
1.094081693332148
 50
183.37164411366999
 51
265.78428044614878
  0
LINE
  5
BE8
  8
0
 10
136.00362802568441
 20
99.660044243850578
 30
0.0
 11
122.76312162272291
 21
99.66004424385126
 31
0.0
  0
LINE
  5
BE9
  8
0
 10
122.76312162272291
 20
96.859779967889168
 30
0.0
 11
136.00362802568469
 21
96.859779967891555
 31
0.0
  0
LINE
  5
BEA
  8
0
 10
122.7631216227233
 20
95.507873887619908
 30
0.0
 11
136.00362802568449
 21
95.507873887619112
 31
0.0
  0
LINE
  5
BEB
  8
0
 10
122.76312162272301
 20
89.285620936765227
 30
0.0
 11
136.00362802568429
 21
89.285620936765227
 31
0.0
  0
LINE
  5
BEC
  8
0
 10
122.76312162273091
 20
91.146360023827057
 30
0.0
 11
136.00362802569219
 21
91.146360023826261
 31
0.0
  0
LINE
  5
BED
  8
0
 10
122.76312162272301
 20
83.789792850580625
 30
0.0
 11
136.00362802568429
 21
83.789792850580625
 31
0.0
  0
LINE
  5
BEE
  8
0
 10
122.76312162272301
 20
101.3558192788521
 30
0.0
 11
121.2015566342029
 21
99.794254290331764
 31
0.0
  0
LINE
  5
BEF
  8
0
 10
136.00362802568429
 20
101.3558192788521
 30
0.0
 11
137.5651930142044
 21
99.794254290331764
 31
0.0
  0
ARC
  5
BF0
  8
0
 10
136.8104886126747
 20
99.960458342147504
 30
0.0
 40
0.2
 50
289.65695870431921
 51
56.289462987398018
1001
GENIUS_GENODEF_13
1002
{
1000
HIER
1070
     0
1002
}
1002
{
1000
MANEDIT
1070
     0
1002
}
1002
{
1000
NOSEL
1070
     0
1002
}
1002
{
1000
BEHIND
1070
     0
1002
}
1002
{
1000
REACTOR
1002
}
1001
GENIUS_GENOBJ-N-FIL_13
1002
{
1000
OWNER
1000
GEN
1002
}
  0
ARC
  5
BF1
  8
0
 10
121.95626103573279
 20
99.960458342147504
 30
0.0
 40
0.2
 50
123.7105370126019
 51
250.34304129568079
1001
GENIUS_GENODEF_13
1002
{
1000
HIER
1070
     0
1002
}
1002
{
1000
MANEDIT
1070
     0
1002
}
1002
{
1000
NOSEL
1070
     0
1002
}
1002
{
1000
BEHIND
1070
     0
1002
}
1002
{
1000
REACTOR
1002
}
1001
GENIUS_GENOBJ-N-FIL_13
1002
{
1000
OWNER
1000
GEN
1002
}
  0
LINE
  5
BF2
  8
0
 10
136.00362802568429
 20
75.510190499285443
 30
0.0
 11
136.00362802568429
 21
81.602573842588086
 31
0.0
  0
LINE
  5
BF3
  8
0
 10
136.00362802568429
 20
73.210190499285503
 30
0.0
 11
136.00362802568429
 21
67.117807155971846
 31
0.0
  0
LINE
  5
BF4
  8
0
 10
122.7631216227233
 20
75.510190499285443
 30
0.0
 11
122.76312162272301
 21
81.602362863101874
 31
0.0
  0
LINE
  5
BF5
  8
0
 10
122.7631216227233
 20
73.210190499285503
 30
0.0
 11
122.76312162272301
 21
67.118018135458058
 31
0.0
  0
LINE
  5
BF6
  8
0
 10
136.00362802568429
 20
73.210190499285503
 30
0.0
 11
122.76312162272239
 21
73.210190499285503
 31
0.0
  0
LINE
  5
BF7
  8
0
 10
122.76312162272301
 20
81.602362863101874
 30
0.0
 11
136.00362802568429
 21
81.602362863101874
 31
0.0
  0
LINE
  5
BF8
  8
0
 10
136.00362802568429
 20
75.510190499285443
 30
0.0
 11
122.76312162272239
 21
75.510190499285443
 31
0.0
  0
LINE
  5
BF9
  8
0
 10
136.00362802568429
 20
47.364561719707822
 30
0.0
 11
137.5651930142044
 21
48.926126708228153
 31
0.0
  0
LINE
  5
BFA
  8
0
 10
136.00362802568441
 20
48.349597667646677
 30
0.0
 11
136.00362802568429
 21
47.3645617197052
 31
0.0
  0
LINE
  5
BFB
  8
0
 10
136.00362802568469
 20
51.860601030668377
 30
0.0
 11
136.00362802568441
 21
49.060336754708672
 31
0.0
  0
LINE
  5
BFC
  8
0
 10
136.00362802568429
 20
57.574020974733671
 30
0.0
 11
136.00362802568449
 21
53.208837021990469
 31
0.0
  0
LINE
  5
BFD
  8
0
 10
122.7267465687645
 20
53.209401659815008
 30
0.0
 11
122.7267465687645
 21
53.217020349642908
 31
0.0
  0
LINE
  5
BFE
  8
0
 10
122.76312162272291
 20
48.349597667646677
 30
0.0
 11
122.76312162272301
 21
47.364561719707822
 31
0.0
  0
LINE
  5
BFF
  8
0
 10
122.76312162272301
 20
47.364561719707822
 30
0.0
 11
121.2015566342029
 21
48.926126708228153
 31
0.0
  0
LINE
  5
C00
  8
0
 10
122.76312162272269
 20
51.860601030670757
 30
0.0
 11
122.76312162272291
 21
49.060336754708672
 31
0.0
  0
LINE
  5
C01
  8
0
 10
122.76312162272301
 20
57.574020974732882
 30
0.0
 11
122.7631216227233
 21
53.212507110940017
 31
0.0
  0
LINE
  5
C02
  8
0
 10
122.76312162272301
 20
47.364561719707822
 30
0.0
 11
136.00362802568429
 21
47.364561719705257
 31
0.0
  0
LINE
  5
C03
  8
0
 10
136.00362802568441
 20
64.930588147979293
 30
0.0
 11
136.00362802568429
 21
59.434291878694708
 31
0.0
  0
LINE
  5
C04
  8
0
 10
122.76312162272301
 20
64.930588147979293
 30
0.0
 11
122.76312162272301
 21
59.434760061794698
 31
0.0
  0
LINE
  5
C05
  8
0
 10
121.20155663421021
 20
99.794254290339055
 30
0.0
 11
121.2015566342029
 21
48.926126708228153
 31
0.0
  0
POLYLINE
  5
C06
  8
0
 66
     1
 10
0.0
 20
0.0
 30
0.0
 70
     8
  0
VERTEX
  5
C07
  8
0
 10
135.9692635226402
 20
81.601860212604223
 30
0.0
 70
    32
1001
ACAD
1000
R13OBJECT
1002
{
1005
0
1002
}
  0
VERTEX
  5
C08
  8
0
 10
136.40998368287489
 20
81.697888852446013
 30
0.0
 70
    32
1001
ACAD
1000
R13OBJECT
1002
{
1005
0
1002
}
  0
VERTEX
  5
C09
  8
0
 10
136.76341381029721
 20
82.000047426631156
 30
0.0
 70
    32
1001
ACAD
1000
R13OBJECT
1002
{
1005
0
1002
}
  0
VERTEX
  5
C0A
  8
0
 10
136.95955273363481
 20
82.448489723810511
 30
0.0
 70
    32
1001
ACAD
1000
R13OBJECT
1002
{
1005
0
1002
}
  0
VERTEX
  5
C0B
  8
0
 10
136.95955273363481
 20
82.954396247243906
 30
0.0
 70
    32
1001
ACAD
1000
R13OBJECT
1002
{
1005
0
1002
}
  0
VERTEX
  5
C0C
  8
0
 10
136.62647611192159
 20
83.547793481472709
 30
0.0
 70
    32
1001
ACAD
1000
R13OBJECT
1002
{
1005
0
1002
}
  0
VERTEX
  5
C0D
  8
0
 10
136.00362802568429
 20
83.789792850580625
 30
0.0
 70
    32
1001
ACAD
1000
R13OBJECT
1002
{
1005
0
1002
}
  0
SEQEND
  5
C0E
  8
0
  0
ARC
  5
C0F
  8
0
 10
122.9108488643748
 20
74.36019049928548
 30
0.0
 40
1.1594495840381169
 50
97.320039823448397
 51
262.67996017656151
  0
ARC
  5
C10
  8
0
 10
135.80010314959671
 20
74.36019049928548
 30
0.0
 40
1.1594495840381169
 50
277.32003982343861
 51
82.679960176551603
  0
ARC
  5
C11
  8
0
 10
122.8475038354275
 20
82.696077856841214
 30
0.0
 40
1.096965289036683
 50
94.41173979357383
 51
265.58826020640657
  0
ARC
  5
C12
  8
0
 10
122.6829786130883
 20
90.212876451154287
 30
0.0
 40
0.9369175430337882
 50
85.092978594354264
 51
173.9024722280225
  0
ARC
  5
C13
  8
0
 10
135.9232000940689
 20
90.376742423813326
 30
0.0
 40
1.094081693332148
 50
274.21571955385122
 51
356.62835588632998
  0
ARC
  5
C14
  8
0
 10
136.08377103533479
 20
90.212876451154287
 30
0.0
 40
0.9369175430337882
 50
6.0975277719774477
 51
94.907021405645736
  0
POLYLINE
  5
C15
  8
0
 66
     1
 10
0.0
 20
0.0
 30
0.0
  0
VERTEX
  5
C16
  8
0
 10
136.00362802568469
 20
95.511543976569456
 30
0.0
 42
0.0802571960934955
  0
VERTEX
  5
C17
  8
0
 10
136.39727836540129
 20
95.575140158424361
 30
0.0
 42
0.0889799440241004
  0
VERTEX
  5
C18
  8
0
 10
136.71374963602489
 20
95.74714044685247
 30
0.0
 42
0.1049325311716036
 70
     2
 50
38.693389975352659
  0
VERTEX
  5
C19
  8
0
 10
136.9353171290411
 20
96.017591851721264
 30
0.0
 42
0.1198868636095806
 50
38.693389975352659
  0
VERTEX
  5
C1A
  8
0
 10
137.0078916379621
 20
96.315920640656955
 30
0.0
 42
0.1198868636095572
  0
SEQEND
  5
C1B
  8
0
  0
POLYLINE
  5
C1C
  8
0
 66
     1
 10
0.0
 20
0.0
 30
0.0
  0
VERTEX
  5
C1D
  8
0
 10
137.0078916379621
 20
96.315920640656955
 30
0.0
 42
0.1647024526072154
  0
VERTEX
  5
C1E
  8
0
 10
136.94441809239271
 20
96.503385077895615
 30
0.0
 42
0.1057707385886025
  0
VERTEX
  5
C1F
  8
0
 10
136.71374963602489
 20
96.700487258956073
 30
0.0
 42
0.0690263387736676
 70
     2
 50
151.56222354989751
  0
VERTEX
  5
C20
  8
0
 10
136.40824947150679
 20
96.814955089090816
 30
0.0
 42
0.055222215854414
 50
151.56222354989751
  0
VERTEX
  5
C21
  8
0
 10
136.00362802568469
 20
96.859779967891555
 30
0.0
 42
0.0552222158543657
  0
SEQEND
  5
C22
  8
0
  0
POLYLINE
  5
C23
  8
0
 66
     1
 10
0.0
 20
0.0
 30
0.0
  0
VERTEX
  5
C24
  8
0
 10
122.76312162272281
 20
95.511543976570266
 30
0.0
 42
-0.0802571960934955
  0
VERTEX
  5
C25
  8
0
 10
122.36947128300621
 20
95.575140158425214
 30
0.0
 42
-0.0889799440241004
  0
VERTEX
  5
C26
  8
0
 10
122.0530000123825
 20
95.747140446853408
 30
0.0
 42
-0.1049325311716036
 70
     2
 50
218.69338997534541
  0
VERTEX
  5
C27
  8
0
 10
121.8314325193664
 20
96.01759185172223
 30
0.0
 42
-0.1198868636095806
 50
38.693389975352659
  0
VERTEX
  5
C28
  8
0
 10
121.75885801044539
 20
96.315920640657922
 30
0.0
 42
-0.1198868636095572
  0
SEQEND
  5
C29
  8
0
  0
POLYLINE
  5
C2A
  8
0
 66
     1
 10
0.0
 20
0.0
 30
0.0
  0
VERTEX
  5
C2B
  8
0
 10
121.75885801044539
 20
96.315920640657922
 30
0.0
 42
-0.1647024526072154
  0
VERTEX
  5
C2C
  8
0
 10
121.8223315560148
 20
96.503385077896567
 30
0.0
 42
-0.1057707385886025
  0
VERTEX
  5
C2D
  8
0
 10
122.0530000123826
 20
96.700487258957025
 30
0.0
 42
-0.0690263387736676
 70
     2
 50
331.56222354989029
  0
VERTEX
  5
C2E
  8
0
 10
122.3585001769008
 20
96.814955089091725
 30
0.0
 42
-0.055222215854414
 50
151.56222354989751
  0
VERTEX
  5
C2F
  8
0
 10
122.76312162272291
 20
96.859779967892351
 30
0.0
 42
-0.0552222158543657
  0
SEQEND
  5
C30
  8
0
  0
ARC
  5
C31
  8
0
 10
135.97239002644289
 20
50.315793974485487
 30
0.0
 40
1.9664444384786011
 50
270.91021173377987
 51
298.85841033773869
  0
ARC
  5
C32
  8
0
 10
122.7943596219647
 20
50.315793974485487
 30
0.0
 40
1.9664444384786011
 50
241.1415896622614
 51
269.08978826622013
  0
LINE
  5
C33
  8
0
 10
136.0036280257267
 20
48.349597667647359
 30
0.0
 11
122.76312162272291
 21
48.349597667646613
 31
0.0
  0
ARC
  5
C34
  8
0
 10
136.09597570645209
 20
46.315484701819301
 30
0.0
 40
2.746405084177153
 50
73.461499476617007
 51
91.926929844159233
  0
ARC
  5
C35
  8
0
 10
122.6707739419554
 20
46.315484701819301
 30
0.0
 40
2.746405084177153
 50
88.073070155840767
 51
106.53850052338299
  0
ARC
  5
C36
  8
0
 10
122.8435495543542
 20
58.343638574746599
 30
0.0
 40
1.094081693332148
 50
94.215719553851173
 51
176.62835588633001
  0
LINE
  5
C37
  8
0
 10
136.00362802568441
 20
49.060336754709347
 30
0.0
 11
122.76312162272291
 21
49.060336754708672
 31
0.0
  0
LINE
  5
C38
  8
0
 10
122.76312162272291
 20
51.860601030670757
 30
0.0
 11
136.00362802568469
 21
51.860601030668377
 31
0.0
  0
LINE
  5
C39
  8
0
 10
122.7631216227233
 20
53.212507110940017
 30
0.0
 11
136.00362802568449
 21
53.21250711094082
 31
0.0
  0
LINE
  5
C3A
  8
0
 10
122.76312162272301
 20
59.434760061794698
 30
0.0
 11
136.00362802568429
 21
59.434760061794698
 31
0.0
  0
LINE
  5
C3B
  8
0
 10
122.76312162273091
 20
57.574020974732882
 30
0.0
 11
136.00362802569219
 21
57.574020974733671
 31
0.0
  0
LINE
  5
C3C
  8
0
 10
122.76312162272301
 20
64.930588147979293
 30
0.0
 11
136.00362802568429
 21
64.930588147979293
 31
0.0
  0
ARC
  5
C3D
  8
0
 10
136.8104886126747
 20
48.759922656412428
 30
0.0
 40
0.2
 50
303.71053701260189
 51
70.343041295680791
1001
GENIUS_GENODEF_13
1002
{
1000
HIER
1070
     0
1002
}
1002
{
1000
MANEDIT
1070
     0
1002
}
1002
{
1000
NOSEL
1070
     0
1002
}
1002
{
1000
BEHIND
1070
     0
1002
}
1002
{
1000
REACTOR
1002
}
1001
GENIUS_GENOBJ-N-FIL_13
1002
{
1000
OWNER
1000
GEN
1002
}
  0
ARC
  5
C3E
  8
0
 10
121.95626103573279
 20
48.759922656412428
 30
0.0
 40
0.2
 50
109.65695870431919
 51
236.289462987398
1001
GENIUS_GENODEF_13
1002
{
1000
HIER
1070
     0
1002
}
1002
{
1000
MANEDIT
1070
     0
1002
}
1002
{
1000
NOSEL
1070
     0
1002
}
1002
{
1000
BEHIND
1070
     0
1002
}
1002
{
1000
REACTOR
1002
}
1001
GENIUS_GENOBJ-N-FIL_13
1002
{
1000
OWNER
1000
GEN
1002
}
  0
LINE
  5
C3F
  8
0
 10
122.76312162272301
 20
67.118018135458058
 30
0.0
 11
136.00362802568429
 21
67.118018135458058
 31
0.0
  0
POLYLINE
  5
C40
  8
0
 66
     1
 10
0.0
 20
0.0
 30
0.0
 70
     8
  0
VERTEX
  5
C41
  8
0
 10
135.9692635226402
 20
67.11852078595571
 30
0.0
 70
    32
1001
ACAD
1000
R13OBJECT
1002
{
1005
0
1002
}
  0
VERTEX
  5
C42
  8
0
 10
136.40998368287489
 20
67.022492146113905
 30
0.0
 70
    32
1001
ACAD
1000
R13OBJECT
1002
{
1005
0
1002
}
  0
VERTEX
  5
C43
  8
0
 10
136.76341381029721
 20
66.720333571928776
 30
0.0
 70
    32
1001
ACAD
1000
R13OBJECT
1002
{
1005
0
1002
}
  0
VERTEX
  5
C44
  8
0
 10
136.95955273363481
 20
66.271891274749422
 30
0.0
 70
    32
1001
ACAD
1000
R13OBJECT
1002
{
1005
0
1002
}
  0
VERTEX
  5
C45
  8
0
 10
136.95955273363481
 20
65.765984751316026
 30
0.0
 70
    32
1001
ACAD
1000
R13OBJECT
1002
{
1005
0
1002
}
  0
VERTEX
  5
C46
  8
0
 10
136.62647611192159
 20
65.172587517087223
 30
0.0
 70
    32
1001
ACAD
1000
R13OBJECT
1002
{
1005
0
1002
}
  0
VERTEX
  5
C47
  8
0
 10
136.00362802568429
 20
64.930588147979293
 30
0.0
 70
    32
1001
ACAD
1000
R13OBJECT
1002
{
1005
0
1002
}
  0
SEQEND
  5
C48
  8
0
  0
ARC
  5
C49
  8
0
 10
122.8475038354275
 20
66.024303141718704
 30
0.0
 40
1.096965289036683
 50
94.411739793593426
 51
265.58826020642618
  0
ARC
  5
C4A
  8
0
 10
122.6829786130883
 20
58.507504547405638
 30
0.0
 40
0.9369175430337882
 50
186.0975277719775
 51
274.90702140564571
  0
ARC
  5
C4B
  8
0
 10
135.9232000940689
 20
58.343638574746599
 30
0.0
 40
1.094081693332148
 50
3.3716441136699862
 51
85.784280446148813
  0
ARC
  5
C4C
  8
0
 10
136.08377103533479
 20
58.507504547405638
 30
0.0
 40
0.9369175430337882
 50
265.09297859435418
 51
353.90247222802248
  0
POLYLINE
  5
C4D
  8
0
 66
     1
 10
0.0
 20
0.0
 30
0.0
  0
VERTEX
  5
C4E
  8
0
 10
136.00362802568469
 20
53.208837021990469
 30
0.0
 42
-0.0802571960934955
  0
VERTEX
  5
C4F
  8
0
 10
136.39727836540129
 20
53.145240840135571
 30
0.0
 42
-0.0889799440241004
  0
VERTEX
  5
C50
  8
0
 10
136.71374963602489
 20
52.973240551707462
 30
0.0
 42
-0.1049325311716036
 70
     2
 50
38.693389975352659
  0
VERTEX
  5
C51
  8
0
 10
136.9353171290411
 20
52.702789146838668
 30
0.0
 42
-0.1198868636095806
 50
38.693389975352659
  0
VERTEX
  5
C52
  8
0
 10
137.0078916379621
 20
52.404460357902977
 30
0.0
 42
-0.1198868636095572
  0
SEQEND
  5
C53
  8
0
  0
POLYLINE
  5
C54
  8
0
 66
     1
 10
0.0
 20
0.0
 30
0.0
  0
VERTEX
  5
C55
  8
0
 10
137.0078916379621
 20
52.404460357902977
 30
0.0
 42
-0.1647024526072154
  0
VERTEX
  5
C56
  8
0
 10
136.94441809239271
 20
52.216995920664303
 30
0.0
 42
-0.1057707385886025
  0
VERTEX
  5
C57
  8
0
 10
136.71374963602489
 20
52.019893739603859
 30
0.0
 42
-0.0690263387736676
 70
     2
 50
151.56222354989751
  0
VERTEX
  5
C58
  8
0
 10
136.40824947150679
 20
51.905425909469109
 30
0.0
 42
-0.055222215854414
 50
151.56222354989751
  0
VERTEX
  5
C59
  8
0
 10
136.00362802568469
 20
51.860601030668377
 30
0.0
 42
-0.0552222158543657
  0
SEQEND
  5
C5A
  8
0
  0
POLYLINE
  5
C5B
  8
0
 66
     1
 10
0.0
 20
0.0
 30
0.0
  0
VERTEX
  5
C5C
  8
0
 10
122.76312162272281
 20
53.208837021989652
 30
0.0
 42
0.0802571960934955
  0
VERTEX
  5
C5D
  8
0
 10
122.36947128300621
 20
53.145240840134718
 30
0.0
 42
0.0889799440241004
  0
VERTEX
  5
C5E
  8
0
 10
122.0530000123825
 20
52.973240551706517
 30
0.0
 42
0.1049325311716036
 70
     2
 50
218.69338997534541
  0
VERTEX
  5
C5F
  8
0
 10
121.8314325193664
 20
52.702789146837702
 30
0.0
 42
0.1198868636095806
 50
38.693389975352659
  0
VERTEX
  5
C60
  8
0
 10
121.75885801044539
 20
52.404460357902011
 30
0.0
 42
0.1198868636095572
  0
SEQEND
  5
C61
  8
0
  0
POLYLINE
  5
C62
  8
0
 66
     1
 10
0.0
 20
0.0
 30
0.0
  0
VERTEX
  5
C63
  8
0
 10
121.75885801044539
 20
52.404460357902011
 30
0.0
 42
0.1647024526072154
  0
VERTEX
  5
C64
  8
0
 10
121.8223315560148
 20
52.216995920663358
 30
0.0
 42
0.1057707385886025
  0
VERTEX
  5
C65
  8
0
 10
122.0530000123826
 20
52.019893739602921
 30
0.0
 42
0.0690263387736676
 70
     2
 50
331.56222354989029
  0
VERTEX
  5
C66
  8
0
 10
122.3585001769008
 20
51.905425909468207
 30
0.0
 42
0.055222215854414
 50
151.56222354989751
  0
VERTEX
  5
C67
  8
0
 10
122.76312162272291
 20
51.860601030667581
 30
0.0
 42
0.0552222158543657
  0
SEQEND
  5
C68
  8
0
  0
TEXT
  5
D03
  8
0
 62
     3
 10
0.0
 20
0.0
 30
0.0
 40
10.0
  1
KN55AX30SOFT
  7
STANDARD1
  0
ENDSEC
  0
EOF
