  0
SECTION
  2
HEADER
  9
$ACADVER
  1
AC1009
  9
$INSBASE
 10
0.0
 20
0.0
 30
0.0
  9
$EXTMIN
 10
0.0
 20
-2.960436562073669
 30
0.0
  9
$EXTMAX
 10
184.74315751530301
 20
99.682056598546595
 30
0.0
  9
$LIMMIN
 10
0.0
 20
0.0
  9
$LIMMAX
 10
187.5
 20
135.0
  9
$ORTHOMODE
 70
     1
  9
$REGENMODE
 70
     1
  9
$FILLMODE
 70
     1
  9
$QTEXTMODE
 70
     0
  9
$MIRRTEXT
 70
     0
  9
$DRAGMODE
 70
     2
  9
$LTSCALE
 40
5.0
  9
$OSMODE
 70
  3071
  9
$ATTMODE
 70
     1
  9
$TEXTSIZE
 40
0.2
  9
$TRACEWID
 40
0.05
  9
$TEXTSTYLE
  7
STANDARD
  9
$CLAYER
  8
0
  9
$CELTYPE
  6
BYLAYER
  9
$CECOLOR
 62
   256
  9
$DIMSCALE
 40
0.5
  9
$DIMASZ
 40
3.0
  9
$DIMEXO
 40
2.0
  9
$DIMDLI
 40
0.38
  9
$DIMRND
 40
0.0
  9
$DIMDLE
 40
0.0
  9
$DIMEXE
 40
2.0
  9
$DIMTP
 40
0.0
  9
$DIMTM
 40
0.0
  9
$DIMTXT
 40
3.2000000000000002
  9
$DIMCEN
 40
0.0
  9
$DIMTSZ
 40
0.0
  9
$DIMTOL
 70
     0
  9
$DIMLIM
 70
     0
  9
$DIMTIH
 70
     0
  9
$DIMTOH
 70
     0
  9
$DIMSE1
 70
     0
  9
$DIMSE2
 70
     0
  9
$DIMTAD
 70
     1
  9
$DIMZIN
 70
     0
  9
$DIMBLK
  1

  9
$DIMASO
 70
     1
  9
$DIMSHO
 70
     0
  9
$DIMPOST
  1

  9
$DIMAPOST
  1

  9
$DIMALT
 70
     0
  9
$DIMALTD
 70
     2
  9
$DIMALTF
 40
25.399999999999999
  9
$DIMLFAC
 40
1.0
  9
$DIMTOFL
 70
     1
  9
$DIMTVP
 40
1.6000000000000001
  9
$DIMTIX
 70
     1
  9
$DIMSOXD
 70
     0
  9
$DIMSAH
 70
     0
  9
$DIMBLK1
  1

  9
$DIMBLK2
  1

  9
$DIMSTYLE
  2
STANDARD
  9
$DIMCLRD
 70
     0
  9
$DIMCLRE
 70
     0
  9
$DIMCLRT
 70
     0
  9
$DIMTFAC
 40
1.0
  9
$DIMGAP
 40
0.09
  9
$LUNITS
 70
     2
  9
$LUPREC
 70
     4
  9
$SKETCHINC
 40
0.1
  9
$FILLETRAD
 40
0.8
  9
$AUNITS
 70
     1
  9
$AUPREC
 70
     4
  9
$MENU
  1
E:\r13\win\SUPPORT\ACAD
  9
$ELEVATION
 40
0.0
  9
$PELEVATION
 40
0.0
  9
$THICKNESS
 40
0.0
  9
$LIMCHECK
 70
     0
  9
$BLIPMODE
 70
     0
  9
$CHAMFERA
 40
0.0
  9
$CHAMFERB
 40
0.0
  9
$SKPOLY
 70
     0
  9
$TDCREATE
 40
2449839.7859490742
  9
$TDUPDATE
 40
2456597.4862878588
  9
$TDINDWG
 40
0.0272474421
  9
$TDUSRTIMER
 40
0.0272474421
  9
$USRTIMER
 70
     1
  9
$ANGBASE
 50
0.0
  9
$ANGDIR
 70
     0
  9
$PDMODE
 70
     0
  9
$PDSIZE
 40
0.0
  9
$PLINEWID
 40
0.0
  9
$COORDS
 70
     1
  9
$SPLFRAME
 70
     0
  9
$SPLINETYPE
 70
     6
  9
$SPLINESEGS
 70
     8
  9
$ATTDIA
 70
     0
  9
$ATTREQ
 70
     1
  9
$HANDLING
 70
     1
  9
$HANDSEED
  5
7BE
  9
$SURFTAB1
 70
     6
  9
$SURFTAB2
 70
     6
  9
$SURFTYPE
 70
     6
  9
$SURFU
 70
     6
  9
$SURFV
 70
     6
  9
$UCSNAME
  2

  9
$UCSORG
 10
0.0
 20
0.0
 30
0.0
  9
$UCSXDIR
 10
1.0
 20
0.0
 30
0.0
  9
$UCSYDIR
 10
0.0
 20
1.0
 30
0.0
  9
$PUCSNAME
  2

  9
$PUCSORG
 10
0.0
 20
0.0
 30
0.0
  9
$PUCSXDIR
 10
1.0
 20
0.0
 30
0.0
  9
$PUCSYDIR
 10
0.0
 20
1.0
 30
0.0
  9
$USERI1
 70
     0
  9
$USERI2
 70
     1
  9
$USERI3
 70
     1
  9
$USERI4
 70
     0
  9
$USERI5
 70
     0
  9
$USERR1
 40
0.0
  9
$USERR2
 40
0.0
  9
$USERR3
 40
0.0
  9
$USERR4
 40
0.0
  9
$USERR5
 40
0.0
  9
$WORLDVIEW
 70
     1
  9
$SHADEDGE
 70
     3
  9
$SHADEDIF
 70
    70
  9
$TILEMODE
 70
     1
  9
$MAXACTVP
 70
    16
  9
$PLIMCHECK
 70
     0
  9
$PEXTMIN
 10
1.0000000000000000E+020
 20
1.0000000000000000E+020
 30
1.0000000000000000E+020
  9
$PEXTMAX
 10
-1.0000000000000000E+020
 20
-1.0000000000000000E+020
 30
-1.0000000000000000E+020
  9
$PLIMMIN
 10
0.0
 20
0.0
  9
$PLIMMAX
 10
12.0
 20
9.0
  9
$UNITMODE
 70
     0
  9
$VISRETAIN
 70
     0
  9
$PLINEGEN
 70
     0
  9
$PSLTSCALE
 70
     0
  0
ENDSEC
  0
SECTION
  2
TABLES
  0
TABLE
  2
VPORT
 70
     1
  0
VPORT
  2
*ACTIVE
 70
     0
 10
0.0
 20
0.0
 11
1.0
 21
1.0
 12
93.74713919532617
 22
80.848703909439024
 13
0.0
 23
0.0
 14
5.0
 24
5.0
 15
5.0
 25
5.0
 16
0.0
 26
0.0
 36
1.0
 17
0.0
 27
0.0
 37
0.0
 40
169.22413112104309
 41
1.9089595375722539
 42
50.0
 43
0.0
 44
0.0
 50
0.0
 51
0.0
 71
     0
 72
   500
 73
     1
 74
     0
 75
     0
 76
     0
 77
     0
 78
     2
  0
ENDTAB
  0
TABLE
  2
LTYPE
 70
     3
  0
LTYPE
  2
CONTINUOUS
 70
     0
  3
Solid Line
 72
    65
 73
     0
 40
0.0
  0
LTYPE
  2
CENTER
 70
     0
  3
____ _ ____ _ ____ _ ____ _ ____ _ ____ _ ____
 72
    65
 73
     4
 40
2.0
 49
1.25
 49
-0.25
 49
0.25
 49
-0.25
  0
LTYPE
  2
PHANTOM2
 70
     0
  3
___ _ _ ___ _ _ ___ _ _ ___ _ _
 72
    65
 73
     6
 40
1.25
 49
0.625
 49
-0.125
 49
0.125
 49
-0.125
 49
0.125
 49
-0.125
  0
ENDTAB
  0
TABLE
  2
LAYER
 70
     3
  0
LAYER
  2
0
 70
     0
 62
     7
  6
CONTINUOUS
  0
LAYER
  2
1
 70
     0
 62
     1
  6
CENTER
  0
LAYER
  2
3
 70
     0
 62
     3
  6
CONTINUOUS
  0
ENDTAB
  0
TABLE
  2
STYLE
 70
     2
  0
STYLE
  2
STANDARD
 70
     0
 40
0.0
 41
1.0
 50
0.0
 71
     0
 42
0.2
  3
TXT
  4
BIGFONT
  0
STYLE
  2
STANDARD1
 70
     0
 40
0.0
 41
1.0
 50
0.0
 71
     0
 42
3.0
  3
txt
  4

  0
ENDTAB
  0
TABLE
  2
VIEW
 70
     1
  0
VIEW
  2
ALL
 70
     0
 40
135.0
 10
110.4957983193277
 20
67.5
 41
0.0
 11
0.0
 21
0.0
 31
1.0
 12
0.0
 22
0.0
 32
0.0
 42
0.0
 43
0.0
 44
0.0
 50
0.0
 71
     0
  0
ENDTAB
  0
TABLE
  2
UCS
 70
     0
  0
ENDTAB
  0
TABLE
  2
APPID
 70
    22
  0
APPID
  2
ACAD
 70
     0
  0
APPID
  2
GENIUS_GENODEF_13
 70
     0
  0
APPID
  2
GENIUS_GENOBJ-N-FIL_13
 70
     0
  0
APPID
  2
GENIUS_GENCFG_13
 70
     0
  0
APPID
  2
GENIUS_GENCFG0_13
 70
     0
  0
APPID
  2
GENIUS_GENCFG1_13
 70
     0
  0
APPID
  2
GENIUS_GENCFG2_13
 70
     0
  0
APPID
  2
GENIUS_GENCFG3_13
 70
     0
  0
APPID
  2
GENIUS_GENCFG4_13
 70
     0
  0
APPID
  2
GENIUS_GEVCFG0_13
 70
     0
  0
APPID
  2
GENIUS_GENOENT_13
 70
     0
  0
APPID
  2
GENIUS_GENOBJ-N-HTC_13
 70
     0
  0
APPID
  2
GENIUS_GENHATCH_13
 70
     0
  0
APPID
  2
GENIUS_GENFIL_13
 70
     0
  0
APPID
  2
GENIUS_GENOBJ-N-CHA_13
 70
     0
  0
APPID
  2
GEV_VCCNULL_SWITCH_OFF
 70
     0
  0
APPID
  2
GENIUS_GENDTOL_13
 70
     0
  0
APPID
  2
GENIUS_GEFCFG0_13
 70
     0
  0
APPID
  2
GENIUS_GENOREF_13
 70
     0
  0
APPID
  2
ACAD_EXEMPT_FROM_CAD_STANDARDS
 70
     0
  0
APPID
  2
ACAD_MLEADERVER
 70
     0
  0
APPID
  2
ACAD_NAV_VCDISPLAY
 70
     0
  0
ENDTAB
  0
TABLE
  2
DIMSTYLE
 70
     1
  0
DIMSTYLE
  2
STANDARD
 70
     0
  3

  4

  5

  6

  7

 40
1.0
 41
0.18
 42
0.0625
 43
0.38
 44
0.18
 45
0.0
 46
0.0
 47
0.0
 48
0.0
140
0.18
141
0.09
142
0.0
143
25.399999999999999
144
1.0
145
0.0
146
1.0
147
0.09
 71
     0
 72
     0
 73
     1
 74
     1
 75
     0
 76
     0
 77
     0
 78
     0
170
     0
171
     2
172
     0
173
     0
174
     0
175
     0
176
     0
177
     0
178
     0
  0
ENDTAB
  0
ENDSEC
  0
SECTION
  2
BLOCKS
  0
BLOCK
  8
0
  2
$MODEL_SPACE
 70
     0
 10
0.0
 20
0.0
 30
0.0
  3
$MODEL_SPACE
  1

  0
ENDBLK
  5
608
  8
0
  0
BLOCK
 67
     1
  8
0
  2
$PAPER_SPACE
 70
     0
 10
0.0
 20
0.0
 30
0.0
  3
$PAPER_SPACE
  1

  0
ENDBLK
  5
606
 67
     1
  8
0
  0
ENDSEC
  0
SECTION
  2
ENTITIES
  0
LINE
  5
4D7
  8
1
 10
58.304801464134471
 20
99.682056598546595
 30
0.0
 11
58.304801464134471
 21
45.68917909125107
 31
0.0
  0
LINE
  5
4DE
  8
0
 10
107.6157136998353
 20
71.685580371748529
 30
0.0
 11
107.6157136998351
 21
65.215044702119926
 31
0.0
  0
LINE
  5
4DF
  8
0
 10
118.47077120008539
 20
71.686157671687397
 30
0.0
 11
118.47077120008539
 21
65.214872792905112
 31
0.0
  0
ARC
  5
4E0
  8
0
 10
58.304801464134471
 20
72.685617844898843
 30
0.0
 40
21.996438753647741
 50
340.10577104958338
 51
357.39422895041622
  0
CIRCLE
  5
4E1
  8
0
 10
58.304801464134471
 20
72.685617844898843
 30
0.0
 40
7.0
  0
CIRCLE
  5
4E2
  8
0
 10
58.304801464134471
 20
72.685617844898843
 30
0.0
 40
8.1500000000000004
  0
ARC
  5
4E3
  8
0
 10
58.304801464134471
 20
72.685617844898843
 30
0.0
 40
21.996438753647741
 50
182.6057710495833
 51
199.89422895041631
  0
CIRCLE
  5
4E4
  8
0
 10
58.304801464134471
 20
72.685617844898843
 30
0.0
 40
20.724052438428568
  0
CIRCLE
  5
4E5
  8
0
 10
58.304801464134471
 20
72.685617844898843
 30
0.0
 40
17.998796269562941
  0
LINE
  5
4E6
  8
0
 10
107.6157136998351
 20
57.878458046975076
 30
0.0
 11
118.47077120008539
 21
57.878458046975076
 31
0.0
  0
LINE
  5
4E7
  8
0
 10
107.6157136998351
 20
56.46032751292023
 30
0.0
 11
118.47077120008539
 21
56.460327512920912
 31
0.0
  0
LINE
  5
4E8
  8
0
 10
107.6157136998351
 20
65.215044702119926
 30
0.0
 11
118.47077120008539
 21
65.215044702119926
 31
0.0
  0
LINE
  5
4E9
  8
0
 10
107.6157136998351
 20
63.362544211328668
 30
0.0
 11
118.47077120008539
 21
63.362544211328668
 31
0.0
  0
LINE
  5
4EA
  8
0
 10
107.6157136998353
 20
52.766179040929238
 30
0.0
 11
118.47077120008559
 21
52.766179040929927
 31
0.0
  0
LINE
  5
4EB
  8
0
 10
107.6157136998351
 20
50.689179087595868
 30
0.0
 11
118.47077120008539
 21
50.689179087593828
 31
0.0
  0
LINE
  5
4EC
  8
0
 10
107.6157136998351
 20
51.998739712315313
 30
0.0
 11
118.47077120008559
 21
51.99873971231338
 31
0.0
  0
ARC
  5
4ED
  8
0
 10
58.304801464134471
 20
72.685617844898843
 30
0.0
 40
21.996438753647741
 50
272.60577104958338
 51
289.89422895041628
  0
ARC
  5
4EE
  8
0
 10
58.304801464134471
 20
72.685617844898843
 30
0.0
 40
21.996438753647741
 50
227.6057710495833
 51
244.89422895041619
  0
ARC
  5
4EF
  8
0
 10
49.891286700248251
 20
52.373596394698659
 30
0.0
 40
1.000108022662179
 50
338.18057342838341
 51
156.81942657161241
  0
ARC
  5
4F0
  8
0
 10
58.304801464134471
 20
72.685617844898843
 30
0.0
 40
21.996438753647741
 50
250.1057710495833
 51
267.39422895041639
  0
ARC
  5
4F1
  8
0
 10
58.304801464134407
 20
50.700044255030321
 30
0.0
 40
1.000108022662179
 50
0.6805734283833154
 51
179.3194265716125
  0
ARC
  5
4F2
  8
0
 10
58.304801464134471
 20
72.685617844898843
 30
0.0
 40
21.996438753647741
 50
205.1057710495833
 51
222.39422895041619
  0
ARC
  5
4F3
  8
0
 10
42.758653290462519
 20
57.139469671227033
 30
0.0
 40
1.000108022662179
 50
315.68057342838341
 51
134.3194265716125
  0
ARC
  5
4F4
  8
0
 10
37.992780013934237
 20
64.272103081012773
 30
0.0
 40
1.000108022662179
 50
293.18057342838341
 51
111.8194265716125
  0
ARC
  5
4F5
  8
0
 10
66.718316228020569
 20
52.373596394698581
 30
0.0
 40
1.000108022662179
 50
23.180573428383308
 51
201.8194265716125
  0
ARC
  5
4F6
  8
0
 10
58.304801464134471
 20
72.685617844898843
 30
0.0
 40
21.996438753647741
 50
295.10577104958332
 51
312.39422895041628
  0
ARC
  5
4F7
  8
0
 10
73.850949637806295
 20
57.139469671226891
 30
0.0
 40
1.000108022662179
 50
45.68057342838339
 51
224.3194265716125
  0
ARC
  5
4F8
  8
0
 10
58.304801464134471
 20
72.685617844898843
 30
0.0
 40
21.996438753647741
 50
317.60577104958332
 51
334.8942289504165
  0
ARC
  5
4F9
  8
0
 10
78.616822914334634
 20
64.272103081012688
 30
0.0
 40
1.000108022662179
 50
68.180573428383312
 51
246.8194265716125
  0
POLYLINE
  5
4FA
  8
0
 66
     1
 10
0.0
 20
0.0
 30
0.0
 70
     8
  0
VERTEX
  5
55C
  8
0
 10
107.6157136998349
 20
52.766134784787567
 30
0.0
 70
    32
1001
ACAD
1000
R13OBJECT
1002
{
1005
4FA
1002
}
  0
VERTEX
  5
55D
  8
0
 10
107.1342938669454
 20
52.697855754729687
 30
0.0
 70
    32
1001
ACAD
1000
R13OBJECT
1002
{
1005
4FA
1002
}
  0
VERTEX
  5
55E
  8
0
 10
106.83739713823179
 20
52.510163963488381
 30
0.0
 70
    32
1001
ACAD
1000
R13OBJECT
1002
{
1005
4FA
1002
}
  0
VERTEX
  5
55F
  8
0
 10
106.83739713823179
 20
52.274099624167988
 30
0.0
 70
    32
1001
ACAD
1000
R13OBJECT
1002
{
1005
4FA
1002
}
  0
VERTEX
  5
560
  8
0
 10
107.1342938669455
 20
52.079011668124259
 30
0.0
 70
    32
1001
ACAD
1000
R13OBJECT
1002
{
1005
4FA
1002
}
  0
VERTEX
  5
561
  8
0
 10
107.615713699835
 20
51.998739712315313
 30
0.0
 70
    32
1001
ACAD
1000
R13OBJECT
1002
{
1005
4FA
1002
}
  0
SEQEND
  5
562
  8
0
  0
LINE
  5
4FB
  8
0
 10
107.6157136998348
 20
51.998739712315199
 30
0.0
 11
107.6157136998351
 21
50.689179087595868
 31
0.0
  0
LINE
  5
4FC
  8
0
 10
107.6157136998351
 20
50.689179087595868
 30
0.0
 11
106.3433273846175
 21
51.96156540281364
 31
0.0
  0
LINE
  5
4FD
  8
0
 10
107.6157136998351
 20
63.362544211328668
 30
0.0
 11
107.6157136998351
 21
57.878458046975076
 31
0.0
  0
ARC
  5
4FE
  8
0
 10
106.3825373846186
 20
55.324827841240896
 30
0.0
 40
0.6392100000000001
 50
180.0
 51
266.48319208362358
1001
GENIUS_GENODEF_13
1002
{
1000
HIER
1070
     0
1002
}
1002
{
1000
MANEDIT
1070
     0
1002
}
1002
{
1000
NOSEL
1070
     0
1002
}
1002
{
1000
BEHIND
1070
     0
1002
}
1002
{
1000
REACTOR
1002
}
1001
GENIUS_GENOBJ-N-FIL_13
1002
{
1000
OWNER
1000
GEN
1002
}
  0
POLYLINE
  5
4FF
  8
0
 66
     1
 10
0.0
 20
0.0
 30
0.0
 70
     8
  0
VERTEX
  5
563
  8
0
 10
107.6435761337473
 20
57.878393947151316
 30
0.0
 70
    32
1001
ACAD
1000
R13OBJECT
1002
{
1005
4FF
1002
}
  0
VERTEX
  5
564
  8
0
 10
107.1589996427344
 20
57.744522531745091
 30
0.0
 70
    32
1001
ACAD
1000
R13OBJECT
1002
{
1005
4FF
1002
}
  0
VERTEX
  5
565
  8
0
 10
106.85951490113921
 20
57.390995031634439
 30
0.0
 70
    32
1001
ACAD
1000
R13OBJECT
1002
{
1005
4FF
1002
}
  0
VERTEX
  5
566
  8
0
 10
106.85951490113921
 20
56.952846935903843
 30
0.0
 70
    32
1001
ACAD
1000
R13OBJECT
1002
{
1005
4FF
1002
}
  0
VERTEX
  5
567
  8
0
 10
107.1589996427344
 20
56.597435925016349
 30
0.0
 70
    32
1001
ACAD
1000
R13OBJECT
1002
{
1005
4FF
1002
}
  0
VERTEX
  5
568
  8
0
 10
107.6435761337473
 20
56.460516925154991
 30
0.0
 70
    32
1001
ACAD
1000
R13OBJECT
1002
{
1005
4FF
1002
}
  0
SEQEND
  5
569
  8
0
  0
LINE
  5
500
  8
0
 10
107.6157136998351
 20
56.46032751292023
 30
0.0
 11
107.6157136998353
 21
52.766179040929238
 31
0.0
  0
LINE
  5
501
  8
0
 10
107.5860747663213
 20
52.76364867328968
 30
0.0
 11
107.5860747663213
 21
52.769856494768838
 31
0.0
  0
POLYLINE
  5
502
  8
0
 66
     1
 10
0.0
 20
0.0
 30
0.0
 70
     8
  0
VERTEX
  5
56A
  8
0
 10
107.64371440664139
 20
65.215454269201203
 30
0.0
 70
    32
1001
ACAD
1000
R13OBJECT
1002
{
1005
502
1002
}
  0
VERTEX
  5
56B
  8
0
 10
107.2315205586157
 20
65.090667847143266
 30
0.0
 70
    32
1001
ACAD
1000
R13OBJECT
1002
{
1005
502
1002
}
  0
VERTEX
  5
56C
  8
0
 10
106.92977371929349
 20
64.751129840859235
 30
0.0
 70
    32
1001
ACAD
1000
R13OBJECT
1002
{
1005
502
1002
}
  0
VERTEX
  5
56D
  8
0
 10
106.81932671058991
 20
64.287819184932559
 30
0.0
 70
    32
1001
ACAD
1000
R13OBJECT
1002
{
1005
502
1002
}
  0
VERTEX
  5
56E
  8
0
 10
106.92977371929349
 20
63.824879595463521
 30
0.0
 70
    32
1001
ACAD
1000
R13OBJECT
1002
{
1005
502
1002
}
  0
VERTEX
  5
56F
  8
0
 10
107.2315205586157
 20
63.486355361594768
 30
0.0
 70
    32
1001
ACAD
1000
R13OBJECT
1002
{
1005
502
1002
}
  0
VERTEX
  5
570
  8
0
 10
107.64371440664149
 20
63.362953778409789
 30
0.0
 70
    32
1001
ACAD
1000
R13OBJECT
1002
{
1005
502
1002
}
  0
SEQEND
  5
571
  8
0
  0
POLYLINE
  5
504
  8
0
 66
     1
 10
0.0
 20
0.0
 30
0.0
 70
     8
  0
VERTEX
  5
572
  8
0
 10
118.47077120008559
 20
51.998701665260221
 30
0.0
 70
    32
1001
ACAD
1000
R13OBJECT
1002
{
1005
504
1002
}
  0
VERTEX
  5
573
  8
0
 10
118.8693272654078
 20
52.036799573430699
 30
0.0
 70
    32
1001
ACAD
1000
R13OBJECT
1002
{
1005
504
1002
}
  0
VERTEX
  5
574
  8
0
 10
119.1610905548884
 20
52.16711100600147
 30
0.0
 70
    32
1001
ACAD
1000
R13OBJECT
1002
{
1005
504
1002
}
  0
VERTEX
  5
575
  8
0
 10
119.26788333073
 20
52.354719119850678
 30
0.0
 70
    32
1001
ACAD
1000
R13OBJECT
1002
{
1005
504
1002
}
  0
VERTEX
  5
576
  8
0
 10
119.1610905548884
 20
52.549354472378873
 30
0.0
 70
    32
1001
ACAD
1000
R13OBJECT
1002
{
1005
504
1002
}
  0
VERTEX
  5
577
  8
0
 10
118.8693272654078
 20
52.698864678057589
 30
0.0
 70
    32
1001
ACAD
1000
R13OBJECT
1002
{
1005
504
1002
}
  0
VERTEX
  5
578
  8
0
 10
118.47077120008559
 20
52.763188598014999
 30
0.0
 70
    32
1001
ACAD
1000
R13OBJECT
1002
{
1005
504
1002
}
  0
SEQEND
  5
579
  8
0
  0
LINE
  5
505
  8
0
 10
118.47077120008539
 20
50.689179087595868
 30
0.0
 11
119.7431575153029
 21
51.96156540281364
 31
0.0
  0
LINE
  5
506
  8
0
 10
118.47077120008559
 20
51.998701665260199
 30
0.0
 11
118.47077120008539
 21
50.6891790875938
 31
0.0
  0
LINE
  5
507
  8
0
 10
128.65234536068931
 20
64.185617844898701
 30
0.0
 11
119.74349725393721
 21
64.185617841240713
 31
0.0
  0
LINE
  5
508
  8
0
 10
118.47077120008539
 20
63.362544211328782
 30
0.0
 11
118.47077120008539
 21
57.878076564440669
 31
0.0
  0
POLYLINE
  5
509
  8
0
 66
     1
 10
0.0
 20
0.0
 30
0.0
 70
     8
  0
VERTEX
  5
57A
  8
0
 10
118.4429087661731
 20
57.878393947151316
 30
0.0
 70
    32
1001
ACAD
1000
R13OBJECT
1002
{
1005
509
1002
}
  0
VERTEX
  5
57B
  8
0
 10
118.92748525718601
 20
57.744522531745091
 30
0.0
 70
    32
1001
ACAD
1000
R13OBJECT
1002
{
1005
509
1002
}
  0
VERTEX
  5
57C
  8
0
 10
119.2269699987812
 20
57.390995031634439
 30
0.0
 70
    32
1001
ACAD
1000
R13OBJECT
1002
{
1005
509
1002
}
  0
VERTEX
  5
57D
  8
0
 10
119.2269699987812
 20
56.952846935903843
 30
0.0
 70
    32
1001
ACAD
1000
R13OBJECT
1002
{
1005
509
1002
}
  0
VERTEX
  5
57E
  8
0
 10
118.92748525718601
 20
56.597435925016349
 30
0.0
 70
    32
1001
ACAD
1000
R13OBJECT
1002
{
1005
509
1002
}
  0
VERTEX
  5
57F
  8
0
 10
118.4429087661731
 20
56.460516925154991
 30
0.0
 70
    32
1001
ACAD
1000
R13OBJECT
1002
{
1005
509
1002
}
  0
SEQEND
  5
580
  8
0
  0
LINE
  5
50A
  8
0
 10
118.4707712000852
 20
56.460327512920912
 30
0.0
 11
118.47077120008559
 21
52.763188598015027
 31
0.0
  0
POLYLINE
  5
50B
  8
0
 66
     1
 10
0.0
 20
0.0
 30
0.0
 70
     8
  0
VERTEX
  5
581
  8
0
 10
118.442770493279
 20
65.215454269201203
 30
0.0
 70
    32
1001
ACAD
1000
R13OBJECT
1002
{
1005
50B
1002
}
  0
VERTEX
  5
582
  8
0
 10
118.85496434130479
 20
65.090667847143266
 30
0.0
 70
    32
1001
ACAD
1000
R13OBJECT
1002
{
1005
50B
1002
}
  0
VERTEX
  5
583
  8
0
 10
119.1567111806269
 20
64.751129840859235
 30
0.0
 70
    32
1001
ACAD
1000
R13OBJECT
1002
{
1005
50B
1002
}
  0
VERTEX
  5
584
  8
0
 10
119.2671581893305
 20
64.287819184932559
 30
0.0
 70
    32
1001
ACAD
1000
R13OBJECT
1002
{
1005
50B
1002
}
  0
VERTEX
  5
585
  8
0
 10
119.1567111806269
 20
63.824879595463521
 30
0.0
 70
    32
1001
ACAD
1000
R13OBJECT
1002
{
1005
50B
1002
}
  0
VERTEX
  5
586
  8
0
 10
118.85496434130469
 20
63.486355361594768
 30
0.0
 70
    32
1001
ACAD
1000
R13OBJECT
1002
{
1005
50B
1002
}
  0
VERTEX
  5
587
  8
0
 10
118.442770493279
 20
63.362953778409789
 30
0.0
 70
    32
1001
ACAD
1000
R13OBJECT
1002
{
1005
50B
1002
}
  0
SEQEND
  5
588
  8
0
  0
LINE
  5
50C
  8
0
 10
128.65234536068931
 20
64.185617844898701
 30
0.0
 11
129.4431575153032
 21
64.976429999512305
 31
0.0
  0
LINE
  5
50D
  8
0
 10
129.7431575153029
 20
67.685617844898843
 30
0.0
 11
129.44315751530289
 21
67.621850876397787
 31
0.0
  0
LINE
  5
50E
  8
1
 10
100.74332738461869
 20
72.685617841242234
 30
0.0
 11
184.74315751530301
 21
72.685617844898843
 31
0.0
  0
LINE
  5
50F
  8
0
 10
107.6157136998351
 20
88.910908169564195
 30
0.0
 11
118.47077120008539
 21
88.910908169563527
 31
0.0
  0
LINE
  5
510
  8
0
 10
107.6157136998351
 20
87.492777635509356
 30
0.0
 11
118.47077120008539
 21
87.492777635509356
 31
0.0
  0
LINE
  5
511
  8
0
 10
107.6157136998351
 20
94.682056594888564
 30
0.0
 11
118.47077120008539
 21
94.682056594890611
 31
0.0
  0
LINE
  5
512
  8
0
 10
107.6157136998353
 20
92.605056641555194
 30
0.0
 11
118.47077120008559
 21
92.605056641554498
 31
0.0
  0
LINE
  5
513
  8
0
 10
107.6157136998351
 20
93.372495970169126
 30
0.0
 11
118.47077120008559
 21
93.372495970171045
 31
0.0
  0
LINE
  5
514
  8
0
 10
107.6157136998351
 20
82.008691471155771
 30
0.0
 11
118.47077120008539
 21
82.008691471155771
 31
0.0
  0
LINE
  5
515
  8
0
 10
107.6157136998351
 20
80.156190980364514
 30
0.0
 11
118.47077120008539
 21
80.156190980364514
 31
0.0
  0
LINE
  5
516
  8
0
 10
118.44276428992239
 20
73.68565531073591
 30
0.0
 11
107.6157136998346
 21
73.68565531073591
 31
0.0
  0
LINE
  5
517
  8
0
 10
118.44276428992239
 20
71.685580371748529
 30
0.0
 11
107.6157136998346
 21
71.685580371748529
 31
0.0
  0
LINE
  5
518
  8
1
 10
85.301240217782237
 20
72.685617844898843
 30
0.0
 11
31.308362710486708
 21
72.685617844898843
 31
0.0
  0
ARC
  5
519
  8
0
 10
58.304801464134471
 20
72.685617844898843
 30
0.0
 40
21.996438753647741
 50
70.105771049583254
 51
87.394228950416249
  0
ARC
  5
51A
  8
0
 10
58.304801464134471
 20
72.685617844898843
 30
0.0
 40
21.996438753647741
 50
137.60577104958341
 51
154.8942289504165
  0
ARC
  5
51B
  8
0
 10
58.304801464134471
 20
72.685617844898843
 30
0.0
 40
21.996438753647741
 50
160.1057710495835
 51
177.39422895041631
  0
ARC
  5
51C
  8
0
 10
36.319227874266012
 20
72.685617844898886
 30
0.0
 40
1.000108022662179
 50
270.6805734283833
 51
89.319426571612524
  0
ARC
  5
51D
  8
0
 10
37.992780013934237
 20
81.099132608784984
 30
0.0
 40
1.000108022662179
 50
248.18057342838341
 51
66.81942657161261
  0
ARC
  5
51E
  8
0
 10
58.304801464134471
 20
72.685617844898843
 30
0.0
 40
21.996438753647741
 50
115.1057710495835
 51
132.39422895041631
  0
ARC
  5
51F
  8
0
 10
42.758653290462632
 20
88.231766018570738
 30
0.0
 40
1.000108022662179
 50
225.68057342838341
 51
44.319426571612532
  0
ARC
  5
520
  8
0
 10
49.891286700248372
 20
92.997639295099063
 30
0.0
 40
1.000108022662179
 50
203.18057342838341
 51
21.819426571612532
  0
ARC
  5
521
  8
0
 10
58.304801464134471
 20
72.685617844898843
 30
0.0
 40
21.996438753647741
 50
92.605771049583339
 51
109.89422895041641
  0
ARC
  5
522
  8
0
 10
58.304801464134528
 20
94.671191434767337
 30
0.0
 40
1.000108022662179
 50
180.6805734283833
 51
359.3194265716125
  0
ARC
  5
523
  8
0
 10
58.304801464134471
 20
72.685617844898843
 30
0.0
 40
21.996438753647741
 50
25.105771049583421
 51
42.394228950416569
  0
ARC
  5
524
  8
0
 10
58.304801464134471
 20
72.685617844898843
 30
0.0
 40
21.996438753647741
 50
2.6057710495831801
 51
19.894228950416419
  0
ARC
  5
525
  8
0
 10
80.290375054002936
 20
72.685617844898729
 30
0.0
 40
1.000108022662179
 50
90.680573428383312
 51
269.3194265716125
  0
ARC
  5
526
  8
0
 10
78.616822914334634
 20
81.099132608784942
 30
0.0
 40
1.000108022662179
 50
113.1805734283833
 51
291.8194265716125
  0
ARC
  5
527
  8
0
 10
73.850949637806295
 20
88.231766018570696
 30
0.0
 40
1.000108022662179
 50
135.6805734283833
 51
314.31942657161238
  0
ARC
  5
528
  8
0
 10
58.304801464134471
 20
72.685617844898843
 30
0.0
 40
21.996438753647741
 50
47.605771049583581
 51
64.894228950416164
  0
ARC
  5
529
  8
0
 10
66.718316228020683
 20
92.99763929509902
 30
0.0
 40
1.000108022662179
 50
158.1805734283833
 51
336.8194265716125
  0
LINE
  5
52A
  8
0
 10
107.6157136998351
 20
82.008691471155771
 30
0.0
 11
107.6157136998351
 21
87.492777635509356
 31
0.0
  0
LINE
  5
52B
  8
0
 10
105.7433273846186
 20
55.324827841240911
 30
0.0
 11
105.7429876459872
 21
90.046407841243536
 31
0.0
  0
LINE
  5
52C
  8
0
 10
106.3433273846175
 20
51.96156540281364
 30
0.0
 11
106.3433273846175
 21
93.409670279670806
 31
0.0
  0
LINE
  5
52D
  8
0
 10
107.6157136998353
 20
73.68565531073591
 30
0.0
 11
107.6157136998351
 21
80.156190980364514
 31
0.0
  0
POLYLINE
  5
52E
  8
0
 66
     1
 10
0.0
 20
0.0
 30
0.0
 70
     8
  0
VERTEX
  5
589
  8
0
 10
106.7913473284602
 20
72.68561784124222
 30
0.0
 70
    32
1001
ACAD
1000
R13OBJECT
1002
{
1005
52E
1002
}
  0
VERTEX
  5
58A
  8
0
 10
106.9017914801988
 20
72.185599106495332
 30
0.0
 70
    32
1001
ACAD
1000
R13OBJECT
1002
{
1005
52E
1002
}
  0
VERTEX
  5
58B
  8
0
 10
107.2035305141475
 20
71.819559987924293
 30
0.0
 70
    32
1001
ACAD
1000
R13OBJECT
1002
{
1005
52E
1002
}
  0
VERTEX
  5
58C
  8
0
 10
107.6157136998346
 20
71.685580371748415
 30
0.0
 70
    32
1001
ACAD
1000
R13OBJECT
1002
{
1005
52E
1002
}
  0
SEQEND
  5
58D
  8
0
  0
POLYLINE
  5
52F
  8
0
 66
     1
 10
0.0
 20
0.0
 30
0.0
 70
     8
  0
VERTEX
  5
58E
  8
0
 10
106.7913473284602
 20
72.68561784124222
 30
0.0
 70
    32
1001
ACAD
1000
R13OBJECT
1002
{
1005
52F
1002
}
  0
VERTEX
  5
58F
  8
0
 10
106.9017914801988
 20
73.185636575989108
 30
0.0
 70
    32
1001
ACAD
1000
R13OBJECT
1002
{
1005
52F
1002
}
  0
VERTEX
  5
590
  8
0
 10
107.2035305141475
 20
73.551675694560146
 30
0.0
 70
    32
1001
ACAD
1000
R13OBJECT
1002
{
1005
52F
1002
}
  0
VERTEX
  5
591
  8
0
 10
107.6157136998346
 20
73.685655310736024
 30
0.0
 70
    32
1001
ACAD
1000
R13OBJECT
1002
{
1005
52F
1002
}
  0
SEQEND
  5
592
  8
0
  0
POLYLINE
  5
530
  8
0
 66
     1
 10
0.0
 20
0.0
 30
0.0
 70
     8
  0
VERTEX
  5
593
  8
0
 10
107.64371440664139
 20
80.155781413283236
 30
0.0
 70
    32
1001
ACAD
1000
R13OBJECT
1002
{
1005
530
1002
}
  0
VERTEX
  5
594
  8
0
 10
107.2315205586157
 20
80.280567835341174
 30
0.0
 70
    32
1001
ACAD
1000
R13OBJECT
1002
{
1005
530
1002
}
  0
VERTEX
  5
595
  8
0
 10
106.92977371929349
 20
80.620105841625204
 30
0.0
 70
    32
1001
ACAD
1000
R13OBJECT
1002
{
1005
530
1002
}
  0
VERTEX
  5
596
  8
0
 10
106.81932671058991
 20
81.083416497551866
 30
0.0
 70
    32
1001
ACAD
1000
R13OBJECT
1002
{
1005
530
1002
}
  0
VERTEX
  5
597
  8
0
 10
106.92977371929349
 20
81.546356087020925
 30
0.0
 70
    32
1001
ACAD
1000
R13OBJECT
1002
{
1005
530
1002
}
  0
VERTEX
  5
598
  8
0
 10
107.2315205586157
 20
81.884880320889664
 30
0.0
 70
    32
1001
ACAD
1000
R13OBJECT
1002
{
1005
530
1002
}
  0
VERTEX
  5
599
  8
0
 10
107.64371440664149
 20
82.008281904074636
 30
0.0
 70
    32
1001
ACAD
1000
R13OBJECT
1002
{
1005
530
1002
}
  0
SEQEND
  5
59A
  8
0
  0
LINE
  5
531
  8
0
 10
107.6157136998351
 20
88.910908169564195
 30
0.0
 11
107.6157136998353
 21
92.605056641555194
 31
0.0
  0
ARC
  5
532
  8
0
 10
106.38282345380379
 20
90.045798190899703
 30
0.0
 40
0.6398360982609843
 50
93.539027691535964
 51
179.94540727373669
1001
GENIUS_GENODEF_13
1002
{
1000
HIER
1070
     0
1002
}
1002
{
1000
MANEDIT
1070
     0
1002
}
1002
{
1000
NOSEL
1070
     0
1002
}
1002
{
1000
BEHIND
1070
     0
1002
}
1002
{
1000
REACTOR
1002
}
1001
GENIUS_GENOBJ-N-FIL_13
1002
{
1000
OWNER
1000
GEN
1002
}
  0
POLYLINE
  5
533
  8
0
 66
     1
 10
0.0
 20
0.0
 30
0.0
 70
     8
  0
VERTEX
  5
59B
  8
0
 10
107.6435761337473
 20
87.492841735333116
 30
0.0
 70
    32
1001
ACAD
1000
R13OBJECT
1002
{
1005
533
1002
}
  0
VERTEX
  5
59C
  8
0
 10
107.1589996427344
 20
87.626713150739349
 30
0.0
 70
    32
1001
ACAD
1000
R13OBJECT
1002
{
1005
533
1002
}
  0
VERTEX
  5
59D
  8
0
 10
106.85951490113921
 20
87.980240650850007
 30
0.0
 70
    32
1001
ACAD
1000
R13OBJECT
1002
{
1005
533
1002
}
  0
VERTEX
  5
59E
  8
0
 10
106.85951490113921
 20
88.418388746580575
 30
0.0
 70
    32
1001
ACAD
1000
R13OBJECT
1002
{
1005
533
1002
}
  0
VERTEX
  5
59F
  8
0
 10
107.1589996427344
 20
88.773799757468083
 30
0.0
 70
    32
1001
ACAD
1000
R13OBJECT
1002
{
1005
533
1002
}
  0
VERTEX
  5
5A0
  8
0
 10
107.6435761337473
 20
88.910718757329448
 30
0.0
 70
    32
1001
ACAD
1000
R13OBJECT
1002
{
1005
533
1002
}
  0
SEQEND
  5
5A1
  8
0
  0
LINE
  5
534
  8
0
 10
107.5860747663213
 20
92.607587009194759
 30
0.0
 11
107.5860747663213
 21
92.601379187715594
 31
0.0
  0
LINE
  5
535
  8
0
 10
107.6157136998348
 20
93.37249597016924
 30
0.0
 11
107.6157136998351
 21
94.682056594888564
 31
0.0
  0
POLYLINE
  5
536
  8
0
 66
     1
 10
0.0
 20
0.0
 30
0.0
 70
     8
  0
VERTEX
  5
5A2
  8
0
 10
107.6157136998349
 20
92.605100897696857
 30
0.0
 70
    32
1001
ACAD
1000
R13OBJECT
1002
{
1005
536
1002
}
  0
VERTEX
  5
5A3
  8
0
 10
107.1342938669454
 20
92.673379927754752
 30
0.0
 70
    32
1001
ACAD
1000
R13OBJECT
1002
{
1005
536
1002
}
  0
VERTEX
  5
5A4
  8
0
 10
106.83739713823179
 20
92.861071718996058
 30
0.0
 70
    32
1001
ACAD
1000
R13OBJECT
1002
{
1005
536
1002
}
  0
VERTEX
  5
5A5
  8
0
 10
106.83739713823179
 20
93.097136058316437
 30
0.0
 70
    32
1001
ACAD
1000
R13OBJECT
1002
{
1005
536
1002
}
  0
VERTEX
  5
5A6
  8
0
 10
107.1342938669455
 20
93.292224014360187
 30
0.0
 70
    32
1001
ACAD
1000
R13OBJECT
1002
{
1005
536
1002
}
  0
VERTEX
  5
5A7
  8
0
 10
107.615713699835
 20
93.372495970169126
 30
0.0
 70
    32
1001
ACAD
1000
R13OBJECT
1002
{
1005
536
1002
}
  0
SEQEND
  5
5A8
  8
0
  0
LINE
  5
537
  8
0
 10
107.6157136998351
 20
94.682056594888564
 30
0.0
 11
106.3433273846175
 21
93.409670279670806
 31
0.0
  0
LINE
  5
538
  8
0
 10
129.7431575153029
 20
68.685617844898843
 30
0.0
 11
178.4931575153029
 21
68.685617844898843
 31
0.0
1001
GENIUS_GENOREF_13
1005
0
1005
0
  0
LINE
  5
539
  8
0
 10
129.7431575153029
 20
76.685617844898843
 30
0.0
 11
178.4931575153029
 21
76.685617844898843
 31
0.0
1001
GENIUS_GENOREF_13
1005
0
1005
0
  0
LINE
  5
53A
  8
3
 10
179.26015751530289
 20
75.918617844898847
 30
0.0
 11
131.7431575153029
 21
75.918617844898847
 31
0.0
1001
GENIUS_GENOREF_13
1005
0
1005
0
  0
LINE
  5
53B
  8
3
 10
179.26015751530289
 20
69.452617844898839
 30
0.0
 11
131.7431575153029
 21
69.452617844898839
 31
0.0
1001
GENIUS_GENOREF_13
1005
0
1005
0
  0
LINE
  5
53C
  8
0
 10
118.47077120008539
 20
82.008691471155657
 30
0.0
 11
118.47077120008539
 21
87.493159118043764
 31
0.0
  0
LINE
  5
53D
  8
0
 10
119.7431575153029
 20
93.409670279670806
 30
0.0
 11
119.7431575153029
 21
51.96156540281364
 31
0.0
  0
LINE
  5
53E
  8
0
 10
128.65234536068931
 20
81.185617844898985
 30
0.0
 11
119.74349725393721
 21
81.185617841243726
 31
0.0
  0
LINE
  5
53F
  8
0
 10
118.47077120008539
 20
73.685078010797042
 30
0.0
 11
118.47077120008539
 21
80.156362889579327
 31
0.0
  0
POLYLINE
  5
541
  8
0
 66
     1
 10
0.0
 20
0.0
 30
0.0
 70
     8
  0
VERTEX
  5
5A9
  8
0
 10
119.2671306612968
 20
72.68561784124222
 30
0.0
 70
    32
1001
ACAD
1000
R13OBJECT
1002
{
1005
541
1002
}
  0
VERTEX
  5
5AA
  8
0
 10
119.1566865095582
 20
72.185599106495332
 30
0.0
 70
    32
1001
ACAD
1000
R13OBJECT
1002
{
1005
541
1002
}
  0
VERTEX
  5
5AB
  8
0
 10
118.85494747560961
 20
71.819559987924293
 30
0.0
 70
    32
1001
ACAD
1000
R13OBJECT
1002
{
1005
541
1002
}
  0
VERTEX
  5
5AC
  8
0
 10
118.44276428992239
 20
71.685580371748415
 30
0.0
 70
    32
1001
ACAD
1000
R13OBJECT
1002
{
1005
541
1002
}
  0
SEQEND
  5
5AD
  8
0
  0
POLYLINE
  5
542
  8
0
 66
     1
 10
0.0
 20
0.0
 30
0.0
 70
     8
  0
VERTEX
  5
5AE
  8
0
 10
119.2671306612968
 20
72.68561784124222
 30
0.0
 70
    32
1001
ACAD
1000
R13OBJECT
1002
{
1005
542
1002
}
  0
VERTEX
  5
5AF
  8
0
 10
119.1566865095582
 20
73.185636575989108
 30
0.0
 70
    32
1001
ACAD
1000
R13OBJECT
1002
{
1005
542
1002
}
  0
VERTEX
  5
5B0
  8
0
 10
118.85494747560961
 20
73.551675694560146
 30
0.0
 70
    32
1001
ACAD
1000
R13OBJECT
1002
{
1005
542
1002
}
  0
VERTEX
  5
5B1
  8
0
 10
118.44276428992239
 20
73.685655310736024
 30
0.0
 70
    32
1001
ACAD
1000
R13OBJECT
1002
{
1005
542
1002
}
  0
SEQEND
  5
5B2
  8
0
  0
POLYLINE
  5
543
  8
0
 66
     1
 10
0.0
 20
0.0
 30
0.0
 70
     8
  0
VERTEX
  5
5B3
  8
0
 10
118.442770493279
 20
80.155781413283236
 30
0.0
 70
    32
1001
ACAD
1000
R13OBJECT
1002
{
1005
543
1002
}
  0
VERTEX
  5
5B4
  8
0
 10
118.85496434130479
 20
80.280567835341174
 30
0.0
 70
    32
1001
ACAD
1000
R13OBJECT
1002
{
1005
543
1002
}
  0
VERTEX
  5
5B5
  8
0
 10
119.1567111806269
 20
80.620105841625204
 30
0.0
 70
    32
1001
ACAD
1000
R13OBJECT
1002
{
1005
543
1002
}
  0
VERTEX
  5
5B6
  8
0
 10
119.2671581893305
 20
81.083416497551866
 30
0.0
 70
    32
1001
ACAD
1000
R13OBJECT
1002
{
1005
543
1002
}
  0
VERTEX
  5
5B7
  8
0
 10
119.1567111806269
 20
81.546356087020925
 30
0.0
 70
    32
1001
ACAD
1000
R13OBJECT
1002
{
1005
543
1002
}
  0
VERTEX
  5
5B8
  8
0
 10
118.85496434130469
 20
81.884880320889664
 30
0.0
 70
    32
1001
ACAD
1000
R13OBJECT
1002
{
1005
543
1002
}
  0
VERTEX
  5
5B9
  8
0
 10
118.442770493279
 20
82.008281904074636
 30
0.0
 70
    32
1001
ACAD
1000
R13OBJECT
1002
{
1005
543
1002
}
  0
SEQEND
  5
5BA
  8
0
  0
LINE
  5
545
  8
0
 10
129.7431575153029
 20
67.685617844898843
 30
0.0
 11
129.7431575153029
 21
77.685617844898843
 31
0.0
1001
GENIUS_GENOREF_13
1005
0
  0
LINE
  5
546
  8
0
 10
129.44315751530289
 20
64.976429999512064
 30
0.0
 11
129.44315751530289
 21
80.394805690285395
 31
0.0
  0
LINE
  5
547
  8
0
 10
128.65234536068931
 20
81.185617844898985
 30
0.0
 11
128.65234536068931
 21
64.185617844898701
 31
0.0
  0
LINE
  5
548
  8
3
 10
131.7431575153029
 20
75.918617844898847
 30
0.0
 11
130.97615751530299
 21
76.685617844898843
 31
0.0
  0
LINE
  5
549
  8
0
 10
131.7431575153029
 20
76.685617844898843
 30
0.0
 11
131.7431575153029
 21
68.685617844898843
 31
0.0
1001
GENIUS_GENOREF_13
1005
0
  0
LINE
  5
54A
  8
3
 10
131.7431575153029
 20
69.452617844898839
 30
0.0
 11
130.97615751530299
 21
68.685617844898843
 31
0.0
  0
LINE
  5
54B
  8
0
 10
128.65234536068931
 20
81.185617844898985
 30
0.0
 11
129.4431575153032
 21
80.394805690285395
 31
0.0
  0
LINE
  5
54C
  8
0
 10
129.7431575153029
 20
77.685617844898843
 30
0.0
 11
129.44315751530289
 21
77.749384813399899
 31
0.0
  0
LINE
  5
54D
  8
0
 10
118.4707712000852
 20
88.910908169563527
 30
0.0
 11
118.47077120008559
 21
92.608047084469405
 31
0.0
  0
POLYLINE
  5
54E
  8
0
 66
     1
 10
0.0
 20
0.0
 30
0.0
 70
     8
  0
VERTEX
  5
5BB
  8
0
 10
118.4429087661731
 20
87.492841735333116
 30
0.0
 70
    32
1001
ACAD
1000
R13OBJECT
1002
{
1005
54E
1002
}
  0
VERTEX
  5
5BC
  8
0
 10
118.92748525718601
 20
87.626713150739349
 30
0.0
 70
    32
1001
ACAD
1000
R13OBJECT
1002
{
1005
54E
1002
}
  0
VERTEX
  5
5BD
  8
0
 10
119.2269699987812
 20
87.980240650850007
 30
0.0
 70
    32
1001
ACAD
1000
R13OBJECT
1002
{
1005
54E
1002
}
  0
VERTEX
  5
5BE
  8
0
 10
119.2269699987812
 20
88.418388746580575
 30
0.0
 70
    32
1001
ACAD
1000
R13OBJECT
1002
{
1005
54E
1002
}
  0
VERTEX
  5
5BF
  8
0
 10
118.92748525718601
 20
88.773799757468083
 30
0.0
 70
    32
1001
ACAD
1000
R13OBJECT
1002
{
1005
54E
1002
}
  0
VERTEX
  5
5C0
  8
0
 10
118.4429087661731
 20
88.910718757329448
 30
0.0
 70
    32
1001
ACAD
1000
R13OBJECT
1002
{
1005
54E
1002
}
  0
SEQEND
  5
5C1
  8
0
  0
LINE
  5
54F
  8
0
 10
118.47077120008539
 20
94.682056594888564
 30
0.0
 11
119.7431575153029
 21
93.409670279670806
 31
0.0
  0
POLYLINE
  5
550
  8
0
 66
     1
 10
0.0
 20
0.0
 30
0.0
 70
     8
  0
VERTEX
  5
5C2
  8
0
 10
118.47077120008559
 20
93.372534017224211
 30
0.0
 70
    32
1001
ACAD
1000
R13OBJECT
1002
{
1005
550
1002
}
  0
VERTEX
  5
5C3
  8
0
 10
118.8693272654078
 20
93.334436109053755
 30
0.0
 70
    32
1001
ACAD
1000
R13OBJECT
1002
{
1005
550
1002
}
  0
VERTEX
  5
5C4
  8
0
 10
119.1610905548884
 20
93.204124676482934
 30
0.0
 70
    32
1001
ACAD
1000
R13OBJECT
1002
{
1005
550
1002
}
  0
VERTEX
  5
5C5
  8
0
 10
119.26788333073
 20
93.016516562633754
 30
0.0
 70
    32
1001
ACAD
1000
R13OBJECT
1002
{
1005
550
1002
}
  0
VERTEX
  5
5C6
  8
0
 10
119.1610905548884
 20
92.821881210105573
 30
0.0
 70
    32
1001
ACAD
1000
R13OBJECT
1002
{
1005
550
1002
}
  0
VERTEX
  5
5C7
  8
0
 10
118.8693272654078
 20
92.67237100442685
 30
0.0
 70
    32
1001
ACAD
1000
R13OBJECT
1002
{
1005
550
1002
}
  0
VERTEX
  5
5C8
  8
0
 10
118.47077120008559
 20
92.608047084469433
 30
0.0
 70
    32
1001
ACAD
1000
R13OBJECT
1002
{
1005
550
1002
}
  0
SEQEND
  5
5C9
  8
0
  0
LINE
  5
551
  8
0
 10
118.47077120008559
 20
93.37253401722424
 30
0.0
 11
118.47077120008539
 21
94.682056594890625
 31
0.0
  0
LINE
  5
552
  8
0
 10
178.4931575153029
 20
76.685617844898843
 30
0.0
 11
179.7431575153029
 21
75.435617844898843
 31
0.0
  0
LINE
  5
554
  8
0
 10
178.4931575153029
 20
68.685617844898843
 30
0.0
 11
178.4931575153029
 21
76.685617844898843
 31
0.0
  0
LINE
  5
555
  8
0
 10
179.7431575153029
 20
69.935617844898843
 30
0.0
 11
179.7431575153029
 21
75.435617844898843
 31
0.0
1001
GENIUS_GENOREF_13
1005
0
1005
0
  0
LINE
  5
556
  8
0
 10
178.4931575153029
 20
68.685617844898843
 30
0.0
 11
179.7431575153029
 21
69.935617844898843
 31
0.0
  0
TEXT
  5
75A
  8
0
 62
     3
 10
0.0
 20
0.0
 30
0.0
 40
10.0
  1
KN45X50SOFT
  7
STANDARD1
  0
ENDSEC
  0
EOF
