  0
SECTION
  2
HEADER
  9
$ACADVER
  1
AC1009
  9
$INSBASE
 10
0.0
 20
0.0
 30
0.0
  9
$EXTMIN
 10
0.0
 20
-2.960436562073669
 30
0.0
  9
$EXTMAX
 10
156.54478125777649
 20
99.682056598546595
 30
0.0
  9
$LIMMIN
 10
0.0
 20
0.0
  9
$LIMMAX
 10
187.5
 20
135.0
  9
$ORTHOMODE
 70
     1
  9
$REGENMODE
 70
     1
  9
$FILLMODE
 70
     1
  9
$QTEXTMODE
 70
     0
  9
$MIRRTEXT
 70
     0
  9
$DRAGMODE
 70
     2
  9
$LTSCALE
 40
5.0
  9
$OSMODE
 70
  3071
  9
$ATTMODE
 70
     1
  9
$TEXTSIZE
 40
0.2
  9
$TRACEWID
 40
0.05
  9
$TEXTSTYLE
  7
STANDARD
  9
$CLAYER
  8
0
  9
$CELTYPE
  6
BYLAYER
  9
$CECOLOR
 62
   256
  9
$DIMSCALE
 40
0.5
  9
$DIMASZ
 40
3.0
  9
$DIMEXO
 40
2.0
  9
$DIMDLI
 40
0.38
  9
$DIMRND
 40
0.0
  9
$DIMDLE
 40
0.0
  9
$DIMEXE
 40
2.0
  9
$DIMTP
 40
0.0
  9
$DIMTM
 40
0.0
  9
$DIMTXT
 40
3.2000000000000002
  9
$DIMCEN
 40
0.0
  9
$DIMTSZ
 40
0.0
  9
$DIMTOL
 70
     0
  9
$DIMLIM
 70
     0
  9
$DIMTIH
 70
     0
  9
$DIMTOH
 70
     0
  9
$DIMSE1
 70
     0
  9
$DIMSE2
 70
     0
  9
$DIMTAD
 70
     1
  9
$DIMZIN
 70
     0
  9
$DIMBLK
  1

  9
$DIMASO
 70
     1
  9
$DIMSHO
 70
     0
  9
$DIMPOST
  1

  9
$DIMAPOST
  1

  9
$DIMALT
 70
     0
  9
$DIMALTD
 70
     2
  9
$DIMALTF
 40
25.399999999999999
  9
$DIMLFAC
 40
1.0
  9
$DIMTOFL
 70
     1
  9
$DIMTVP
 40
1.6000000000000001
  9
$DIMTIX
 70
     1
  9
$DIMSOXD
 70
     0
  9
$DIMSAH
 70
     0
  9
$DIMBLK1
  1

  9
$DIMBLK2
  1

  9
$DIMSTYLE
  2
STANDARD
  9
$DIMCLRD
 70
     0
  9
$DIMCLRE
 70
     0
  9
$DIMCLRT
 70
     0
  9
$DIMTFAC
 40
1.0
  9
$DIMGAP
 40
0.09
  9
$LUNITS
 70
     2
  9
$LUPREC
 70
     4
  9
$SKETCHINC
 40
0.1
  9
$FILLETRAD
 40
0.8
  9
$AUNITS
 70
     1
  9
$AUPREC
 70
     4
  9
$MENU
  1
E:\r13\win\SUPPORT\ACAD
  9
$ELEVATION
 40
0.0
  9
$PELEVATION
 40
0.0
  9
$THICKNESS
 40
0.0
  9
$LIMCHECK
 70
     0
  9
$BLIPMODE
 70
     0
  9
$CHAMFERA
 40
0.0
  9
$CHAMFERB
 40
0.0
  9
$SKPOLY
 70
     0
  9
$TDCREATE
 40
2449839.7859490742
  9
$TDUPDATE
 40
2456597.4862685418
  9
$TDINDWG
 40
0.0211105208
  9
$TDUSRTIMER
 40
0.0211105208
  9
$USRTIMER
 70
     1
  9
$ANGBASE
 50
0.0
  9
$ANGDIR
 70
     0
  9
$PDMODE
 70
     0
  9
$PDSIZE
 40
0.0
  9
$PLINEWID
 40
0.0
  9
$COORDS
 70
     1
  9
$SPLFRAME
 70
     0
  9
$SPLINETYPE
 70
     6
  9
$SPLINESEGS
 70
     8
  9
$ATTDIA
 70
     0
  9
$ATTREQ
 70
     1
  9
$HANDLING
 70
     1
  9
$HANDSEED
  5
796
  9
$SURFTAB1
 70
     6
  9
$SURFTAB2
 70
     6
  9
$SURFTYPE
 70
     6
  9
$SURFU
 70
     6
  9
$SURFV
 70
     6
  9
$UCSNAME
  2

  9
$UCSORG
 10
0.0
 20
0.0
 30
0.0
  9
$UCSXDIR
 10
1.0
 20
0.0
 30
0.0
  9
$UCSYDIR
 10
0.0
 20
1.0
 30
0.0
  9
$PUCSNAME
  2

  9
$PUCSORG
 10
0.0
 20
0.0
 30
0.0
  9
$PUCSXDIR
 10
1.0
 20
0.0
 30
0.0
  9
$PUCSYDIR
 10
0.0
 20
1.0
 30
0.0
  9
$USERI1
 70
     0
  9
$USERI2
 70
     1
  9
$USERI3
 70
     1
  9
$USERI4
 70
     0
  9
$USERI5
 70
     0
  9
$USERR1
 40
0.0
  9
$USERR2
 40
0.0
  9
$USERR3
 40
0.0
  9
$USERR4
 40
0.0
  9
$USERR5
 40
0.0
  9
$WORLDVIEW
 70
     1
  9
$SHADEDGE
 70
     3
  9
$SHADEDIF
 70
    70
  9
$TILEMODE
 70
     1
  9
$MAXACTVP
 70
    16
  9
$PLIMCHECK
 70
     0
  9
$PEXTMIN
 10
1.0000000000000000E+020
 20
1.0000000000000000E+020
 30
1.0000000000000000E+020
  9
$PEXTMAX
 10
-1.0000000000000000E+020
 20
-1.0000000000000000E+020
 30
-1.0000000000000000E+020
  9
$PLIMMIN
 10
0.0
 20
0.0
  9
$PLIMMAX
 10
12.0
 20
9.0
  9
$UNITMODE
 70
     0
  9
$VISRETAIN
 70
     0
  9
$PLINEGEN
 70
     0
  9
$PSLTSCALE
 70
     0
  0
ENDSEC
  0
SECTION
  2
TABLES
  0
TABLE
  2
VPORT
 70
     1
  0
VPORT
  2
*ACTIVE
 70
     0
 10
0.0
 20
0.0
 11
1.0
 21
1.0
 12
93.74713919532617
 22
80.848703909439024
 13
0.0
 23
0.0
 14
5.0
 24
5.0
 15
5.0
 25
5.0
 16
0.0
 26
0.0
 36
1.0
 17
0.0
 27
0.0
 37
0.0
 40
169.22413112104309
 41
1.9089595375722539
 42
50.0
 43
0.0
 44
0.0
 50
0.0
 51
0.0
 71
     0
 72
   500
 73
     1
 74
     0
 75
     0
 76
     0
 77
     0
 78
     2
  0
ENDTAB
  0
TABLE
  2
LTYPE
 70
     3
  0
LTYPE
  2
CONTINUOUS
 70
     0
  3
Solid Line
 72
    65
 73
     0
 40
0.0
  0
LTYPE
  2
CENTER
 70
     0
  3
____ _ ____ _ ____ _ ____ _ ____ _ ____ _ ____
 72
    65
 73
     4
 40
2.0
 49
1.25
 49
-0.25
 49
0.25
 49
-0.25
  0
LTYPE
  2
PHANTOM2
 70
     0
  3
___ _ _ ___ _ _ ___ _ _ ___ _ _
 72
    65
 73
     6
 40
1.25
 49
0.625
 49
-0.125
 49
0.125
 49
-0.125
 49
0.125
 49
-0.125
  0
ENDTAB
  0
TABLE
  2
LAYER
 70
     3
  0
LAYER
  2
0
 70
     0
 62
     7
  6
CONTINUOUS
  0
LAYER
  2
1
 70
     0
 62
     1
  6
CENTER
  0
LAYER
  2
3
 70
     0
 62
     3
  6
CONTINUOUS
  0
ENDTAB
  0
TABLE
  2
STYLE
 70
     2
  0
STYLE
  2
STANDARD
 70
     0
 40
0.0
 41
1.0
 50
0.0
 71
     0
 42
0.2
  3
TXT
  4
BIGFONT
  0
STYLE
  2
STANDARD1
 70
     0
 40
0.0
 41
1.0
 50
0.0
 71
     0
 42
3.0
  3
txt
  4

  0
ENDTAB
  0
TABLE
  2
VIEW
 70
     1
  0
VIEW
  2
ALL
 70
     0
 40
135.0
 10
110.4957983193277
 20
67.5
 41
0.0
 11
0.0
 21
0.0
 31
1.0
 12
0.0
 22
0.0
 32
0.0
 42
0.0
 43
0.0
 44
0.0
 50
0.0
 71
     0
  0
ENDTAB
  0
TABLE
  2
UCS
 70
     0
  0
ENDTAB
  0
TABLE
  2
APPID
 70
    22
  0
APPID
  2
ACAD
 70
     0
  0
APPID
  2
GENIUS_GENODEF_13
 70
     0
  0
APPID
  2
GENIUS_GENOBJ-N-FIL_13
 70
     0
  0
APPID
  2
GENIUS_GENCFG_13
 70
     0
  0
APPID
  2
GENIUS_GENCFG0_13
 70
     0
  0
APPID
  2
GENIUS_GENCFG1_13
 70
     0
  0
APPID
  2
GENIUS_GENCFG2_13
 70
     0
  0
APPID
  2
GENIUS_GENCFG3_13
 70
     0
  0
APPID
  2
GENIUS_GENCFG4_13
 70
     0
  0
APPID
  2
GENIUS_GEVCFG0_13
 70
     0
  0
APPID
  2
GENIUS_GENOENT_13
 70
     0
  0
APPID
  2
GENIUS_GENOBJ-N-HTC_13
 70
     0
  0
APPID
  2
GENIUS_GENHATCH_13
 70
     0
  0
APPID
  2
GENIUS_GENFIL_13
 70
     0
  0
APPID
  2
GENIUS_GENOBJ-N-CHA_13
 70
     0
  0
APPID
  2
GEV_VCCNULL_SWITCH_OFF
 70
     0
  0
APPID
  2
GENIUS_GENDTOL_13
 70
     0
  0
APPID
  2
GENIUS_GEFCFG0_13
 70
     0
  0
APPID
  2
GENIUS_GENOREF_13
 70
     0
  0
APPID
  2
ACAD_EXEMPT_FROM_CAD_STANDARDS
 70
     0
  0
APPID
  2
ACAD_MLEADERVER
 70
     0
  0
APPID
  2
ACAD_NAV_VCDISPLAY
 70
     0
  0
ENDTAB
  0
TABLE
  2
DIMSTYLE
 70
     1
  0
DIMSTYLE
  2
STANDARD
 70
     0
  3

  4

  5

  6

  7

 40
1.0
 41
0.18
 42
0.0625
 43
0.38
 44
0.18
 45
0.0
 46
0.0
 47
0.0
 48
0.0
140
0.18
141
0.09
142
0.0
143
25.399999999999999
144
1.0
145
0.0
146
1.0
147
0.09
 71
     0
 72
     0
 73
     1
 74
     1
 75
     0
 76
     0
 77
     0
 78
     0
170
     0
171
     2
172
     0
173
     0
174
     0
175
     0
176
     0
177
     0
178
     0
  0
ENDTAB
  0
ENDSEC
  0
SECTION
  2
BLOCKS
  0
BLOCK
  8
0
  2
$MODEL_SPACE
 70
     0
 10
0.0
 20
0.0
 30
0.0
  3
$MODEL_SPACE
  1

  0
ENDBLK
  5
60A
  8
0
  0
BLOCK
 67
     1
  8
0
  2
$PAPER_SPACE
 70
     0
 10
0.0
 20
0.0
 30
0.0
  3
$PAPER_SPACE
  1

  0
ENDBLK
  5
608
 67
     1
  8
0
  0
ENDSEC
  0
SECTION
  2
ENTITIES
  0
LINE
  5
4D7
  8
1
 10
50.106425206608151
 20
99.682056598546595
 30
0.0
 11
50.106425206608151
 21
45.68917909125107
 31
0.0
  0
LINE
  5
4D8
  8
0
 10
121.54478125777661
 20
77.685617844898815
 30
0.0
 11
121.54478125777661
 21
67.685617844898843
 31
0.0
1001
GENIUS_GENOREF_13
1005
0
  0
LINE
  5
4D9
  8
0
 10
120.453969103163
 20
64.185617844898701
 30
0.0
 11
120.453969103163
 21
81.185617844898957
 31
0.0
  0
LINE
  5
4DA
  8
0
 10
121.24478125777659
 20
80.394805690285594
 30
0.0
 11
121.24478125777659
 21
64.976429999512305
 31
0.0
  0
LINE
  5
4DC
  8
0
 10
97.544781257777743
 20
90.046407844900159
 30
0.0
 11
97.544781257777743
 21
55.324827844897527
 31
0.0
  0
LINE
  5
4DD
  8
0
 10
98.144781257782441
 20
93.409670283333327
 30
0.0
 11
98.144781257776515
 21
51.961565406470271
 31
0.0
  0
LINE
  5
4DE
  8
0
 10
99.417167572994288
 20
71.685580375405152
 30
0.0
 11
99.41716757299406
 21
65.215044705776563
 31
0.0
  0
LINE
  5
4DF
  8
0
 10
110.2720552039287
 20
71.68615767534402
 30
0.0
 11
110.2720552039287
 21
65.214872796561735
 31
0.0
  0
ARC
  5
4E0
  8
0
 10
50.106425206608151
 20
72.685617844898843
 30
0.0
 40
21.996438753647741
 50
340.10577104958338
 51
357.39422895041622
  0
CIRCLE
  5
4E1
  8
0
 10
50.106425206608151
 20
72.685617844898843
 30
0.0
 40
7.0
  0
CIRCLE
  5
4E2
  8
0
 10
50.106425206608151
 20
72.685617844898843
 30
0.0
 40
8.1500000000000004
  0
ARC
  5
4E3
  8
0
 10
50.106425206608151
 20
72.685617844898843
 30
0.0
 40
21.996438753647741
 50
182.6057710495833
 51
199.89422895041631
  0
CIRCLE
  5
4E4
  8
0
 10
50.106425206608151
 20
72.685617844898843
 30
0.0
 40
20.724052438428568
  0
CIRCLE
  5
4E5
  8
0
 10
50.106425206608151
 20
72.685617844898843
 30
0.0
 40
17.998796269562941
  0
LINE
  5
4E6
  8
0
 10
99.41716757299406
 20
57.8784580506317
 30
0.0
 11
110.2720552039287
 21
57.8784580506317
 31
0.0
  0
LINE
  5
4E7
  8
0
 10
99.41716757299406
 20
56.460327516576847
 30
0.0
 11
110.2720552039287
 21
56.460327516577529
 31
0.0
  0
LINE
  5
4E8
  8
0
 10
99.41716757299406
 20
65.215044705776563
 30
0.0
 11
110.2720552039287
 21
65.215044705776563
 31
0.0
  0
LINE
  5
4E9
  8
0
 10
99.41716757299406
 20
63.362544214985292
 30
0.0
 11
110.2720552039287
 21
63.362544214985292
 31
0.0
  0
LINE
  5
4EA
  8
0
 10
99.417167572994288
 20
52.766179044585868
 30
0.0
 11
110.2720552039289
 21
52.766179044586551
 31
0.0
  0
LINE
  5
4EB
  8
0
 10
99.41716757299406
 20
50.689179091252498
 30
0.0
 11
110.2720552039287
 21
50.689179091250452
 31
0.0
  0
LINE
  5
4EC
  8
0
 10
99.41716757299406
 20
51.998739715971936
 30
0.0
 11
110.2720552039289
 21
51.998739715969997
 31
0.0
  0
ARC
  5
4ED
  8
0
 10
50.106425206608151
 20
72.685617844898843
 30
0.0
 40
21.996438753647741
 50
272.60577104958338
 51
289.89422895041628
  0
ARC
  5
4EE
  8
0
 10
50.106425206608151
 20
72.685617844898843
 30
0.0
 40
21.996438753647741
 50
227.6057710495833
 51
244.89422895041619
  0
ARC
  5
4EF
  8
0
 10
41.692910442721939
 20
52.373596394698659
 30
0.0
 40
1.000108022662179
 50
338.18057342838341
 51
156.81942657161241
  0
ARC
  5
4F0
  8
0
 10
50.106425206608151
 20
72.685617844898843
 30
0.0
 40
21.996438753647741
 50
250.1057710495833
 51
267.39422895041639
  0
ARC
  5
4F1
  8
0
 10
50.106425206608087
 20
50.700044255030321
 30
0.0
 40
1.000108022662179
 50
0.6805734283833154
 51
179.3194265716125
  0
ARC
  5
4F2
  8
0
 10
50.106425206608151
 20
72.685617844898843
 30
0.0
 40
21.996438753647741
 50
205.1057710495833
 51
222.39422895041619
  0
ARC
  5
4F3
  8
0
 10
34.560277032936199
 20
57.139469671227033
 30
0.0
 40
1.000108022662179
 50
315.68057342838341
 51
134.3194265716125
  0
ARC
  5
4F4
  8
0
 10
29.79440375640792
 20
64.272103081012773
 30
0.0
 40
1.000108022662179
 50
293.18057342838341
 51
111.8194265716125
  0
ARC
  5
4F5
  8
0
 10
58.519939970494249
 20
52.373596394698581
 30
0.0
 40
1.000108022662179
 50
23.180573428383308
 51
201.8194265716125
  0
ARC
  5
4F6
  8
0
 10
50.106425206608151
 20
72.685617844898843
 30
0.0
 40
21.996438753647741
 50
295.10577104958332
 51
312.39422895041628
  0
ARC
  5
4F7
  8
0
 10
65.652573380279989
 20
57.139469671226891
 30
0.0
 40
1.000108022662179
 50
45.68057342838339
 51
224.3194265716125
  0
ARC
  5
4F8
  8
0
 10
50.106425206608151
 20
72.685617844898843
 30
0.0
 40
21.996438753647741
 50
317.60577104958332
 51
334.8942289504165
  0
ARC
  5
4F9
  8
0
 10
70.418446656808328
 20
64.272103081012688
 30
0.0
 40
1.000108022662179
 50
68.180573428383312
 51
246.8194265716125
  0
POLYLINE
  5
4FA
  8
0
 66
     1
 10
0.0
 20
0.0
 30
0.0
 70
     8
  0
VERTEX
  5
55E
  8
0
 10
99.417167572993876
 20
52.766134788444191
 30
0.0
 70
    32
1001
ACAD
1000
R13OBJECT
1002
{
1005
4FA
1002
}
  0
VERTEX
  5
55F
  8
0
 10
98.935747740104446
 20
52.697855758386311
 30
0.0
 70
    32
1001
ACAD
1000
R13OBJECT
1002
{
1005
4FA
1002
}
  0
VERTEX
  5
560
  8
0
 10
98.638851011390756
 20
52.510163967145012
 30
0.0
 70
    32
1001
ACAD
1000
R13OBJECT
1002
{
1005
4FA
1002
}
  0
VERTEX
  5
561
  8
0
 10
98.638851011390784
 20
52.274099627824612
 30
0.0
 70
    32
1001
ACAD
1000
R13OBJECT
1002
{
1005
4FA
1002
}
  0
VERTEX
  5
562
  8
0
 10
98.935747740104532
 20
52.07901167178089
 30
0.0
 70
    32
1001
ACAD
1000
R13OBJECT
1002
{
1005
4FA
1002
}
  0
VERTEX
  5
563
  8
0
 10
99.417167572994003
 20
51.998739715971936
 30
0.0
 70
    32
1001
ACAD
1000
R13OBJECT
1002
{
1005
4FA
1002
}
  0
SEQEND
  5
564
  8
0
  0
LINE
  5
4FB
  8
0
 10
99.417167572993833
 20
51.998739715971823
 30
0.0
 11
99.41716757299406
 21
50.689179091252498
 31
0.0
  0
LINE
  5
4FC
  8
0
 10
99.41716757299406
 20
50.689179091252498
 30
0.0
 11
98.144781257776515
 21
51.961565406470271
 31
0.0
  0
LINE
  5
4FD
  8
0
 10
99.41716757299406
 20
63.362544214985292
 30
0.0
 11
99.41716757299406
 21
57.8784580506317
 31
0.0
  0
ARC
  5
4FE
  8
0
 10
98.183991257777564
 20
55.324827844897527
 30
0.0
 40
0.6392100000000001
 50
180.0
 51
266.48319208362358
1001
GENIUS_GENODEF_13
1002
{
1000
HIER
1070
     0
1002
}
1002
{
1000
MANEDIT
1070
     0
1002
}
1002
{
1000
NOSEL
1070
     0
1002
}
1002
{
1000
BEHIND
1070
     0
1002
}
1002
{
1000
REACTOR
1002
}
1001
GENIUS_GENOBJ-N-FIL_13
1002
{
1000
OWNER
1000
GEN
1002
}
  0
POLYLINE
  5
4FF
  8
0
 66
     1
 10
0.0
 20
0.0
 30
0.0
 70
     8
  0
VERTEX
  5
565
  8
0
 10
99.445030006906336
 20
57.87839395080794
 30
0.0
 70
    32
1001
ACAD
1000
R13OBJECT
1002
{
1005
4FF
1002
}
  0
VERTEX
  5
566
  8
0
 10
98.960453515893377
 20
57.744522535401721
 30
0.0
 70
    32
1001
ACAD
1000
R13OBJECT
1002
{
1005
4FF
1002
}
  0
VERTEX
  5
567
  8
0
 10
98.660968774298198
 20
57.390995035291063
 30
0.0
 70
    32
1001
ACAD
1000
R13OBJECT
1002
{
1005
4FF
1002
}
  0
VERTEX
  5
568
  8
0
 10
98.660968774298198
 20
56.952846939560473
 30
0.0
 70
    32
1001
ACAD
1000
R13OBJECT
1002
{
1005
4FF
1002
}
  0
VERTEX
  5
569
  8
0
 10
98.960453515893377
 20
56.597435928672972
 30
0.0
 70
    32
1001
ACAD
1000
R13OBJECT
1002
{
1005
4FF
1002
}
  0
VERTEX
  5
56A
  8
0
 10
99.445030006906336
 20
56.460516928811622
 30
0.0
 70
    32
1001
ACAD
1000
R13OBJECT
1002
{
1005
4FF
1002
}
  0
SEQEND
  5
56B
  8
0
  0
LINE
  5
500
  8
0
 10
99.41716757299406
 20
56.460327516576847
 30
0.0
 11
99.417167572994288
 21
52.766179044585868
 31
0.0
  0
LINE
  5
501
  8
0
 10
99.387528639480323
 20
52.763648676946303
 30
0.0
 11
99.387528639480323
 21
52.769856498425469
 31
0.0
  0
POLYLINE
  5
502
  8
0
 66
     1
 10
0.0
 20
0.0
 30
0.0
 70
     8
  0
VERTEX
  5
56C
  8
0
 10
99.445168279800384
 20
65.215454272857826
 30
0.0
 70
    32
1001
ACAD
1000
R13OBJECT
1002
{
1005
502
1002
}
  0
VERTEX
  5
56D
  8
0
 10
99.032974431774662
 20
65.090667850799903
 30
0.0
 70
    32
1001
ACAD
1000
R13OBJECT
1002
{
1005
502
1002
}
  0
VERTEX
  5
56E
  8
0
 10
98.731227592452484
 20
64.751129844515873
 30
0.0
 70
    32
1001
ACAD
1000
R13OBJECT
1002
{
1005
502
1002
}
  0
VERTEX
  5
56F
  8
0
 10
98.620780583748925
 20
64.287819188589182
 30
0.0
 70
    32
1001
ACAD
1000
R13OBJECT
1002
{
1005
502
1002
}
  0
VERTEX
  5
570
  8
0
 10
98.731227592452512
 20
63.824879599120152
 30
0.0
 70
    32
1001
ACAD
1000
R13OBJECT
1002
{
1005
502
1002
}
  0
VERTEX
  5
571
  8
0
 10
99.032974431774704
 20
63.486355365251391
 30
0.0
 70
    32
1001
ACAD
1000
R13OBJECT
1002
{
1005
502
1002
}
  0
VERTEX
  5
572
  8
0
 10
99.445168279800455
 20
63.36295378206642
 30
0.0
 70
    32
1001
ACAD
1000
R13OBJECT
1002
{
1005
502
1002
}
  0
SEQEND
  5
573
  8
0
  0
LINE
  5
503
  8
0
 10
111.5444415191462
 20
51.961565406470271
 30
0.0
 11
111.5444415191397
 21
93.409670283333966
 31
0.0
  0
POLYLINE
  5
504
  8
0
 66
     1
 10
0.0
 20
0.0
 30
0.0
 70
     8
  0
VERTEX
  5
574
  8
0
 10
110.2720552039289
 20
51.998701668916851
 30
0.0
 70
    32
1001
ACAD
1000
R13OBJECT
1002
{
1005
504
1002
}
  0
VERTEX
  5
575
  8
0
 10
110.6706112692511
 20
52.036799577087322
 30
0.0
 70
    32
1001
ACAD
1000
R13OBJECT
1002
{
1005
504
1002
}
  0
VERTEX
  5
576
  8
0
 10
110.9623745587317
 20
52.1671110096581
 30
0.0
 70
    32
1001
ACAD
1000
R13OBJECT
1002
{
1005
504
1002
}
  0
VERTEX
  5
577
  8
0
 10
111.06916733457329
 20
52.354719123507302
 30
0.0
 70
    32
1001
ACAD
1000
R13OBJECT
1002
{
1005
504
1002
}
  0
VERTEX
  5
578
  8
0
 10
110.9623745587317
 20
52.549354476035496
 30
0.0
 70
    32
1001
ACAD
1000
R13OBJECT
1002
{
1005
504
1002
}
  0
VERTEX
  5
579
  8
0
 10
110.6706112692511
 20
52.698864681714213
 30
0.0
 70
    32
1001
ACAD
1000
R13OBJECT
1002
{
1005
504
1002
}
  0
VERTEX
  5
57A
  8
0
 10
110.2720552039289
 20
52.763188601671629
 30
0.0
 70
    32
1001
ACAD
1000
R13OBJECT
1002
{
1005
504
1002
}
  0
SEQEND
  5
57B
  8
0
  0
LINE
  5
505
  8
0
 10
110.2720552039287
 20
50.689179091252498
 30
0.0
 11
111.5444415191462
 21
51.961565406470271
 31
0.0
  0
LINE
  5
506
  8
0
 10
110.2720552039289
 20
51.998701668916823
 30
0.0
 11
110.2720552039287
 21
50.689179091250423
 31
0.0
  0
LINE
  5
507
  8
0
 10
120.453969103163
 20
64.185617844898701
 30
0.0
 11
111.5447812577806
 21
64.185617844897337
 31
0.0
  0
LINE
  5
508
  8
0
 10
110.2720552039287
 20
63.362544214985412
 30
0.0
 11
110.2720552039287
 21
57.878076568097299
 31
0.0
  0
POLYLINE
  5
509
  8
0
 66
     1
 10
0.0
 20
0.0
 30
0.0
 70
     8
  0
VERTEX
  5
57C
  8
0
 10
110.2441927700164
 20
57.87839395080794
 30
0.0
 70
    32
1001
ACAD
1000
R13OBJECT
1002
{
1005
509
1002
}
  0
VERTEX
  5
57D
  8
0
 10
110.7287692610293
 20
57.744522535401721
 30
0.0
 70
    32
1001
ACAD
1000
R13OBJECT
1002
{
1005
509
1002
}
  0
VERTEX
  5
57E
  8
0
 10
111.02825400262449
 20
57.390995035291063
 30
0.0
 70
    32
1001
ACAD
1000
R13OBJECT
1002
{
1005
509
1002
}
  0
VERTEX
  5
57F
  8
0
 10
111.02825400262449
 20
56.952846939560473
 30
0.0
 70
    32
1001
ACAD
1000
R13OBJECT
1002
{
1005
509
1002
}
  0
VERTEX
  5
580
  8
0
 10
110.7287692610293
 20
56.597435928672972
 30
0.0
 70
    32
1001
ACAD
1000
R13OBJECT
1002
{
1005
509
1002
}
  0
VERTEX
  5
581
  8
0
 10
110.2441927700164
 20
56.460516928811622
 30
0.0
 70
    32
1001
ACAD
1000
R13OBJECT
1002
{
1005
509
1002
}
  0
SEQEND
  5
582
  8
0
  0
LINE
  5
50A
  8
0
 10
110.2720552039285
 20
56.460327516577529
 30
0.0
 11
110.2720552039289
 21
52.763188601671651
 31
0.0
  0
POLYLINE
  5
50B
  8
0
 66
     1
 10
0.0
 20
0.0
 30
0.0
 70
     8
  0
VERTEX
  5
583
  8
0
 10
110.24405449712231
 20
65.215454272857826
 30
0.0
 70
    32
1001
ACAD
1000
R13OBJECT
1002
{
1005
50B
1002
}
  0
VERTEX
  5
584
  8
0
 10
110.6562483451481
 20
65.090667850799903
 30
0.0
 70
    32
1001
ACAD
1000
R13OBJECT
1002
{
1005
50B
1002
}
  0
VERTEX
  5
585
  8
0
 10
110.95799518447021
 20
64.751129844515873
 30
0.0
 70
    32
1001
ACAD
1000
R13OBJECT
1002
{
1005
50B
1002
}
  0
VERTEX
  5
586
  8
0
 10
111.06844219317379
 20
64.287819188589182
 30
0.0
 70
    32
1001
ACAD
1000
R13OBJECT
1002
{
1005
50B
1002
}
  0
VERTEX
  5
587
  8
0
 10
110.95799518447021
 20
63.824879599120152
 30
0.0
 70
    32
1001
ACAD
1000
R13OBJECT
1002
{
1005
50B
1002
}
  0
VERTEX
  5
588
  8
0
 10
110.656248345148
 20
63.486355365251391
 30
0.0
 70
    32
1001
ACAD
1000
R13OBJECT
1002
{
1005
50B
1002
}
  0
VERTEX
  5
589
  8
0
 10
110.24405449712231
 20
63.36295378206642
 30
0.0
 70
    32
1001
ACAD
1000
R13OBJECT
1002
{
1005
50B
1002
}
  0
SEQEND
  5
58A
  8
0
  0
LINE
  5
50C
  8
0
 10
120.453969103163
 20
64.185617844898701
 30
0.0
 11
121.24478125777691
 21
64.976429999512305
 31
0.0
  0
LINE
  5
50D
  8
0
 10
121.54478125777661
 20
67.685617844898843
 30
0.0
 11
121.24478125777659
 21
67.621850876397787
 31
0.0
  0
LINE
  5
50E
  8
1
 10
92.544781257777743
 20
72.685617844898857
 30
0.0
 11
156.54478125777649
 21
72.685617844898815
 31
0.0
  0
LINE
  5
50F
  8
0
 10
99.41716757299406
 20
88.910908173220832
 30
0.0
 11
110.2720552039287
 21
88.910908173220136
 31
0.0
  0
LINE
  5
510
  8
0
 10
99.41716757299406
 20
87.492777639165979
 30
0.0
 11
110.2720552039287
 21
87.492777639165979
 31
0.0
  0
LINE
  5
511
  8
0
 10
99.41716757299406
 20
94.682056598545174
 30
0.0
 11
110.2720552039287
 21
94.682056598547234
 31
0.0
  0
LINE
  5
512
  8
0
 10
99.417167572994288
 20
92.605056645211803
 30
0.0
 11
110.2720552039289
 21
92.605056645211135
 31
0.0
  0
LINE
  5
513
  8
0
 10
99.41716757299406
 20
93.37249597382575
 30
0.0
 11
110.2720552039289
 21
93.372495973827682
 31
0.0
  0
LINE
  5
514
  8
0
 10
99.41716757299406
 20
82.008691474812395
 30
0.0
 11
110.2720552039287
 21
82.008691474812395
 31
0.0
  0
LINE
  5
515
  8
0
 10
99.41716757299406
 20
80.156190984021123
 30
0.0
 11
110.2720552039287
 21
80.156190984021123
 31
0.0
  0
LINE
  5
516
  8
0
 10
110.2440482937657
 20
73.685655314392534
 30
0.0
 11
99.417167572993606
 21
73.685655314392534
 31
0.0
  0
LINE
  5
517
  8
0
 10
110.2440482937657
 20
71.685580375405152
 30
0.0
 11
99.417167572993606
 21
71.685580375405152
 31
0.0
  0
LINE
  5
518
  8
1
 10
77.102863960255917
 20
72.685617844898843
 30
0.0
 11
23.109986452960381
 21
72.685617844898843
 31
0.0
  0
ARC
  5
519
  8
0
 10
50.106425206608151
 20
72.685617844898843
 30
0.0
 40
21.996438753647741
 50
70.105771049583254
 51
87.394228950416249
  0
ARC
  5
51A
  8
0
 10
50.106425206608151
 20
72.685617844898843
 30
0.0
 40
21.996438753647741
 50
137.60577104958341
 51
154.8942289504165
  0
ARC
  5
51B
  8
0
 10
50.106425206608151
 20
72.685617844898843
 30
0.0
 40
21.996438753647741
 50
160.1057710495835
 51
177.39422895041631
  0
ARC
  5
51C
  8
0
 10
28.120851616739689
 20
72.685617844898886
 30
0.0
 40
1.000108022662179
 50
270.6805734283833
 51
89.319426571612524
  0
ARC
  5
51D
  8
0
 10
29.79440375640792
 20
81.099132608784984
 30
0.0
 40
1.000108022662179
 50
248.18057342838341
 51
66.81942657161261
  0
ARC
  5
51E
  8
0
 10
50.106425206608151
 20
72.685617844898843
 30
0.0
 40
21.996438753647741
 50
115.1057710495835
 51
132.39422895041631
  0
ARC
  5
51F
  8
0
 10
34.560277032936312
 20
88.231766018570738
 30
0.0
 40
1.000108022662179
 50
225.68057342838341
 51
44.319426571612532
  0
ARC
  5
520
  8
0
 10
41.692910442722052
 20
92.997639295099063
 30
0.0
 40
1.000108022662179
 50
203.18057342838341
 51
21.819426571612532
  0
ARC
  5
521
  8
0
 10
50.106425206608151
 20
72.685617844898843
 30
0.0
 40
21.996438753647741
 50
92.605771049583339
 51
109.89422895041641
  0
ARC
  5
522
  8
0
 10
50.106425206608201
 20
94.671191434767337
 30
0.0
 40
1.000108022662179
 50
180.6805734283833
 51
359.3194265716125
  0
ARC
  5
523
  8
0
 10
50.106425206608151
 20
72.685617844898843
 30
0.0
 40
21.996438753647741
 50
25.105771049583421
 51
42.394228950416569
  0
ARC
  5
524
  8
0
 10
50.106425206608151
 20
72.685617844898843
 30
0.0
 40
21.996438753647741
 50
2.6057710495831801
 51
19.894228950416419
  0
ARC
  5
525
  8
0
 10
72.091998796476616
 20
72.685617844898729
 30
0.0
 40
1.000108022662179
 50
90.680573428383312
 51
269.3194265716125
  0
ARC
  5
526
  8
0
 10
70.418446656808328
 20
81.099132608784942
 30
0.0
 40
1.000108022662179
 50
113.1805734283833
 51
291.8194265716125
  0
ARC
  5
527
  8
0
 10
65.652573380279989
 20
88.231766018570696
 30
0.0
 40
1.000108022662179
 50
135.6805734283833
 51
314.31942657161238
  0
ARC
  5
528
  8
0
 10
50.106425206608151
 20
72.685617844898843
 30
0.0
 40
21.996438753647741
 50
47.605771049583581
 51
64.894228950416164
  0
ARC
  5
529
  8
0
 10
58.51993997049437
 20
92.99763929509902
 30
0.0
 40
1.000108022662179
 50
158.1805734283833
 51
336.8194265716125
  0
LINE
  5
52A
  8
0
 10
99.41716757299406
 20
82.008691474812395
 30
0.0
 11
99.41716757299406
 21
87.492777639165979
 31
0.0
  0
LINE
  5
52D
  8
0
 10
99.417167572994288
 20
73.685655314392534
 30
0.0
 11
99.41716757299406
 21
80.156190984021123
 31
0.0
  0
POLYLINE
  5
52E
  8
0
 66
     1
 10
0.0
 20
0.0
 30
0.0
 70
     8
  0
VERTEX
  5
58B
  8
0
 10
98.592801201619238
 20
72.685617844898843
 30
0.0
 70
    32
1001
ACAD
1000
R13OBJECT
1002
{
1005
52E
1002
}
  0
VERTEX
  5
58C
  8
0
 10
98.703245353357815
 20
72.185599110151955
 30
0.0
 70
    32
1001
ACAD
1000
R13OBJECT
1002
{
1005
52E
1002
}
  0
VERTEX
  5
58D
  8
0
 10
99.004984387306436
 20
71.819559991580917
 30
0.0
 70
    32
1001
ACAD
1000
R13OBJECT
1002
{
1005
52E
1002
}
  0
VERTEX
  5
58E
  8
0
 10
99.417167572993606
 20
71.685580375405038
 30
0.0
 70
    32
1001
ACAD
1000
R13OBJECT
1002
{
1005
52E
1002
}
  0
SEQEND
  5
58F
  8
0
  0
POLYLINE
  5
52F
  8
0
 66
     1
 10
0.0
 20
0.0
 30
0.0
 70
     8
  0
VERTEX
  5
590
  8
0
 10
98.592801201619238
 20
72.685617844898843
 30
0.0
 70
    32
1001
ACAD
1000
R13OBJECT
1002
{
1005
52F
1002
}
  0
VERTEX
  5
591
  8
0
 10
98.703245353357815
 20
73.185636579645731
 30
0.0
 70
    32
1001
ACAD
1000
R13OBJECT
1002
{
1005
52F
1002
}
  0
VERTEX
  5
592
  8
0
 10
99.004984387306436
 20
73.551675698216769
 30
0.0
 70
    32
1001
ACAD
1000
R13OBJECT
1002
{
1005
52F
1002
}
  0
VERTEX
  5
593
  8
0
 10
99.417167572993606
 20
73.685655314392648
 30
0.0
 70
    32
1001
ACAD
1000
R13OBJECT
1002
{
1005
52F
1002
}
  0
SEQEND
  5
594
  8
0
  0
POLYLINE
  5
530
  8
0
 66
     1
 10
0.0
 20
0.0
 30
0.0
 70
     8
  0
VERTEX
  5
595
  8
0
 10
99.445168279800384
 20
80.155781416939845
 30
0.0
 70
    32
1001
ACAD
1000
R13OBJECT
1002
{
1005
530
1002
}
  0
VERTEX
  5
596
  8
0
 10
99.032974431774662
 20
80.280567838997783
 30
0.0
 70
    32
1001
ACAD
1000
R13OBJECT
1002
{
1005
530
1002
}
  0
VERTEX
  5
597
  8
0
 10
98.731227592452484
 20
80.620105845281813
 30
0.0
 70
    32
1001
ACAD
1000
R13OBJECT
1002
{
1005
530
1002
}
  0
VERTEX
  5
598
  8
0
 10
98.620780583748925
 20
81.083416501208504
 30
0.0
 70
    32
1001
ACAD
1000
R13OBJECT
1002
{
1005
530
1002
}
  0
VERTEX
  5
599
  8
0
 10
98.731227592452512
 20
81.546356090677534
 30
0.0
 70
    32
1001
ACAD
1000
R13OBJECT
1002
{
1005
530
1002
}
  0
VERTEX
  5
59A
  8
0
 10
99.032974431774704
 20
81.884880324546302
 30
0.0
 70
    32
1001
ACAD
1000
R13OBJECT
1002
{
1005
530
1002
}
  0
VERTEX
  5
59B
  8
0
 10
99.445168279800455
 20
82.008281907731259
 30
0.0
 70
    32
1001
ACAD
1000
R13OBJECT
1002
{
1005
530
1002
}
  0
SEQEND
  5
59C
  8
0
  0
LINE
  5
531
  8
0
 10
99.41716757299406
 20
88.910908173220832
 30
0.0
 11
99.417167572994288
 21
92.605056645211803
 31
0.0
  0
ARC
  5
532
  8
0
 10
98.183991257777564
 20
90.046407844900159
 30
0.0
 40
0.6392100000000001
 50
93.516807916376393
 51
180.0
1001
GENIUS_GENODEF_13
1002
{
1000
HIER
1070
     0
1002
}
1002
{
1000
MANEDIT
1070
     0
1002
}
1002
{
1000
NOSEL
1070
     0
1002
}
1002
{
1000
BEHIND
1070
     0
1002
}
1002
{
1000
REACTOR
1002
}
1001
GENIUS_GENOBJ-N-FIL_13
1002
{
1000
OWNER
1000
GEN
1002
}
  0
POLYLINE
  5
533
  8
0
 66
     1
 10
0.0
 20
0.0
 30
0.0
 70
     8
  0
VERTEX
  5
59D
  8
0
 10
99.445030006906336
 20
87.492841738989739
 30
0.0
 70
    32
1001
ACAD
1000
R13OBJECT
1002
{
1005
533
1002
}
  0
VERTEX
  5
59E
  8
0
 10
98.960453515893377
 20
87.626713154395972
 30
0.0
 70
    32
1001
ACAD
1000
R13OBJECT
1002
{
1005
533
1002
}
  0
VERTEX
  5
59F
  8
0
 10
98.660968774298198
 20
87.980240654506616
 30
0.0
 70
    32
1001
ACAD
1000
R13OBJECT
1002
{
1005
533
1002
}
  0
VERTEX
  5
5A0
  8
0
 10
98.660968774298198
 20
88.418388750237213
 30
0.0
 70
    32
1001
ACAD
1000
R13OBJECT
1002
{
1005
533
1002
}
  0
VERTEX
  5
5A1
  8
0
 10
98.960453515893377
 20
88.773799761124707
 30
0.0
 70
    32
1001
ACAD
1000
R13OBJECT
1002
{
1005
533
1002
}
  0
VERTEX
  5
5A2
  8
0
 10
99.445030006906336
 20
88.910718760986072
 30
0.0
 70
    32
1001
ACAD
1000
R13OBJECT
1002
{
1005
533
1002
}
  0
SEQEND
  5
5A3
  8
0
  0
LINE
  5
534
  8
0
 10
99.387528639480323
 20
92.607587012851397
 30
0.0
 11
99.387528639480323
 21
92.601379191372203
 31
0.0
  0
LINE
  5
535
  8
0
 10
99.417167572993833
 20
93.372495973825849
 30
0.0
 11
99.41716757299406
 21
94.682056598545174
 31
0.0
  0
POLYLINE
  5
536
  8
0
 66
     1
 10
0.0
 20
0.0
 30
0.0
 70
     8
  0
VERTEX
  5
5A4
  8
0
 10
99.417167572993876
 20
92.605100901353495
 30
0.0
 70
    32
1001
ACAD
1000
R13OBJECT
1002
{
1005
536
1002
}
  0
VERTEX
  5
5A5
  8
0
 10
98.935747740104446
 20
92.673379931411375
 30
0.0
 70
    32
1001
ACAD
1000
R13OBJECT
1002
{
1005
536
1002
}
  0
VERTEX
  5
5A6
  8
0
 10
98.638851011390756
 20
92.861071722652682
 30
0.0
 70
    32
1001
ACAD
1000
R13OBJECT
1002
{
1005
536
1002
}
  0
VERTEX
  5
5A7
  8
0
 10
98.638851011390784
 20
93.097136061973075
 30
0.0
 70
    32
1001
ACAD
1000
R13OBJECT
1002
{
1005
536
1002
}
  0
VERTEX
  5
5A8
  8
0
 10
98.935747740104532
 20
93.292224018016796
 30
0.0
 70
    32
1001
ACAD
1000
R13OBJECT
1002
{
1005
536
1002
}
  0
VERTEX
  5
5A9
  8
0
 10
99.417167572994003
 20
93.37249597382575
 30
0.0
 70
    32
1001
ACAD
1000
R13OBJECT
1002
{
1005
536
1002
}
  0
SEQEND
  5
5AA
  8
0
  0
LINE
  5
537
  8
0
 10
99.41716757299406
 20
94.682056598545174
 30
0.0
 11
98.144781257776515
 21
93.409670283327415
 31
0.0
  0
LINE
  5
538
  8
0
 10
121.54478125777661
 20
68.685617844898843
 30
0.0
 11
150.29478125777661
 21
68.685617844898843
 31
0.0
1001
GENIUS_GENOREF_13
1005
0
1005
0
  0
LINE
  5
539
  8
0
 10
121.54478125777661
 20
76.685617844898843
 30
0.0
 11
150.29478125777661
 21
76.685617844898843
 31
0.0
1001
GENIUS_GENOREF_13
1005
0
1005
0
  0
LINE
  5
53A
  8
3
 10
151.0617812577766
 20
75.918617844898847
 30
0.0
 11
123.54478125777661
 21
75.918617844898847
 31
0.0
1001
GENIUS_GENOREF_13
1005
0
1005
0
  0
LINE
  5
53B
  8
3
 10
151.0617812577766
 20
69.452617844898839
 30
0.0
 11
123.54478125777661
 21
69.452617844898839
 31
0.0
1001
GENIUS_GENOREF_13
1005
0
1005
0
  0
LINE
  5
53C
  8
0
 10
110.2720552039287
 20
82.008691474812281
 30
0.0
 11
110.2720552039287
 21
87.493159121700387
 31
0.0
  0
LINE
  5
53E
  8
0
 10
120.453969103163
 20
81.185617844898985
 30
0.0
 11
111.5447812577806
 21
81.185617844900349
 31
0.0
  0
LINE
  5
53F
  8
0
 10
110.2720552039287
 20
73.685078014453666
 30
0.0
 11
110.2720552039287
 21
80.156362893235951
 31
0.0
  0
POLYLINE
  5
541
  8
0
 66
     1
 10
0.0
 20
0.0
 30
0.0
 70
     8
  0
VERTEX
  5
5AB
  8
0
 10
111.0684146651401
 20
72.685617844898843
 30
0.0
 70
    32
1001
ACAD
1000
R13OBJECT
1002
{
1005
541
1002
}
  0
VERTEX
  5
5AC
  8
0
 10
110.95797051340151
 20
72.185599110151955
 30
0.0
 70
    32
1001
ACAD
1000
R13OBJECT
1002
{
1005
541
1002
}
  0
VERTEX
  5
5AD
  8
0
 10
110.6562314794529
 20
71.819559991580917
 30
0.0
 70
    32
1001
ACAD
1000
R13OBJECT
1002
{
1005
541
1002
}
  0
VERTEX
  5
5AE
  8
0
 10
110.2440482937657
 20
71.685580375405038
 30
0.0
 70
    32
1001
ACAD
1000
R13OBJECT
1002
{
1005
541
1002
}
  0
SEQEND
  5
5AF
  8
0
  0
POLYLINE
  5
542
  8
0
 66
     1
 10
0.0
 20
0.0
 30
0.0
 70
     8
  0
VERTEX
  5
5B0
  8
0
 10
111.0684146651401
 20
72.685617844898843
 30
0.0
 70
    32
1001
ACAD
1000
R13OBJECT
1002
{
1005
542
1002
}
  0
VERTEX
  5
5B1
  8
0
 10
110.95797051340151
 20
73.185636579645731
 30
0.0
 70
    32
1001
ACAD
1000
R13OBJECT
1002
{
1005
542
1002
}
  0
VERTEX
  5
5B2
  8
0
 10
110.6562314794529
 20
73.551675698216769
 30
0.0
 70
    32
1001
ACAD
1000
R13OBJECT
1002
{
1005
542
1002
}
  0
VERTEX
  5
5B3
  8
0
 10
110.2440482937657
 20
73.685655314392648
 30
0.0
 70
    32
1001
ACAD
1000
R13OBJECT
1002
{
1005
542
1002
}
  0
SEQEND
  5
5B4
  8
0
  0
POLYLINE
  5
543
  8
0
 66
     1
 10
0.0
 20
0.0
 30
0.0
 70
     8
  0
VERTEX
  5
5B5
  8
0
 10
110.24405449712231
 20
80.155781416939845
 30
0.0
 70
    32
1001
ACAD
1000
R13OBJECT
1002
{
1005
543
1002
}
  0
VERTEX
  5
5B6
  8
0
 10
110.6562483451481
 20
80.280567838997783
 30
0.0
 70
    32
1001
ACAD
1000
R13OBJECT
1002
{
1005
543
1002
}
  0
VERTEX
  5
5B7
  8
0
 10
110.95799518447021
 20
80.620105845281813
 30
0.0
 70
    32
1001
ACAD
1000
R13OBJECT
1002
{
1005
543
1002
}
  0
VERTEX
  5
5B8
  8
0
 10
111.06844219317379
 20
81.083416501208504
 30
0.0
 70
    32
1001
ACAD
1000
R13OBJECT
1002
{
1005
543
1002
}
  0
VERTEX
  5
5B9
  8
0
 10
110.95799518447021
 20
81.546356090677534
 30
0.0
 70
    32
1001
ACAD
1000
R13OBJECT
1002
{
1005
543
1002
}
  0
VERTEX
  5
5BA
  8
0
 10
110.656248345148
 20
81.884880324546302
 30
0.0
 70
    32
1001
ACAD
1000
R13OBJECT
1002
{
1005
543
1002
}
  0
VERTEX
  5
5BB
  8
0
 10
110.24405449712231
 20
82.008281907731259
 30
0.0
 70
    32
1001
ACAD
1000
R13OBJECT
1002
{
1005
543
1002
}
  0
SEQEND
  5
5BC
  8
0
  0
LINE
  5
548
  8
3
 10
123.54478125777661
 20
75.918617844898847
 30
0.0
 11
122.7777812577766
 21
76.685617844898843
 31
0.0
  0
LINE
  5
549
  8
0
 10
123.54478125777661
 20
76.685617844898843
 30
0.0
 11
123.54478125777661
 21
68.685617844898843
 31
0.0
1001
GENIUS_GENOREF_13
1005
0
  0
LINE
  5
54A
  8
3
 10
123.54478125777661
 20
69.452617844898839
 30
0.0
 11
122.7777812577766
 21
68.685617844898843
 31
0.0
  0
LINE
  5
54B
  8
0
 10
120.453969103163
 20
81.185617844898985
 30
0.0
 11
121.24478125777691
 21
80.394805690285395
 31
0.0
  0
LINE
  5
54C
  8
0
 10
121.54478125777661
 20
77.685617844898843
 30
0.0
 11
121.24478125777659
 21
77.749384813399899
 31
0.0
  0
LINE
  5
54D
  8
0
 10
110.2720552039285
 20
88.910908173220136
 30
0.0
 11
110.2720552039289
 21
92.608047088126028
 31
0.0
  0
POLYLINE
  5
54E
  8
0
 66
     1
 10
0.0
 20
0.0
 30
0.0
 70
     8
  0
VERTEX
  5
5BD
  8
0
 10
110.2441927700164
 20
87.492841738989739
 30
0.0
 70
    32
1001
ACAD
1000
R13OBJECT
1002
{
1005
54E
1002
}
  0
VERTEX
  5
5BE
  8
0
 10
110.7287692610293
 20
87.626713154395972
 30
0.0
 70
    32
1001
ACAD
1000
R13OBJECT
1002
{
1005
54E
1002
}
  0
VERTEX
  5
5BF
  8
0
 10
111.02825400262449
 20
87.980240654506616
 30
0.0
 70
    32
1001
ACAD
1000
R13OBJECT
1002
{
1005
54E
1002
}
  0
VERTEX
  5
5C0
  8
0
 10
111.02825400262449
 20
88.418388750237213
 30
0.0
 70
    32
1001
ACAD
1000
R13OBJECT
1002
{
1005
54E
1002
}
  0
VERTEX
  5
5C1
  8
0
 10
110.7287692610293
 20
88.773799761124707
 30
0.0
 70
    32
1001
ACAD
1000
R13OBJECT
1002
{
1005
54E
1002
}
  0
VERTEX
  5
5C2
  8
0
 10
110.2441927700164
 20
88.910718760986072
 30
0.0
 70
    32
1001
ACAD
1000
R13OBJECT
1002
{
1005
54E
1002
}
  0
SEQEND
  5
5C3
  8
0
  0
LINE
  5
54F
  8
0
 10
110.2720552039287
 20
94.682056598545174
 30
0.0
 11
111.5444415191462
 21
93.409670283327415
 31
0.0
  0
POLYLINE
  5
550
  8
0
 66
     1
 10
0.0
 20
0.0
 30
0.0
 70
     8
  0
VERTEX
  5
5C4
  8
0
 10
110.2720552039289
 20
93.372534020880835
 30
0.0
 70
    32
1001
ACAD
1000
R13OBJECT
1002
{
1005
550
1002
}
  0
VERTEX
  5
5C5
  8
0
 10
110.6706112692511
 20
93.334436112710364
 30
0.0
 70
    32
1001
ACAD
1000
R13OBJECT
1002
{
1005
550
1002
}
  0
VERTEX
  5
5C6
  8
0
 10
110.9623745587317
 20
93.204124680139572
 30
0.0
 70
    32
1001
ACAD
1000
R13OBJECT
1002
{
1005
550
1002
}
  0
VERTEX
  5
5C7
  8
0
 10
111.06916733457329
 20
93.016516566290377
 30
0.0
 70
    32
1001
ACAD
1000
R13OBJECT
1002
{
1005
550
1002
}
  0
VERTEX
  5
5C8
  8
0
 10
110.9623745587317
 20
92.821881213762197
 30
0.0
 70
    32
1001
ACAD
1000
R13OBJECT
1002
{
1005
550
1002
}
  0
VERTEX
  5
5C9
  8
0
 10
110.6706112692511
 20
92.672371008083473
 30
0.0
 70
    32
1001
ACAD
1000
R13OBJECT
1002
{
1005
550
1002
}
  0
VERTEX
  5
5CA
  8
0
 10
110.2720552039289
 20
92.608047088126057
 30
0.0
 70
    32
1001
ACAD
1000
R13OBJECT
1002
{
1005
550
1002
}
  0
SEQEND
  5
5CB
  8
0
  0
LINE
  5
551
  8
0
 10
110.2720552039289
 20
93.372534020880849
 30
0.0
 11
110.2720552039287
 21
94.682056598547263
 31
0.0
  0
LINE
  5
552
  8
0
 10
150.29478125777661
 20
76.685617844898843
 30
0.0
 11
151.54478125777661
 21
75.435617844898843
 31
0.0
  0
LINE
  5
554
  8
0
 10
150.29478125777661
 20
68.685617844898843
 30
0.0
 11
150.29478125777661
 21
76.685617844898843
 31
0.0
  0
LINE
  5
555
  8
0
 10
151.54478125777661
 20
69.935617844898843
 30
0.0
 11
151.54478125777661
 21
75.435617844898829
 31
0.0
1001
GENIUS_GENOREF_13
1005
0
1005
0
  0
LINE
  5
556
  8
0
 10
150.29478125777661
 20
68.685617844898843
 30
0.0
 11
151.54478125777661
 21
69.935617844898843
 31
0.0
  0
TEXT
  5
732
  8
0
 62
     3
 10
0.0
 20
0.0
 30
0.0
 40
10.0
  1
KN45X30SOFT
  7
STANDARD1
  0
ENDSEC
  0
EOF
