  0
SECTION
  2
HEADER
  9
$ACADVER
  1
AC1009
  9
$INSBASE
 10
0.0
 20
0.0
 30
0.0
  9
$EXTMIN
 10
0.0
 20
-2.960436562073669
 30
0.0
  9
$EXTMAX
 10
151.13202565578359
 20
100.5229101307643
 30
0.0
  9
$LIMMIN
 10
0.0
 20
0.0
  9
$LIMMAX
 10
187.5
 20
135.0
  9
$ORTHOMODE
 70
     1
  9
$REGENMODE
 70
     1
  9
$FILLMODE
 70
     1
  9
$QTEXTMODE
 70
     0
  9
$MIRRTEXT
 70
     0
  9
$DRAGMODE
 70
     2
  9
$LTSCALE
 40
5.0
  9
$OSMODE
 70
  3071
  9
$ATTMODE
 70
     1
  9
$TEXTSIZE
 40
0.2
  9
$TRACEWID
 40
0.05
  9
$TEXTSTYLE
  7
STANDARD
  9
$CLAYER
  8
0
  9
$CELTYPE
  6
BYLAYER
  9
$CECOLOR
 62
   256
  9
$DIMSCALE
 40
0.5
  9
$DIMASZ
 40
3.0
  9
$DIMEXO
 40
2.0
  9
$DIMDLI
 40
0.38
  9
$DIMRND
 40
0.0
  9
$DIMDLE
 40
0.0
  9
$DIMEXE
 40
2.0
  9
$DIMTP
 40
0.0
  9
$DIMTM
 40
0.0
  9
$DIMTXT
 40
3.2000000000000002
  9
$DIMCEN
 40
0.0
  9
$DIMTSZ
 40
0.0
  9
$DIMTOL
 70
     0
  9
$DIMLIM
 70
     0
  9
$DIMTIH
 70
     0
  9
$DIMTOH
 70
     0
  9
$DIMSE1
 70
     0
  9
$DIMSE2
 70
     0
  9
$DIMTAD
 70
     1
  9
$DIMZIN
 70
     0
  9
$DIMBLK
  1

  9
$DIMASO
 70
     1
  9
$DIMSHO
 70
     0
  9
$DIMPOST
  1

  9
$DIMAPOST
  1

  9
$DIMALT
 70
     0
  9
$DIMALTD
 70
     2
  9
$DIMALTF
 40
25.399999999999999
  9
$DIMLFAC
 40
1.0
  9
$DIMTOFL
 70
     1
  9
$DIMTVP
 40
1.6000000000000001
  9
$DIMTIX
 70
     1
  9
$DIMSOXD
 70
     0
  9
$DIMSAH
 70
     0
  9
$DIMBLK1
  1

  9
$DIMBLK2
  1

  9
$DIMSTYLE
  2
STANDARD
  9
$DIMCLRD
 70
     0
  9
$DIMCLRE
 70
     0
  9
$DIMCLRT
 70
     0
  9
$DIMTFAC
 40
1.0
  9
$DIMGAP
 40
0.09
  9
$LUNITS
 70
     2
  9
$LUPREC
 70
     4
  9
$SKETCHINC
 40
0.1
  9
$FILLETRAD
 40
0.8
  9
$AUNITS
 70
     1
  9
$AUPREC
 70
     4
  9
$MENU
  1
E:\r13\win\SUPPORT\ACAD
  9
$ELEVATION
 40
0.0
  9
$PELEVATION
 40
0.0
  9
$THICKNESS
 40
0.0
  9
$LIMCHECK
 70
     0
  9
$BLIPMODE
 70
     0
  9
$CHAMFERA
 40
0.0
  9
$CHAMFERB
 40
0.0
  9
$SKPOLY
 70
     0
  9
$TDCREATE
 40
2449839.7859490742
  9
$TDUPDATE
 40
2456597.4861401622
  9
$TDINDWG
 40
0.0263311111
  9
$TDUSRTIMER
 40
0.0263311111
  9
$USRTIMER
 70
     1
  9
$ANGBASE
 50
0.0
  9
$ANGDIR
 70
     0
  9
$PDMODE
 70
     0
  9
$PDSIZE
 40
0.0
  9
$PLINEWID
 40
0.0
  9
$COORDS
 70
     1
  9
$SPLFRAME
 70
     0
  9
$SPLINETYPE
 70
     6
  9
$SPLINESEGS
 70
     8
  9
$ATTDIA
 70
     0
  9
$ATTREQ
 70
     1
  9
$HANDLING
 70
     1
  9
$HANDSEED
  5
109C
  9
$SURFTAB1
 70
     6
  9
$SURFTAB2
 70
     6
  9
$SURFTYPE
 70
     6
  9
$SURFU
 70
     6
  9
$SURFV
 70
     6
  9
$UCSNAME
  2

  9
$UCSORG
 10
0.0
 20
0.0
 30
0.0
  9
$UCSXDIR
 10
1.0
 20
0.0
 30
0.0
  9
$UCSYDIR
 10
0.0
 20
1.0
 30
0.0
  9
$PUCSNAME
  2

  9
$PUCSORG
 10
0.0
 20
0.0
 30
0.0
  9
$PUCSXDIR
 10
1.0
 20
0.0
 30
0.0
  9
$PUCSYDIR
 10
0.0
 20
1.0
 30
0.0
  9
$USERI1
 70
     0
  9
$USERI2
 70
     1
  9
$USERI3
 70
     1
  9
$USERI4
 70
     0
  9
$USERI5
 70
     0
  9
$USERR1
 40
0.0
  9
$USERR2
 40
0.0
  9
$USERR3
 40
0.0
  9
$USERR4
 40
0.0
  9
$USERR5
 40
0.0
  9
$WORLDVIEW
 70
     1
  9
$SHADEDGE
 70
     3
  9
$SHADEDIF
 70
    70
  9
$TILEMODE
 70
     1
  9
$MAXACTVP
 70
    16
  9
$PLIMCHECK
 70
     0
  9
$PEXTMIN
 10
1.0000000000000000E+020
 20
1.0000000000000000E+020
 30
1.0000000000000000E+020
  9
$PEXTMAX
 10
-1.0000000000000000E+020
 20
-1.0000000000000000E+020
 30
-1.0000000000000000E+020
  9
$PLIMMIN
 10
0.0
 20
0.0
  9
$PLIMMAX
 10
12.0
 20
9.0
  9
$UNITMODE
 70
     0
  9
$VISRETAIN
 70
     0
  9
$PLINEGEN
 70
     0
  9
$PSLTSCALE
 70
     0
  0
ENDSEC
  0
SECTION
  2
TABLES
  0
TABLE
  2
VPORT
 70
     1
  0
VPORT
  2
*ACTIVE
 70
     0
 10
0.0
 20
0.0
 11
1.0
 21
1.0
 12
93.74713919532617
 22
80.848703909439024
 13
0.0
 23
0.0
 14
5.0
 24
5.0
 15
5.0
 25
5.0
 16
0.0
 26
0.0
 36
1.0
 17
0.0
 27
0.0
 37
0.0
 40
169.22413112104309
 41
1.9089595375722539
 42
50.0
 43
0.0
 44
0.0
 50
0.0
 51
0.0
 71
     0
 72
   500
 73
     1
 74
     0
 75
     0
 76
     0
 77
     0
 78
     2
  0
ENDTAB
  0
TABLE
  2
LTYPE
 70
     3
  0
LTYPE
  2
CONTINUOUS
 70
     0
  3
Solid Line
 72
    65
 73
     0
 40
0.0
  0
LTYPE
  2
CENTER
 70
     0
  3
____ _ ____ _ ____ _ ____ _ ____ _ ____ _ ____
 72
    65
 73
     4
 40
2.0
 49
1.25
 49
-0.25
 49
0.25
 49
-0.25
  0
LTYPE
  2
PHANTOM2
 70
     0
  3
___ _ _ ___ _ _ ___ _ _ ___ _ _
 72
    65
 73
     6
 40
1.25
 49
0.625
 49
-0.125
 49
0.125
 49
-0.125
 49
0.125
 49
-0.125
  0
ENDTAB
  0
TABLE
  2
LAYER
 70
     4
  0
LAYER
  2
0
 70
     0
 62
     7
  6
CONTINUOUS
  0
LAYER
  2
1
 70
     0
 62
     1
  6
CENTER
  0
LAYER
  2
3
 70
     0
 62
     3
  6
CONTINUOUS
  0
LAYER
  2
DEFPOINTS
 70
     0
 62
     7
  6
CONTINUOUS
  0
ENDTAB
  0
TABLE
  2
STYLE
 70
     2
  0
STYLE
  2
STANDARD
 70
     0
 40
0.0
 41
1.0
 50
0.0
 71
     0
 42
0.2
  3
TXT
  4
BIGFONT
  0
STYLE
  2
STANDARD1
 70
     0
 40
0.0
 41
1.0
 50
0.0
 71
     0
 42
3.0
  3
txt
  4

  0
ENDTAB
  0
TABLE
  2
VIEW
 70
     1
  0
VIEW
  2
ALL
 70
     0
 40
135.0
 10
110.4957983193277
 20
67.5
 41
0.0
 11
0.0
 21
0.0
 31
1.0
 12
0.0
 22
0.0
 32
0.0
 42
0.0
 43
0.0
 44
0.0
 50
0.0
 71
     0
  0
ENDTAB
  0
TABLE
  2
UCS
 70
     0
  0
ENDTAB
  0
TABLE
  2
APPID
 70
    22
  0
APPID
  2
ACAD
 70
     0
  0
APPID
  2
GENIUS_GENODEF_13
 70
     0
  0
APPID
  2
GENIUS_GENOBJ-N-FIL_13
 70
     0
  0
APPID
  2
GENIUS_GENCFG_13
 70
     0
  0
APPID
  2
GENIUS_GENCFG0_13
 70
     0
  0
APPID
  2
GENIUS_GENCFG1_13
 70
     0
  0
APPID
  2
GENIUS_GENCFG2_13
 70
     0
  0
APPID
  2
GENIUS_GENCFG3_13
 70
     0
  0
APPID
  2
GENIUS_GENCFG4_13
 70
     0
  0
APPID
  2
GENIUS_GEVCFG0_13
 70
     0
  0
APPID
  2
GENIUS_GENOENT_13
 70
     0
  0
APPID
  2
GENIUS_GENOBJ-N-HTC_13
 70
     0
  0
APPID
  2
GENIUS_GENHATCH_13
 70
     0
  0
APPID
  2
GENIUS_GENFIL_13
 70
     0
  0
APPID
  2
GENIUS_GENOBJ-N-CHA_13
 70
     0
  0
APPID
  2
GEV_VCCNULL_SWITCH_OFF
 70
     0
  0
APPID
  2
GENIUS_GENDTOL_13
 70
     0
  0
APPID
  2
GENIUS_GEFCFG0_13
 70
     0
  0
APPID
  2
GENIUS_GENOREF_13
 70
     0
  0
APPID
  2
ACAD_EXEMPT_FROM_CAD_STANDARDS
 70
     0
  0
APPID
  2
ACAD_MLEADERVER
 70
     0
  0
APPID
  2
ACAD_NAV_VCDISPLAY
 70
     0
  0
ENDTAB
  0
TABLE
  2
DIMSTYLE
 70
     1
  0
DIMSTYLE
  2
STANDARD
 70
     0
  3

  4

  5

  6

  7

 40
1.0
 41
0.18
 42
0.0625
 43
0.38
 44
0.18
 45
0.0
 46
0.0
 47
0.0
 48
0.0
140
0.18
141
0.09
142
0.0
143
25.399999999999999
144
1.0
145
0.0
146
1.0
147
0.09
 71
     0
 72
     0
 73
     1
 74
     1
 75
     0
 76
     0
 77
     0
 78
     0
170
     0
171
     2
172
     0
173
     0
174
     0
175
     0
176
     0
177
     0
178
     0
  0
ENDTAB
  0
ENDSEC
  0
SECTION
  2
BLOCKS
  0
BLOCK
  8
0
  2
$MODEL_SPACE
 70
     0
 10
0.0
 20
0.0
 30
0.0
  3
$MODEL_SPACE
  1

  0
ENDBLK
  5
4FC
  8
0
  0
BLOCK
 67
     1
  8
0
  2
$PAPER_SPACE
 70
     0
 10
0.0
 20
0.0
 30
0.0
  3
$PAPER_SPACE
  1

  0
ENDBLK
  5
4FA
 67
     1
  8
0
  0
ENDSEC
  0
SECTION
  2
ENTITIES
  0
LINE
  5
39F
  8
1
 10
107.7739082117513
 20
73.526471377116579
 30
0.0
 11
151.13202565578359
 21
73.526471377116593
 31
0.0
  0
LINE
  5
3A0
  8
0
 10
125.5015218965337
 20
64.203397747203155
 30
0.0
 11
125.5015218965337
 21
58.718930100315049
 31
0.0
  0
LINE
  5
3A1
  8
0
 10
125.5015218965336
 20
57.301181048795293
 30
0.0
 11
125.501521896534
 21
53.604042133889408
 31
0.0
  0
LINE
  5
3A2
  8
0
 10
125.501521896534
 20
52.839555201134573
 30
0.0
 11
125.5015218965337
 21
51.53003262346818
 31
0.0
  0
LINE
  5
3A3
  8
0
 10
125.5015218965337
 20
72.52701120756177
 30
0.0
 11
125.5015218965337
 21
66.055726328779485
 31
0.0
  0
POLYLINE
  5
3A4
  8
0
 66
     1
 10
0.0
 20
0.0
 30
0.0
 70
     8
  0
VERTEX
  5
450
  8
0
 10
125.501521896534
 20
52.839555201134601
 30
0.0
 70
    32
1001
ACAD
1000
R13OBJECT
1002
{
1005
3A4
1002
}
  0
VERTEX
  5
451
  8
0
 10
125.9000779618562
 20
52.877653109305079
 30
0.0
 70
    32
1001
ACAD
1000
R13OBJECT
1002
{
1005
3A4
1002
}
  0
VERTEX
  5
452
  8
0
 10
126.1918412513367
 20
53.00796454187585
 30
0.0
 70
    32
1001
ACAD
1000
R13OBJECT
1002
{
1005
3A4
1002
}
  0
VERTEX
  5
453
  8
0
 10
126.2986340271783
 20
53.195572655725051
 30
0.0
 70
    32
1001
ACAD
1000
R13OBJECT
1002
{
1005
3A4
1002
}
  0
VERTEX
  5
454
  8
0
 10
126.1918412513367
 20
53.390208008253239
 30
0.0
 70
    32
1001
ACAD
1000
R13OBJECT
1002
{
1005
3A4
1002
}
  0
VERTEX
  5
455
  8
0
 10
125.9000779618562
 20
53.539718213931963
 30
0.0
 70
    32
1001
ACAD
1000
R13OBJECT
1002
{
1005
3A4
1002
}
  0
VERTEX
  5
456
  8
0
 10
125.501521896534
 20
53.604042133889379
 30
0.0
 70
    32
1001
ACAD
1000
R13OBJECT
1002
{
1005
3A4
1002
}
  0
SEQEND
  5
457
  8
0
  0
POLYLINE
  5
3A5
  8
0
 66
     1
 10
0.0
 20
0.0
 30
0.0
 70
     8
  0
VERTEX
  5
458
  8
0
 10
125.47352118972741
 20
66.056307805075576
 30
0.0
 70
    32
1001
ACAD
1000
R13OBJECT
1002
{
1005
3A5
1002
}
  0
VERTEX
  5
459
  8
0
 10
125.8857150377531
 20
65.931521383017653
 30
0.0
 70
    32
1001
ACAD
1000
R13OBJECT
1002
{
1005
3A5
1002
}
  0
VERTEX
  5
45A
  8
0
 10
126.18746187707529
 20
65.591983376733623
 30
0.0
 70
    32
1001
ACAD
1000
R13OBJECT
1002
{
1005
3A5
1002
}
  0
VERTEX
  5
45B
  8
0
 10
126.2979088857788
 20
65.128672720806932
 30
0.0
 70
    32
1001
ACAD
1000
R13OBJECT
1002
{
1005
3A5
1002
}
  0
VERTEX
  5
45C
  8
0
 10
126.18746187707529
 20
64.665733131337902
 30
0.0
 70
    32
1001
ACAD
1000
R13OBJECT
1002
{
1005
3A5
1002
}
  0
VERTEX
  5
45D
  8
0
 10
125.8857150377531
 20
64.327208897469134
 30
0.0
 70
    32
1001
ACAD
1000
R13OBJECT
1002
{
1005
3A5
1002
}
  0
VERTEX
  5
45E
  8
0
 10
125.47352118972729
 20
64.203807314284177
 30
0.0
 70
    32
1001
ACAD
1000
R13OBJECT
1002
{
1005
3A5
1002
}
  0
SEQEND
  5
45F
  8
0
  0
POLYLINE
  5
3A6
  8
0
 66
     1
 10
0.0
 20
0.0
 30
0.0
 70
     8
  0
VERTEX
  5
460
  8
0
 10
125.4736594626215
 20
58.719247483025697
 30
0.0
 70
    32
1001
ACAD
1000
R13OBJECT
1002
{
1005
3A6
1002
}
  0
VERTEX
  5
461
  8
0
 10
125.9582359536344
 20
58.585376067619457
 30
0.0
 70
    32
1001
ACAD
1000
R13OBJECT
1002
{
1005
3A6
1002
}
  0
VERTEX
  5
462
  8
0
 10
126.25772069522959
 20
58.231848567508813
 30
0.0
 70
    32
1001
ACAD
1000
R13OBJECT
1002
{
1005
3A6
1002
}
  0
VERTEX
  5
463
  8
0
 10
126.25772069522959
 20
57.793700471778209
 30
0.0
 70
    32
1001
ACAD
1000
R13OBJECT
1002
{
1005
3A6
1002
}
  0
VERTEX
  5
464
  8
0
 10
125.9582359536344
 20
57.438289460890722
 30
0.0
 70
    32
1001
ACAD
1000
R13OBJECT
1002
{
1005
3A6
1002
}
  0
VERTEX
  5
465
  8
0
 10
125.4736594626215
 20
57.301370461029357
 30
0.0
 70
    32
1001
ACAD
1000
R13OBJECT
1002
{
1005
3A6
1002
}
  0
SEQEND
  5
466
  8
0
  0
LINE
  5
3A7
  8
0
 10
114.64629452696769
 20
52.839593248189693
 30
0.0
 11
125.501521896534
 21
52.839593248187747
 31
0.0
  0
LINE
  5
3A8
  8
0
 10
114.64629452696791
 20
53.607032576803618
 30
0.0
 11
125.501521896534
 21
53.607032576804301
 31
0.0
  0
LINE
  5
3A9
  8
0
 10
114.64629452696769
 20
64.203397747203041
 30
0.0
 11
125.5015218965337
 21
64.203397747203041
 31
0.0
  0
LINE
  5
3AA
  8
0
 10
114.64629452696769
 20
66.055898237994313
 30
0.0
 11
125.5015218965337
 21
66.055898237994313
 31
0.0
  0
LINE
  5
3AB
  8
0
 10
114.64629452696769
 20
57.301181048794597
 30
0.0
 11
125.5015218965337
 21
57.301181048795293
 31
0.0
  0
LINE
  5
3AC
  8
0
 10
114.64629452696769
 20
58.719311582849457
 30
0.0
 11
125.5015218965337
 21
58.719311582849457
 31
0.0
  0
POLYLINE
  5
3AD
  8
0
 66
     1
 10
0.0
 20
0.0
 30
0.0
 70
     8
  0
VERTEX
  5
467
  8
0
 10
114.64629452696749
 20
53.606988320661941
 30
0.0
 70
    32
1001
ACAD
1000
R13OBJECT
1002
{
1005
3AD
1002
}
  0
VERTEX
  5
468
  8
0
 10
114.16487469407809
 20
53.538709290604061
 30
0.0
 70
    32
1001
ACAD
1000
R13OBJECT
1002
{
1005
3AD
1002
}
  0
VERTEX
  5
469
  8
0
 10
113.8679779653644
 20
53.351017499362747
 30
0.0
 70
    32
1001
ACAD
1000
R13OBJECT
1002
{
1005
3AD
1002
}
  0
VERTEX
  5
46A
  8
0
 10
113.8679779653644
 20
53.114953160042361
 30
0.0
 70
    32
1001
ACAD
1000
R13OBJECT
1002
{
1005
3AD
1002
}
  0
VERTEX
  5
46B
  8
0
 10
114.16487469407809
 20
52.91986520399864
 30
0.0
 70
    32
1001
ACAD
1000
R13OBJECT
1002
{
1005
3AD
1002
}
  0
VERTEX
  5
46C
  8
0
 10
114.64629452696759
 20
52.839593248189693
 30
0.0
 70
    32
1001
ACAD
1000
R13OBJECT
1002
{
1005
3AD
1002
}
  0
SEQEND
  5
46D
  8
0
  0
LINE
  5
3AE
  8
0
 10
114.6166555934539
 20
53.604502209164053
 30
0.0
 11
114.6166555934539
 21
53.610710030643219
 31
0.0
  0
LINE
  5
3AF
  8
0
 10
114.64629452696769
 20
51.530032623470241
 30
0.0
 11
113.37390821175011
 21
52.802418938688021
 31
0.0
  0
POLYLINE
  5
3B0
  8
0
 66
     1
 10
0.0
 20
0.0
 30
0.0
 70
     8
  0
VERTEX
  5
46E
  8
0
 10
113.8219281555928
 20
73.526471377116593
 30
0.0
 70
    32
1001
ACAD
1000
R13OBJECT
1002
{
1005
3B0
1002
}
  0
VERTEX
  5
46F
  8
0
 10
113.93237230733141
 20
73.026452642369705
 30
0.0
 70
    32
1001
ACAD
1000
R13OBJECT
1002
{
1005
3B0
1002
}
  0
VERTEX
  5
470
  8
0
 10
114.23411134128
 20
72.660413523798667
 30
0.0
 70
    32
1001
ACAD
1000
R13OBJECT
1002
{
1005
3B0
1002
}
  0
VERTEX
  5
471
  8
0
 10
114.6462945269672
 20
72.526433907622788
 30
0.0
 70
    32
1001
ACAD
1000
R13OBJECT
1002
{
1005
3B0
1002
}
  0
SEQEND
  5
472
  8
0
  0
LINE
  5
3B1
  8
0
 10
114.6462945269674
 20
52.839593248189573
 30
0.0
 11
114.64629452696769
 21
51.530032623470241
 31
0.0
  0
LINE
  5
3B2
  8
0
 10
114.64629452696769
 20
57.301181048794597
 30
0.0
 11
114.64629452696791
 21
53.607032576803618
 31
0.0
  0
LINE
  5
3B3
  8
0
 10
114.64629452696769
 20
64.203397747203041
 30
0.0
 11
114.64629452696769
 21
58.719311582849457
 31
0.0
  0
LINE
  5
3B4
  8
0
 10
114.64629452696791
 20
72.526433907622902
 30
0.0
 11
114.64629452696769
 21
66.055898237994313
 31
0.0
  0
ARC
  5
3B7
  8
0
 10
113.4131182117512
 20
56.165681377115277
 30
0.0
 40
0.6392100000000001
 50
180.0
 51
266.48319208362358
1001
GENIUS_GENODEF_13
1002
{
1000
HIER
1070
     0
1002
}
1002
{
1000
MANEDIT
1070
     0
1002
}
1002
{
1000
NOSEL
1070
     0
1002
}
1002
{
1000
BEHIND
1070
     0
1002
}
1002
{
1000
REACTOR
1002
}
1001
GENIUS_GENOBJ-N-FIL_13
1002
{
1000
OWNER
1000
GEN
1002
}
  0
LINE
  5
3B9
  8
0
 10
136.47390821175139
 20
81.235659222503116
 30
0.0
 11
136.47390821175111
 21
65.817283531730055
 31
0.0
  0
LINE
  5
3BA
  8
0
 10
135.6830960571375
 20
65.026471377116451
 30
0.0
 11
136.47390821175139
 21
65.817283531730055
 31
0.0
  0
LINE
  5
3BB
  8
0
 10
125.5015218965337
 20
72.526433907622902
 30
0.0
 11
114.6462945269672
 21
72.526433907622902
 31
0.0
  0
LINE
  5
3BC
  8
0
 10
135.6830960571375
 20
65.026471377116451
 30
0.0
 11
126.7742479503856
 21
65.026471377115087
 31
0.0
  0
POLYLINE
  5
3BD
  8
0
 66
     1
 10
0.0
 20
0.0
 30
0.0
 70
     8
  0
VERTEX
  5
473
  8
0
 10
114.674295233774
 20
66.056307805075576
 30
0.0
 70
    32
1001
ACAD
1000
R13OBJECT
1002
{
1005
3BD
1002
}
  0
VERTEX
  5
474
  8
0
 10
114.2621013857483
 20
65.931521383017653
 30
0.0
 70
    32
1001
ACAD
1000
R13OBJECT
1002
{
1005
3BD
1002
}
  0
VERTEX
  5
475
  8
0
 10
113.9603545464261
 20
65.591983376733623
 30
0.0
 70
    32
1001
ACAD
1000
R13OBJECT
1002
{
1005
3BD
1002
}
  0
VERTEX
  5
476
  8
0
 10
113.8499075377225
 20
65.128672720806932
 30
0.0
 70
    32
1001
ACAD
1000
R13OBJECT
1002
{
1005
3BD
1002
}
  0
VERTEX
  5
477
  8
0
 10
113.9603545464261
 20
64.665733131337902
 30
0.0
 70
    32
1001
ACAD
1000
R13OBJECT
1002
{
1005
3BD
1002
}
  0
VERTEX
  5
478
  8
0
 10
114.2621013857483
 20
64.327208897469134
 30
0.0
 70
    32
1001
ACAD
1000
R13OBJECT
1002
{
1005
3BD
1002
}
  0
VERTEX
  5
479
  8
0
 10
114.6742952337741
 20
64.203807314284177
 30
0.0
 70
    32
1001
ACAD
1000
R13OBJECT
1002
{
1005
3BD
1002
}
  0
SEQEND
  5
47A
  8
0
  0
POLYLINE
  5
3BE
  8
0
 66
     1
 10
0.0
 20
0.0
 30
0.0
 70
     8
  0
VERTEX
  5
47B
  8
0
 10
114.6741569608799
 20
58.719247483025697
 30
0.0
 70
    32
1001
ACAD
1000
R13OBJECT
1002
{
1005
3BE
1002
}
  0
VERTEX
  5
47C
  8
0
 10
114.189580469867
 20
58.585376067619457
 30
0.0
 70
    32
1001
ACAD
1000
R13OBJECT
1002
{
1005
3BE
1002
}
  0
VERTEX
  5
47D
  8
0
 10
113.8900957282718
 20
58.231848567508813
 30
0.0
 70
    32
1001
ACAD
1000
R13OBJECT
1002
{
1005
3BE
1002
}
  0
VERTEX
  5
47E
  8
0
 10
113.8900957282718
 20
57.793700471778209
 30
0.0
 70
    32
1001
ACAD
1000
R13OBJECT
1002
{
1005
3BE
1002
}
  0
VERTEX
  5
47F
  8
0
 10
114.189580469867
 20
57.438289460890722
 30
0.0
 70
    32
1001
ACAD
1000
R13OBJECT
1002
{
1005
3BE
1002
}
  0
VERTEX
  5
480
  8
0
 10
114.6741569608799
 20
57.301370461029357
 30
0.0
 70
    32
1001
ACAD
1000
R13OBJECT
1002
{
1005
3BE
1002
}
  0
SEQEND
  5
481
  8
0
  0
LINE
  5
3C0
  8
0
 10
114.64629452696769
 20
51.530032623470241
 30
0.0
 11
125.5015218965337
 21
51.530032623468202
 31
0.0
  0
LINE
  5
3C1
  8
0
 10
125.5015218965337
 20
51.530032623470241
 30
0.0
 11
126.7739082117513
 21
52.802418938688021
 31
0.0
  0
LINE
  5
3C4
  8
0
 10
126.7739082117513
 20
94.250523815545165
 30
0.0
 11
126.7739082117513
 21
52.802418938688021
 31
0.0
  0
LINE
  5
3C5
  8
0
 10
125.5015218965336
 20
89.7517617054379
 30
0.0
 11
125.501521896534
 21
93.448900620343778
 31
0.0
  0
LINE
  5
3C6
  8
0
 10
114.64629452696769
 20
89.751761705438597
 30
0.0
 11
114.64629452696791
 21
93.445910177429553
 31
0.0
  0
LINE
  5
3C7
  8
0
 10
113.37390821175011
 20
52.802418938688021
 30
0.0
 11
113.37390821175011
 21
94.250523815545165
 31
0.0
  0
ARC
  5
3C8
  8
0
 10
113.4131182117512
 20
90.887261377117909
 30
0.0
 40
0.6392100000000001
 50
93.516807916376393
 51
180.0
1001
GENIUS_GENODEF_13
1002
{
1000
HIER
1070
     0
1002
}
1002
{
1000
MANEDIT
1070
     0
1002
}
1002
{
1000
NOSEL
1070
     0
1002
}
1002
{
1000
BEHIND
1070
     0
1002
}
1002
{
1000
REACTOR
1002
}
1001
GENIUS_GENOBJ-N-FIL_13
1002
{
1000
OWNER
1000
GEN
1002
}
  0
LINE
  5
3C9
  8
0
 10
114.64629452696769
 20
94.2133495060435
 30
0.0
 11
125.501521896534
 21
94.213349506045446
 31
0.0
  0
LINE
  5
3CA
  8
0
 10
114.64629452696791
 20
93.445910177429553
 30
0.0
 11
125.501521896534
 21
93.445910177428885
 31
0.0
  0
LINE
  5
3CB
  8
0
 10
114.64629452696769
 20
95.522910130762938
 30
0.0
 11
125.5015218965337
 21
95.522910130764984
 31
0.0
  0
LINE
  5
3CC
  8
0
 10
125.5015218965337
 20
95.522910130762938
 30
0.0
 11
126.7739082117513
 21
94.250523815545165
 31
0.0
  0
LINE
  5
3CD
  8
0
 10
125.501521896534
 20
94.213387553098613
 30
0.0
 11
125.5015218965337
 21
95.522910130765013
 31
0.0
  0
POLYLINE
  5
3CE
  8
0
 66
     1
 10
0.0
 20
0.0
 30
0.0
 70
     8
  0
VERTEX
  5
487
  8
0
 10
125.501521896534
 20
94.213387553098585
 30
0.0
 70
    32
1001
ACAD
1000
R13OBJECT
1002
{
1005
3CE
1002
}
  0
VERTEX
  5
488
  8
0
 10
125.9000779618562
 20
94.175289644928114
 30
0.0
 70
    32
1001
ACAD
1000
R13OBJECT
1002
{
1005
3CE
1002
}
  0
VERTEX
  5
489
  8
0
 10
126.1918412513367
 20
94.044978212357321
 30
0.0
 70
    32
1001
ACAD
1000
R13OBJECT
1002
{
1005
3CE
1002
}
  0
VERTEX
  5
48A
  8
0
 10
126.2986340271783
 20
93.857370098508113
 30
0.0
 70
    32
1001
ACAD
1000
R13OBJECT
1002
{
1005
3CE
1002
}
  0
VERTEX
  5
48B
  8
0
 10
126.1918412513367
 20
93.662734745979947
 30
0.0
 70
    32
1001
ACAD
1000
R13OBJECT
1002
{
1005
3CE
1002
}
  0
VERTEX
  5
48C
  8
0
 10
125.9000779618562
 20
93.513224540301223
 30
0.0
 70
    32
1001
ACAD
1000
R13OBJECT
1002
{
1005
3CE
1002
}
  0
VERTEX
  5
48D
  8
0
 10
125.501521896534
 20
93.448900620343807
 30
0.0
 70
    32
1001
ACAD
1000
R13OBJECT
1002
{
1005
3CE
1002
}
  0
SEQEND
  5
48E
  8
0
  0
LINE
  5
3CF
  8
0
 10
114.64629452696769
 20
95.522910130762938
 30
0.0
 11
113.37390821175011
 21
94.250523815545165
 31
0.0
  0
LINE
  5
3D0
  8
0
 10
114.6462945269674
 20
94.213349506043613
 30
0.0
 11
114.64629452696769
 21
95.522910130762938
 31
0.0
  0
POLYLINE
  5
3D1
  8
0
 66
     1
 10
0.0
 20
0.0
 30
0.0
 70
     8
  0
VERTEX
  5
48F
  8
0
 10
114.64629452696749
 20
93.445954433571245
 30
0.0
 70
    32
1001
ACAD
1000
R13OBJECT
1002
{
1005
3D1
1002
}
  0
VERTEX
  5
490
  8
0
 10
114.16487469407809
 20
93.514233463629125
 30
0.0
 70
    32
1001
ACAD
1000
R13OBJECT
1002
{
1005
3D1
1002
}
  0
VERTEX
  5
491
  8
0
 10
113.8679779653644
 20
93.701925254870432
 30
0.0
 70
    32
1001
ACAD
1000
R13OBJECT
1002
{
1005
3D1
1002
}
  0
VERTEX
  5
492
  8
0
 10
113.8679779653644
 20
93.937989594190825
 30
0.0
 70
    32
1001
ACAD
1000
R13OBJECT
1002
{
1005
3D1
1002
}
  0
VERTEX
  5
493
  8
0
 10
114.16487469407809
 20
94.133077550234546
 30
0.0
 70
    32
1001
ACAD
1000
R13OBJECT
1002
{
1005
3D1
1002
}
  0
VERTEX
  5
494
  8
0
 10
114.64629452696759
 20
94.2133495060435
 30
0.0
 70
    32
1001
ACAD
1000
R13OBJECT
1002
{
1005
3D1
1002
}
  0
SEQEND
  5
495
  8
0
  0
LINE
  5
3D2
  8
0
 10
114.6166555934539
 20
93.448440545069118
 30
0.0
 11
114.6166555934539
 21
93.442232723589967
 31
0.0
  0
LINE
  5
3D3
  8
0
 10
125.5015218965337
 20
74.526508846610284
 30
0.0
 11
114.6462945269672
 21
74.526508846610284
 31
0.0
  0
LINE
  5
3D4
  8
0
 10
114.64629452696769
 20
88.333631171383729
 30
0.0
 11
125.5015218965337
 21
88.333631171383729
 31
0.0
  0
LINE
  5
3D5
  8
0
 10
114.64629452696769
 20
89.751761705438597
 30
0.0
 11
125.5015218965337
 21
89.7517617054379
 31
0.0
  0
LINE
  5
3D6
  8
0
 10
114.64629452696769
 20
80.997044516238873
 30
0.0
 11
125.5015218965337
 21
80.997044516238873
 31
0.0
  0
LINE
  5
3D7
  8
0
 10
114.64629452696769
 20
82.849545007030144
 30
0.0
 11
125.5015218965337
 21
82.849545007030144
 31
0.0
  0
LINE
  5
3D8
  8
0
 10
135.6830960571375
 20
82.026471377116735
 30
0.0
 11
135.68309605713881
 21
65.026471377116451
 31
0.0
  0
LINE
  5
3DA
  8
0
 10
135.6830960571375
 20
82.026471377116735
 30
0.0
 11
136.47390821175139
 21
81.235659222503116
 31
0.0
  0
POLYLINE
  5
3DB
  8
0
 66
     1
 10
0.0
 20
0.0
 30
0.0
 70
     8
  0
VERTEX
  5
496
  8
0
 10
125.47352118972741
 20
80.99663494915761
 30
0.0
 70
    32
1001
ACAD
1000
R13OBJECT
1002
{
1005
3DB
1002
}
  0
VERTEX
  5
497
  8
0
 10
125.8857150377531
 20
81.121421371215533
 30
0.0
 70
    32
1001
ACAD
1000
R13OBJECT
1002
{
1005
3DB
1002
}
  0
VERTEX
  5
498
  8
0
 10
126.18746187707529
 20
81.460959377499563
 30
0.0
 70
    32
1001
ACAD
1000
R13OBJECT
1002
{
1005
3DB
1002
}
  0
VERTEX
  5
499
  8
0
 10
126.2979088857788
 20
81.924270033426254
 30
0.0
 70
    32
1001
ACAD
1000
R13OBJECT
1002
{
1005
3DB
1002
}
  0
VERTEX
  5
49A
  8
0
 10
126.18746187707529
 20
82.387209622895284
 30
0.0
 70
    32
1001
ACAD
1000
R13OBJECT
1002
{
1005
3DB
1002
}
  0
VERTEX
  5
49B
  8
0
 10
125.8857150377531
 20
82.725733856764052
 30
0.0
 70
    32
1001
ACAD
1000
R13OBJECT
1002
{
1005
3DB
1002
}
  0
VERTEX
  5
49C
  8
0
 10
125.47352118972729
 20
82.849135439949009
 30
0.0
 70
    32
1001
ACAD
1000
R13OBJECT
1002
{
1005
3DB
1002
}
  0
SEQEND
  5
49D
  8
0
  0
LINE
  5
3DC
  8
0
 10
135.6830960571375
 20
82.026471377116735
 30
0.0
 11
126.7742479503856
 21
82.026471377118099
 31
0.0
  0
LINE
  5
3DD
  8
0
 10
125.5015218965337
 20
82.849545007030031
 30
0.0
 11
125.5015218965337
 21
88.334012653918137
 31
0.0
  0
POLYLINE
  5
3DE
  8
0
 66
     1
 10
0.0
 20
0.0
 30
0.0
 70
     8
  0
VERTEX
  5
49E
  8
0
 10
125.4736594626215
 20
88.333695271207489
 30
0.0
 70
    32
1001
ACAD
1000
R13OBJECT
1002
{
1005
3DE
1002
}
  0
VERTEX
  5
49F
  8
0
 10
125.9582359536344
 20
88.467566686613722
 30
0.0
 70
    32
1001
ACAD
1000
R13OBJECT
1002
{
1005
3DE
1002
}
  0
VERTEX
  5
4A0
  8
0
 10
126.25772069522959
 20
88.821094186724366
 30
0.0
 70
    32
1001
ACAD
1000
R13OBJECT
1002
{
1005
3DE
1002
}
  0
VERTEX
  5
4A1
  8
0
 10
126.25772069522959
 20
89.259242282454963
 30
0.0
 70
    32
1001
ACAD
1000
R13OBJECT
1002
{
1005
3DE
1002
}
  0
VERTEX
  5
4A2
  8
0
 10
125.9582359536344
 20
89.614653293342457
 30
0.0
 70
    32
1001
ACAD
1000
R13OBJECT
1002
{
1005
3DE
1002
}
  0
VERTEX
  5
4A3
  8
0
 10
125.4736594626215
 20
89.751572293203822
 30
0.0
 70
    32
1001
ACAD
1000
R13OBJECT
1002
{
1005
3DE
1002
}
  0
SEQEND
  5
4A4
  8
0
  0
LINE
  5
3E0
  8
0
 10
125.5015218965337
 20
74.525931546671416
 30
0.0
 11
125.5015218965337
 21
80.997216425453701
 31
0.0
  0
POLYLINE
  5
3E2
  8
0
 66
     1
 10
0.0
 20
0.0
 30
0.0
 70
     8
  0
VERTEX
  5
4AA
  8
0
 10
114.674295233774
 20
80.99663494915761
 30
0.0
 70
    32
1001
ACAD
1000
R13OBJECT
1002
{
1005
3E2
1002
}
  0
VERTEX
  5
4AB
  8
0
 10
114.2621013857483
 20
81.121421371215533
 30
0.0
 70
    32
1001
ACAD
1000
R13OBJECT
1002
{
1005
3E2
1002
}
  0
VERTEX
  5
4AC
  8
0
 10
113.9603545464261
 20
81.460959377499563
 30
0.0
 70
    32
1001
ACAD
1000
R13OBJECT
1002
{
1005
3E2
1002
}
  0
VERTEX
  5
4AD
  8
0
 10
113.8499075377225
 20
81.924270033426254
 30
0.0
 70
    32
1001
ACAD
1000
R13OBJECT
1002
{
1005
3E2
1002
}
  0
VERTEX
  5
4AE
  8
0
 10
113.9603545464261
 20
82.387209622895284
 30
0.0
 70
    32
1001
ACAD
1000
R13OBJECT
1002
{
1005
3E2
1002
}
  0
VERTEX
  5
4AF
  8
0
 10
114.2621013857483
 20
82.725733856764052
 30
0.0
 70
    32
1001
ACAD
1000
R13OBJECT
1002
{
1005
3E2
1002
}
  0
VERTEX
  5
4B0
  8
0
 10
114.6742952337741
 20
82.849135439949009
 30
0.0
 70
    32
1001
ACAD
1000
R13OBJECT
1002
{
1005
3E2
1002
}
  0
SEQEND
  5
4B1
  8
0
  0
LINE
  5
3E3
  8
0
 10
112.77390821175121
 20
56.165681377115277
 30
0.0
 11
112.7739082117513
 21
90.887261377117909
 31
0.0
  0
LINE
  5
3E4
  8
0
 10
114.64629452696769
 20
82.849545007030144
 30
0.0
 11
114.64629452696769
 21
88.333631171383729
 31
0.0
  0
POLYLINE
  5
3E5
  8
0
 66
     1
 10
0.0
 20
0.0
 30
0.0
 70
     8
  0
VERTEX
  5
4B2
  8
0
 10
114.6741569608799
 20
88.333695271207489
 30
0.0
 70
    32
1001
ACAD
1000
R13OBJECT
1002
{
1005
3E5
1002
}
  0
VERTEX
  5
4B3
  8
0
 10
114.189580469867
 20
88.467566686613722
 30
0.0
 70
    32
1001
ACAD
1000
R13OBJECT
1002
{
1005
3E5
1002
}
  0
VERTEX
  5
4B4
  8
0
 10
113.8900957282718
 20
88.821094186724366
 30
0.0
 70
    32
1001
ACAD
1000
R13OBJECT
1002
{
1005
3E5
1002
}
  0
VERTEX
  5
4B5
  8
0
 10
113.8900957282718
 20
89.259242282454963
 30
0.0
 70
    32
1001
ACAD
1000
R13OBJECT
1002
{
1005
3E5
1002
}
  0
VERTEX
  5
4B6
  8
0
 10
114.189580469867
 20
89.614653293342457
 30
0.0
 70
    32
1001
ACAD
1000
R13OBJECT
1002
{
1005
3E5
1002
}
  0
VERTEX
  5
4B7
  8
0
 10
114.6741569608799
 20
89.751572293203822
 30
0.0
 70
    32
1001
ACAD
1000
R13OBJECT
1002
{
1005
3E5
1002
}
  0
SEQEND
  5
4B8
  8
0
  0
LINE
  5
3E6
  8
0
 10
114.64629452696791
 20
74.526508846610284
 30
0.0
 11
114.64629452696769
 21
80.997044516238873
 31
0.0
  0
POLYLINE
  5
3E7
  8
0
 66
     1
 10
0.0
 20
0.0
 30
0.0
 70
     8
  0
VERTEX
  5
4B9
  8
0
 10
113.8219281555928
 20
73.526471377116593
 30
0.0
 70
    32
1001
ACAD
1000
R13OBJECT
1002
{
1005
3E7
1002
}
  0
VERTEX
  5
4BA
  8
0
 10
113.93237230733141
 20
74.026490111863481
 30
0.0
 70
    32
1001
ACAD
1000
R13OBJECT
1002
{
1005
3E7
1002
}
  0
VERTEX
  5
4BB
  8
0
 10
114.23411134128
 20
74.392529230434519
 30
0.0
 70
    32
1001
ACAD
1000
R13OBJECT
1002
{
1005
3E7
1002
}
  0
VERTEX
  5
4BC
  8
0
 10
114.6462945269672
 20
74.526508846610383
 30
0.0
 70
    32
1001
ACAD
1000
R13OBJECT
1002
{
1005
3E7
1002
}
  0
SEQEND
  5
4BD
  8
0
  0
CIRCLE
  5
3E8
  8
0
 10
60.663433798847763
 20
73.526471377116593
 30
0.0
 40
8.1500000000000004
  0
CIRCLE
  5
3E9
  8
0
 10
60.663433798847763
 20
73.526471377116593
 30
0.0
 40
7.0
  0
LINE
  5
3EA
  8
1
 10
60.663433798847763
 20
100.5229101307643
 30
0.0
 11
60.663433798847763
 21
46.53003262346882
 31
0.0
  0
LINE
  5
3EB
  8
1
 10
87.659872552495528
 20
73.526471377116593
 30
0.0
 11
33.666995045199997
 21
73.526471377116593
 31
0.0
  0
ARC
  5
3EC
  8
0
 10
60.663433798847763
 20
73.526471377116593
 30
0.0
 40
21.996438753647741
 50
205.1057710495833
 51
222.39422895041619
  0
CIRCLE
  5
3ED
  8
0
 10
60.663433798847763
 20
73.526471377116593
 30
0.0
 40
17.998796269562941
  0
CIRCLE
  5
3EE
  8
0
 10
60.663433798847763
 20
73.526471377116593
 30
0.0
 40
20.724052438428568
  0
ARC
  5
3EF
  8
0
 10
38.677860208979268
 20
73.52647137711665
 30
0.0
 40
1.000108022662179
 50
270.6805734283833
 51
89.319426571612524
  0
ARC
  5
3F0
  8
0
 10
40.35141234864755
 20
65.112956613230523
 30
0.0
 40
1.000108022662179
 50
293.18057342838341
 51
111.8194265716125
  0
ARC
  5
3F1
  8
0
 10
45.117285625175839
 20
57.98032320344479
 30
0.0
 40
1.000108022662179
 50
315.68057342838341
 51
134.3194265716125
  0
ARC
  5
3F2
  8
0
 10
52.249919034961522
 20
53.214449926916423
 30
0.0
 40
1.000108022662179
 50
338.18057342838341
 51
156.81942657161241
  0
ARC
  5
3F3
  8
0
 10
60.663433798847699
 20
51.54089778724807
 30
0.0
 40
1.000108022662179
 50
0.6805734283833154
 51
179.3194265716125
  0
ARC
  5
3F4
  8
0
 10
69.076948562733833
 20
53.21444992691633
 30
0.0
 40
1.000108022662179
 50
23.180573428383308
 51
201.8194265716125
  0
ARC
  5
3F5
  8
0
 10
76.209581972519629
 20
57.980323203444641
 30
0.0
 40
1.000108022662179
 50
45.68057342838339
 51
224.3194265716125
  0
ARC
  5
3F6
  8
0
 10
80.975455249047926
 20
65.112956613230423
 30
0.0
 40
1.000108022662179
 50
68.180573428383312
 51
246.8194265716125
  0
ARC
  5
3F7
  8
0
 10
82.649007388716257
 20
73.526471377116479
 30
0.0
 40
1.000108022662179
 50
90.680573428383312
 51
269.3194265716125
  0
ARC
  5
3F8
  8
0
 10
80.975455249047968
 20
81.939986141002692
 30
0.0
 40
1.000108022662179
 50
113.1805734283833
 51
291.8194265716125
  0
ARC
  5
3F9
  8
0
 10
76.209581972519572
 20
89.072619550788417
 30
0.0
 40
1.000108022662179
 50
135.6805734283833
 51
314.31942657161238
  0
ARC
  5
3FA
  8
0
 10
69.076948562734003
 20
93.83849282731677
 30
0.0
 40
1.000108022662179
 50
158.1805734283833
 51
336.8194265716125
  0
ARC
  5
3FB
  8
0
 10
60.663433798847841
 20
95.512044966985087
 30
0.0
 40
1.000108022662179
 50
180.6805734283833
 51
359.3194265716125
  0
ARC
  5
3FC
  8
0
 10
52.249919034961643
 20
93.838492827316827
 30
0.0
 40
1.000108022662179
 50
203.18057342838341
 51
21.819426571612532
  0
ARC
  5
3FD
  8
0
 10
45.117285625175917
 20
89.072619550788488
 30
0.0
 40
1.000108022662179
 50
225.68057342838341
 51
44.319426571612532
  0
ARC
  5
3FE
  8
0
 10
40.35141234864755
 20
81.939986141002748
 30
0.0
 40
1.000108022662179
 50
248.18057342838341
 51
66.81942657161261
  0
ARC
  5
3FF
  8
0
 10
60.663433798847763
 20
73.526471377116593
 30
0.0
 40
21.996438753647741
 50
227.6057710495833
 51
244.89422895041619
  0
ARC
  5
400
  8
0
 10
60.663433798847763
 20
73.526471377116593
 30
0.0
 40
21.996438753647741
 50
250.1057710495833
 51
267.39422895041639
  0
ARC
  5
401
  8
0
 10
60.663433798847763
 20
73.526471377116593
 30
0.0
 40
21.996438753647741
 50
272.60577104958338
 51
289.89422895041628
  0
ARC
  5
402
  8
0
 10
60.663433798847763
 20
73.526471377116593
 30
0.0
 40
21.996438753647741
 50
182.6057710495833
 51
199.89422895041631
  0
ARC
  5
403
  8
0
 10
60.663433798847763
 20
73.526471377116593
 30
0.0
 40
21.996438753647741
 50
160.1057710495835
 51
177.39422895041631
  0
ARC
  5
404
  8
0
 10
60.663433798847763
 20
73.526471377116593
 30
0.0
 40
21.996438753647741
 50
137.60577104958341
 51
154.8942289504165
  0
ARC
  5
405
  8
0
 10
60.663433798847763
 20
73.526471377116593
 30
0.0
 40
21.996438753647741
 50
115.1057710495835
 51
132.39422895041631
  0
ARC
  5
406
  8
0
 10
60.663433798847763
 20
73.526471377116593
 30
0.0
 40
21.996438753647741
 50
92.605771049583339
 51
109.89422895041641
  0
ARC
  5
407
  8
0
 10
60.663433798847763
 20
73.526471377116593
 30
0.0
 40
21.996438753647741
 50
295.10577104958332
 51
312.39422895041628
  0
ARC
  5
408
  8
0
 10
60.663433798847763
 20
73.526471377116593
 30
0.0
 40
21.996438753647741
 50
317.60577104958338
 51
334.8942289504165
  0
ARC
  5
409
  8
0
 10
60.663433798847763
 20
73.526471377116593
 30
0.0
 40
21.996438753647741
 50
340.10577104958338
 51
357.39422895041622
  0
ARC
  5
40A
  8
0
 10
60.663433798847763
 20
73.526471377116593
 30
0.0
 40
21.996438753647741
 50
2.6057710495831801
 51
19.894228950416419
  0
ARC
  5
40B
  8
0
 10
60.663433798847763
 20
73.526471377116593
 30
0.0
 40
21.996438753647741
 50
25.105771049583421
 51
42.394228950416569
  0
ARC
  5
40C
  8
0
 10
60.663433798847763
 20
73.526471377116593
 30
0.0
 40
21.996438753647741
 50
47.605771049583581
 51
64.894228950416164
  0
ARC
  5
40D
  8
0
 10
60.663433798847763
 20
73.526471377116593
 30
0.0
 40
21.996438753647741
 50
70.105771049583254
 51
87.394228950416249
  0
LINE
  5
F2B
  8
3
 10
136.77390821175129
 20
70.526471377116593
 30
0.0
 11
137.67390821175121
 21
71.139971377116581
 31
0.0
  0
LINE
  5
F2C
  8
3
 10
146.77390821175129
 20
71.139971377116581
 30
0.0
 11
137.67390821175121
 21
71.139971377116581
 31
0.0
  0
LINE
  5
F2D
  8
0
 10
137.67390821175121
 20
76.526471377116593
 30
0.0
 11
137.67390821175121
 21
70.526471377116593
 31
0.0
  0
LINE
  5
F2E
  8
3
 10
136.77390821175129
 20
76.526471377116593
 30
0.0
 11
137.67390821175121
 21
75.912971377116605
 31
0.0
  0
LINE
  5
F2F
  8
3
 10
146.77390821175129
 20
75.912971377116605
 30
0.0
 11
137.67390821175121
 21
75.912971377116605
 31
0.0
  0
LINE
  5
F30
  8
0
 10
146.1604082117513
 20
76.526471377116593
 30
0.0
 11
146.1604082117513
 21
70.526471377116593
 31
0.0
  0
LINE
  5
F31
  8
0
 10
146.77390821175129
 20
75.912971377116605
 30
0.0
 11
146.77390821175129
 21
71.139971377116581
 31
0.0
  0
LINE
  5
F33
  8
0
 10
136.77390821175129
 20
77.526471377116593
 30
0.0
 11
136.77390821175129
 21
69.526471377116593
 31
0.0
  0
LINE
  5
F34
  8
0
 10
146.1604082117513
 20
70.526471377116593
 30
0.0
 11
136.77390821175129
 21
70.526471377116593
 31
0.0
  0
LINE
  5
F35
  8
0
 10
136.77390821175129
 20
76.526471377116593
 30
0.0
 11
146.1604082117513
 21
76.526471377116593
 31
0.0
  0
LINE
  5
F36
  8
0
 10
146.77390821175129
 20
71.139971377116581
 30
0.0
 11
146.16040821175119
 21
70.526471377116593
 31
0.0
  0
LINE
  5
F37
  8
0
 10
146.1604082117513
 20
76.526471377116593
 30
0.0
 11
146.77390821175129
 21
75.912971377116605
 31
0.0
  0
LINE
  5
F38
  8
0
 10
136.77390821175129
 20
69.526471377116593
 30
0.0
 11
136.47390821175119
 21
69.526471377116593
 31
0.0
  0
LINE
  5
F39
  8
0
 10
136.47390821175119
 20
77.526471377116593
 30
0.0
 11
136.77390821175129
 21
77.526471377116593
 31
0.0
  0
POLYLINE
  5
F9B
  8
0
 66
     1
 10
0.0
 20
0.0
 30
0.0
 70
     8
  0
VERTEX
  5
F9C
  8
0
 10
126.2979088857788
 20
73.526471377116593
 30
0.0
 70
    32
1001
ACAD
1000
R13OBJECT
1002
{
1005
3B0
1002
}
  0
VERTEX
  5
F9D
  8
0
 10
126.1874647340403
 20
73.026452642369705
 30
0.0
 70
    32
1001
ACAD
1000
R13OBJECT
1002
{
1005
3B0
1002
}
  0
VERTEX
  5
F9E
  8
0
 10
125.8857257000917
 20
72.660413523798667
 30
0.0
 70
    32
1001
ACAD
1000
R13OBJECT
1002
{
1005
3B0
1002
}
  0
VERTEX
  5
F9F
  8
0
 10
125.4735425144045
 20
72.526433907622788
 30
0.0
 70
    32
1001
ACAD
1000
R13OBJECT
1002
{
1005
3B0
1002
}
  0
SEQEND
  5
FA0
  8
0
  0
POLYLINE
  5
FA1
  8
0
 66
     1
 10
0.0
 20
0.0
 30
0.0
 70
     8
  0
VERTEX
  5
FA2
  8
0
 10
126.2979088857788
 20
73.526471377116593
 30
0.0
 70
    32
1001
ACAD
1000
R13OBJECT
1002
{
1005
3E7
1002
}
  0
VERTEX
  5
FA3
  8
0
 10
126.1874647340403
 20
74.026490111863481
 30
0.0
 70
    32
1001
ACAD
1000
R13OBJECT
1002
{
1005
3E7
1002
}
  0
VERTEX
  5
FA4
  8
0
 10
125.8857257000917
 20
74.392529230434519
 30
0.0
 70
    32
1001
ACAD
1000
R13OBJECT
1002
{
1005
3E7
1002
}
  0
VERTEX
  5
FA5
  8
0
 10
125.4735425144045
 20
74.526508846610383
 30
0.0
 70
    32
1001
ACAD
1000
R13OBJECT
1002
{
1005
3E7
1002
}
  0
SEQEND
  5
FA6
  8
0
  0
TEXT
  5
1038
  8
0
 62
     3
 10
0.0
 20
0.0
 30
0.0
 40
10.0
  1
KN45AX10SOFT
  7
STANDARD1
  0
ENDSEC
  0
EOF
