  0
SECTION
  2
HEADER
  9
$ACADVER
  1
AC1009
  9
$INSBASE
 10
0.0
 20
0.0
 30
0.0
  9
$EXTMIN
 10
0.0
 20
-2.960436562073669
 30
0.0
  9
$EXTMAX
 10
171.75
 20
98.052752882125731
 30
0.0
  9
$LIMMIN
 10
0.0
 20
0.0
  9
$LIMMAX
 10
187.5
 20
135.0
  9
$ORTHOMODE
 70
     1
  9
$REGENMODE
 70
     1
  9
$FILLMODE
 70
     1
  9
$QTEXTMODE
 70
     0
  9
$MIRRTEXT
 70
     0
  9
$DRAGMODE
 70
     2
  9
$LTSCALE
 40
5.0
  9
$OSMODE
 70
  3071
  9
$ATTMODE
 70
     1
  9
$TEXTSIZE
 40
5.0
  9
$TRACEWID
 40
0.05
  9
$TEXTSTYLE
  7
STANDARD
  9
$CLAYER
  8
0
  9
$CELTYPE
  6
BYLAYER
  9
$CECOLOR
 62
   256
  9
$DIMSCALE
 40
0.5
  9
$DIMASZ
 40
3.0
  9
$DIMEXO
 40
2.0
  9
$DIMDLI
 40
0.38
  9
$DIMRND
 40
0.0
  9
$DIMDLE
 40
0.0
  9
$DIMEXE
 40
2.0
  9
$DIMTP
 40
0.0
  9
$DIMTM
 40
0.0
  9
$DIMTXT
 40
3.2000000000000002
  9
$DIMCEN
 40
0.0
  9
$DIMTSZ
 40
0.0
  9
$DIMTOL
 70
     0
  9
$DIMLIM
 70
     0
  9
$DIMTIH
 70
     0
  9
$DIMTOH
 70
     0
  9
$DIMSE1
 70
     0
  9
$DIMSE2
 70
     0
  9
$DIMTAD
 70
     1
  9
$DIMZIN
 70
     0
  9
$DIMBLK
  1

  9
$DIMASO
 70
     0
  9
$DIMSHO
 70
     0
  9
$DIMPOST
  1

  9
$DIMAPOST
  1

  9
$DIMALT
 70
     0
  9
$DIMALTD
 70
     2
  9
$DIMALTF
 40
25.399999999999999
  9
$DIMLFAC
 40
1.0
  9
$DIMTOFL
 70
     1
  9
$DIMTVP
 40
1.6000000000000001
  9
$DIMTIX
 70
     1
  9
$DIMSOXD
 70
     0
  9
$DIMSAH
 70
     0
  9
$DIMBLK1
  1

  9
$DIMBLK2
  1

  9
$DIMSTYLE
  2
STANDARD
  9
$DIMCLRD
 70
     0
  9
$DIMCLRE
 70
     0
  9
$DIMCLRT
 70
     0
  9
$DIMTFAC
 40
1.0
  9
$DIMGAP
 40
0.09
  9
$LUNITS
 70
     2
  9
$LUPREC
 70
     4
  9
$SKETCHINC
 40
0.1
  9
$FILLETRAD
 40
0.0
  9
$AUNITS
 70
     0
  9
$AUPREC
 70
     4
  9
$MENU
  1
E:\r13\win\SUPPORT\ACAD
  9
$ELEVATION
 40
0.0
  9
$PELEVATION
 40
0.0
  9
$THICKNESS
 40
0.0
  9
$LIMCHECK
 70
     0
  9
$BLIPMODE
 70
     0
  9
$CHAMFERA
 40
0.0
  9
$CHAMFERB
 40
0.0
  9
$SKPOLY
 70
     0
  9
$TDCREATE
 40
2449840.6523611108
  9
$TDUPDATE
 40
2456597.474215996
  9
$TDINDWG
 40
0.223829537
  9
$TDUSRTIMER
 40
0.223829537
  9
$USRTIMER
 70
     1
  9
$ANGBASE
 50
0.0
  9
$ANGDIR
 70
     0
  9
$PDMODE
 70
     0
  9
$PDSIZE
 40
0.0
  9
$PLINEWID
 40
0.0
  9
$COORDS
 70
     1
  9
$SPLFRAME
 70
     0
  9
$SPLINETYPE
 70
     6
  9
$SPLINESEGS
 70
     8
  9
$ATTDIA
 70
     0
  9
$ATTREQ
 70
     1
  9
$HANDLING
 70
     1
  9
$HANDSEED
  5
83C
  9
$SURFTAB1
 70
     6
  9
$SURFTAB2
 70
     6
  9
$SURFTYPE
 70
     6
  9
$SURFU
 70
     6
  9
$SURFV
 70
     6
  9
$UCSNAME
  2

  9
$UCSORG
 10
0.0
 20
0.0
 30
0.0
  9
$UCSXDIR
 10
1.0
 20
0.0
 30
0.0
  9
$UCSYDIR
 10
0.0
 20
1.0
 30
0.0
  9
$PUCSNAME
  2

  9
$PUCSORG
 10
0.0
 20
0.0
 30
0.0
  9
$PUCSXDIR
 10
1.0
 20
0.0
 30
0.0
  9
$PUCSYDIR
 10
0.0
 20
1.0
 30
0.0
  9
$USERI1
 70
     0
  9
$USERI2
 70
     1
  9
$USERI3
 70
     0
  9
$USERI4
 70
     0
  9
$USERI5
 70
     0
  9
$USERR1
 40
0.0
  9
$USERR2
 40
0.0
  9
$USERR3
 40
0.0
  9
$USERR4
 40
0.0
  9
$USERR5
 40
0.0
  9
$WORLDVIEW
 70
     1
  9
$SHADEDGE
 70
     3
  9
$SHADEDIF
 70
    70
  9
$TILEMODE
 70
     1
  9
$MAXACTVP
 70
    16
  9
$PLIMCHECK
 70
     0
  9
$PEXTMIN
 10
1.0000000000000000E+020
 20
1.0000000000000000E+020
 30
1.0000000000000000E+020
  9
$PEXTMAX
 10
-1.0000000000000000E+020
 20
-1.0000000000000000E+020
 30
-1.0000000000000000E+020
  9
$PLIMMIN
 10
0.0
 20
0.0
  9
$PLIMMAX
 10
12.0
 20
9.0
  9
$UNITMODE
 70
     0
  9
$VISRETAIN
 70
     0
  9
$PLINEGEN
 70
     0
  9
$PSLTSCALE
 70
     0
  0
ENDSEC
  0
SECTION
  2
TABLES
  0
TABLE
  2
VPORT
 70
     1
  0
VPORT
  2
*ACTIVE
 70
     0
 10
0.0
 20
0.0
 11
1.0
 21
1.0
 12
93.74713919532617
 22
80.848703909439024
 13
0.0
 23
0.0
 14
5.0
 24
5.0
 15
5.0
 25
5.0
 16
0.0
 26
0.0
 36
1.0
 17
0.0
 27
0.0
 37
0.0
 40
169.22413112104309
 41
1.9089595375722539
 42
50.0
 43
0.0
 44
0.0
 50
0.0
 51
0.0
 71
     0
 72
   500
 73
     1
 74
     0
 75
     0
 76
     0
 77
     0
 78
     2
  0
ENDTAB
  0
TABLE
  2
LTYPE
 70
     3
  0
LTYPE
  2
CONTINUOUS
 70
     0
  3
Solid Line
 72
    65
 73
     0
 40
0.0
  0
LTYPE
  2
CENTER
 70
     0
  3
____ _ ____ _ ____ _ ____ _ ____ _ ____ _ ____
 72
    65
 73
     4
 40
2.0
 49
1.25
 49
-0.25
 49
0.25
 49
-0.25
  0
LTYPE
  2
PHANTOM2
 70
     0
  3
___ _ _ ___ _ _ ___ _ _ ___ _ _
 72
    65
 73
     6
 40
1.25
 49
0.625
 49
-0.125
 49
0.125
 49
-0.125
 49
0.125
 49
-0.125
  0
ENDTAB
  0
TABLE
  2
LAYER
 70
     3
  0
LAYER
  2
0
 70
     0
 62
     7
  6
CONTINUOUS
  0
LAYER
  2
1
 70
     0
 62
     1
  6
CENTER
  0
LAYER
  2
3
 70
     0
 62
     3
  6
CONTINUOUS
  0
ENDTAB
  0
TABLE
  2
STYLE
 70
     2
  0
STYLE
  2
STANDARD
 70
     0
 40
0.0
 41
1.0
 50
0.0
 71
     0
 42
5.0
  3
TXT
  4
BIGFONT
  0
STYLE
  2
STANDARD1
 70
     0
 40
0.0
 41
1.0
 50
0.0
 71
     0
 42
3.0
  3
txt
  4

  0
ENDTAB
  0
TABLE
  2
VIEW
 70
     0
  0
ENDTAB
  0
TABLE
  2
UCS
 70
     0
  0
ENDTAB
  0
TABLE
  2
APPID
 70
     4
  0
APPID
  2
ACAD
 70
     0
  0
APPID
  2
ACAD_EXEMPT_FROM_CAD_STANDARDS
 70
     0
  0
APPID
  2
ACAD_MLEADERVER
 70
     0
  0
APPID
  2
ACAD_NAV_VCDISPLAY
 70
     0
  0
ENDTAB
  0
TABLE
  2
DIMSTYLE
 70
     1
  0
DIMSTYLE
  2
STANDARD
 70
     0
  3

  4

  5

  6

  7

 40
1.0
 41
0.18
 42
0.0625
 43
0.38
 44
0.18
 45
0.0
 46
0.0
 47
0.0
 48
0.0
140
0.18
141
0.09
142
0.0
143
25.399999999999999
144
1.0
145
0.0
146
1.0
147
0.09
 71
     0
 72
     0
 73
     1
 74
     1
 75
     0
 76
     0
 77
     0
 78
     0
170
     0
171
     2
172
     0
173
     0
174
     0
175
     0
176
     0
177
     0
178
     0
  0
ENDTAB
  0
ENDSEC
  0
SECTION
  2
BLOCKS
  0
BLOCK
  8
0
  2
$MODEL_SPACE
 70
     0
 10
0.0
 20
0.0
 30
0.0
  3
$MODEL_SPACE
  1

  0
ENDBLK
  5
6F1
  8
0
  0
BLOCK
 67
     1
  8
0
  2
$PAPER_SPACE
 70
     0
 10
0.0
 20
0.0
 30
0.0
  3
$PAPER_SPACE
  1

  0
ENDBLK
  5
6EF
 67
     1
  8
0
  0
ENDSEC
  0
SECTION
  2
ENTITIES
  0
LINE
  5
59A
  8
1
 10
45.749999999999972
 20
93.052752882125731
 30
0.0
 11
141.75
 21
93.052752882125731
 31
0.0
  0
LINE
  5
59B
  8
0
 10
56.750000000000107
 20
88.052752882125674
 30
0.0
 11
135.25
 21
88.052752882125674
 31
0.0
  0
LINE
  5
59C
  8
0
 10
56.750000000000107
 20
98.052752882125731
 30
0.0
 11
135.25
 21
98.052752882125731
 31
0.0
  0
LINE
  5
59D
  8
1
 10
45.749999999999972
 20
50.85234285685231
 30
0.0
 11
141.75
 21
50.85234285685231
 31
0.0
  0
LINE
  5
59E
  8
0
 10
56.750000000000107
 20
55.85234285685231
 30
0.0
 11
128.17264973081041
 21
55.852342856852331
 31
0.0
  0
LINE
  5
59F
  8
0
 10
56.750000000000107
 20
45.85234285685226
 30
0.0
 11
128.17264973081041
 21
45.852342856852289
 31
0.0
  0
ARC
  5
5A0
  8
0
 10
56.450000000000102
 20
53.65234285685225
 30
0.0
 40
0.3
 50
269.99999999999937
 51
0.0
  0
LINE
  5
5A1
  8
0
 10
56.750000000000128
 20
45.85234285685226
 30
0.0
 11
56.750000000000099
 21
55.852342856852303
 31
0.0
  0
LINE
  5
5A2
  8
0
 10
56.450000000000102
 20
53.35234285685226
 30
0.0
 11
51.649999999999949
 21
53.35234285685231
 31
0.0
  0
LINE
  5
5A3
  8
3
 10
56.000022000323071
 20
52.919342856852502
 30
0.0
 11
51.217000000000183
 21
52.919342856852502
 31
0.0
  0
LINE
  5
5A4
  8
3
 10
56.000022000323071
 20
48.785342856852139
 30
0.0
 11
51.217000000000183
 21
48.785342856852139
 31
0.0
  0
LINE
  5
5A5
  8
0
 10
56.450000000000102
 20
48.35234285685226
 30
0.0
 11
51.649999999999949
 21
48.35234285685226
 31
0.0
  0
LINE
  5
5A6
  8
0
 10
50.749999999999972
 20
49.252342856852351
 30
0.0
 11
50.749999999999972
 21
52.452342856852283
 31
0.0
  0
LINE
  5
5A7
  8
0
 10
51.649999999999999
 20
48.35234285685231
 30
0.0
 11
51.649999999999999
 21
53.35234285685231
 31
0.0
  0
LINE
  5
5A8
  8
0
 10
51.649999999999949
 20
48.35234285685226
 30
0.0
 11
50.749999999999972
 21
49.252342856852351
 31
0.0
  0
LINE
  5
5A9
  8
0
 10
50.749999999999972
 20
52.452342856852283
 30
0.0
 11
51.649999999999949
 21
53.35234285685231
 31
0.0
  0
LINE
  5
5AA
  8
0
 10
56.000022000323071
 20
48.35234285685226
 30
0.0
 11
56.000022000323071
 21
53.35234285685226
 31
0.0
  0
ARC
  5
5AB
  8
0
 10
56.450000000000102
 20
48.05234285685227
 30
0.0
 40
0.3
 50
0.0
 51
90.0
  0
LINE
  5
5AC
  8
3
 10
56.000022000323071
 20
48.785342856852139
 30
0.0
 11
56.749999999999972
 21
48.35234285685226
 31
0.0
  0
LINE
  5
5AD
  8
3
 10
56.000022000323071
 20
52.919342856852502
 30
0.0
 11
56.749999999999972
 21
53.35234285685226
 31
0.0
  0
LINE
  5
5AE
  8
0
 10
56.450000000000102
 20
95.552752882125674
 30
0.0
 11
51.649999999999949
 21
95.552752882125731
 31
0.0
  0
LINE
  5
5AF
  8
0
 10
56.450000000000102
 20
90.552752882125674
 30
0.0
 11
51.649999999999949
 21
90.552752882125674
 31
0.0
  0
LINE
  5
5B0
  8
3
 10
56.000022000323071
 20
95.119752882125908
 30
0.0
 11
51.217000000000183
 21
95.119752882125908
 31
0.0
  0
LINE
  5
5B1
  8
3
 10
56.000022000323071
 20
90.985752882125567
 30
0.0
 11
51.217000000000183
 21
90.985752882125567
 31
0.0
  0
LINE
  5
5B2
  8
0
 10
50.749999999999972
 20
91.452752882125765
 30
0.0
 11
50.749999999999972
 21
94.652752882125696
 31
0.0
  0
LINE
  5
5B3
  8
0
 10
51.649999999999999
 20
90.552752882125731
 30
0.0
 11
51.649999999999999
 21
95.552752882125731
 31
0.0
  0
LINE
  5
5B4
  8
0
 10
51.649999999999949
 20
90.552752882125674
 30
0.0
 11
50.749999999999972
 21
91.452752882125765
 31
0.0
  0
LINE
  5
5B5
  8
0
 10
50.749999999999972
 20
94.652752882125696
 30
0.0
 11
51.649999999999949
 21
95.552752882125731
 31
0.0
  0
LINE
  5
5B6
  8
0
 10
56.750000000000078
 20
88.052752882125674
 30
0.0
 11
56.750000000000099
 21
98.052752882125731
 31
0.0
  0
LINE
  5
5B7
  8
0
 10
56.000022000323071
 20
90.552752882125674
 30
0.0
 11
56.000022000323071
 21
95.552752882125674
 31
0.0
  0
ARC
  5
5B8
  8
0
 10
56.450000000000102
 20
90.252752882125677
 30
0.0
 40
0.3
 50
0.0
 51
90.0
  0
LINE
  5
5B9
  8
3
 10
56.000022000323071
 20
90.985752882125567
 30
0.0
 11
56.749999999999972
 21
90.552752882125674
 31
0.0
  0
ARC
  5
5BA
  8
0
 10
56.450000000000102
 20
95.852752882125685
 30
0.0
 40
0.3
 50
269.99999999999937
 51
0.0
  0
LINE
  5
5BB
  8
3
 10
56.000022000323071
 20
95.119752882125908
 30
0.0
 11
56.749999999999972
 21
95.552752882125674
 31
0.0
  0
LINE
  5
5BC
  8
0
 10
135.25
 20
54.852342856852331
 30
0.0
 11
135.25
 21
46.852342856852331
 31
0.0
  0
LINE
  5
5BD
  8
0
 10
136.75
 20
54.352342856852317
 30
0.0
 11
136.75
 21
47.352342856852317
 31
0.0
  0
LINE
  5
5BE
  8
0
 10
128.75
 20
46.852342856852331
 30
0.0
 11
136.25
 21
46.852342856852331
 31
0.0
  0
LINE
  5
5BF
  8
0
 10
128.75
 20
46.852342856852303
 30
0.0
 11
128.17264973081041
 21
45.852342856852289
 31
0.0
  0
LINE
  5
5C0
  8
0
 10
136.75
 20
47.352342856852317
 30
0.0
 11
136.25
 21
46.852342856852317
 31
0.0
  0
LINE
  5
5C1
  8
0
 10
128.75
 20
54.852342856852331
 30
0.0
 11
136.25
 21
54.852342856852317
 31
0.0
  0
LINE
  5
5C2
  8
0
 10
128.75
 20
54.852342856852331
 30
0.0
 11
128.17264973081041
 21
55.85234285685231
 31
0.0
  0
LINE
  5
5C3
  8
0
 10
136.75
 20
54.352342856852317
 30
0.0
 11
136.25
 21
54.852342856852317
 31
0.0
  0
LINE
  5
5C4
  8
3
 10
128.75
 20
90.052752882125844
 30
0.0
 11
135.25
 21
96.052752882125745
 31
0.0
  0
LINE
  5
5C5
  8
3
 10
128.75
 20
96.052752882125745
 30
0.0
 11
135.2500000000002
 21
90.052752882125716
 31
0.0
  0
ARC
  5
5C6
  8
0
 10
131.24999999999841
 20
93.052752882125617
 30
0.0
 40
5.0000000000013953
 50
323.13010235416817
 51
36.869897645833873
  0
ARC
  5
5C7
  8
0
 10
136.2555534994645
 20
93.052752882125787
 30
0.0
 40
8.0829037686541252
 50
158.2132107017369
 51
201.7867892982639
  0
LINE
  5
5C8
  8
0
 10
128.75
 20
90.052752882125731
 30
0.0
 11
128.75
 21
96.052752882125759
 31
0.0
  0
LINE
  5
5C9
  8
0
 10
136.75
 20
96.552752882125731
 30
0.0
 11
136.75
 21
89.552752882125745
 31
0.0
  0
LINE
  5
5CA
  8
0
 10
135.2500000000002
 20
90.052752882125716
 30
0.0
 11
128.75
 21
90.052752882125731
 31
0.0
  0
LINE
  5
5CB
  8
0
 10
135.25
 20
90.052752882125745
 30
0.0
 11
135.25
 21
88.052752882125674
 31
0.0
  0
LINE
  5
5CC
  8
0
 10
136.75
 20
89.552752882125745
 30
0.0
 11
135.25
 21
88.052752882125674
 31
0.0
  0
LINE
  5
5CD
  8
0
 10
135.25
 20
96.052752882125745
 30
0.0
 11
128.75
 21
96.052752882125745
 31
0.0
  0
LINE
  5
5CE
  8
0
 10
135.25000000000011
 20
98.052752882125731
 30
0.0
 11
135.25000000000011
 21
96.052752882125745
 31
0.0
  0
LINE
  5
5CF
  8
0
 10
136.75
 20
96.552752882125731
 30
0.0
 11
135.25000000000011
 21
98.052752882125731
 31
0.0
  0
CIRCLE
  5
6B3
  8
3
 10
25.75
 20
50.85234285685231
 30
0.0
 40
2.0670000000001698
  0
CIRCLE
  5
6B5
  8
0
 10
25.75
 20
50.85234285685231
 30
0.0
 40
1.599999999999965
  0
CIRCLE
  5
6B6
  8
0
 10
25.75
 20
50.85234285685231
 30
0.0
 40
2.500000000000234
  0
CIRCLE
  5
6B7
  8
0
 10
25.75
 20
50.85234285685231
 30
0.0
 40
5.0
  0
CIRCLE
  5
6BA
  8
0
 10
161.75
 20
50.85234285685231
 30
0.0
 40
5.0
  0
LINE
  5
6BB
  8
0
 10
158.75
 20
46.852342856852331
 30
0.0
 11
164.75000000000011
 21
46.852342856852331
 31
0.0
  0
LINE
  5
6BE
  8
0
 10
158.75
 20
54.852342856852317
 30
0.0
 11
164.75
 21
54.852342856852317
 31
0.0
  0
LINE
  5
757
  8
1
 10
161.75
 20
40.85234285685231
 30
0.0
 11
161.75
 21
60.85234285685231
 31
0.0
  0
LINE
  5
758
  8
1
 10
151.75
 20
50.85234285685231
 30
0.0
 11
171.75
 21
50.85234285685231
 31
0.0
  0
LINE
  5
75B
  8
1
 10
25.75
 20
40.85234285685231
 30
0.0
 11
25.75
 21
60.85234285685231
 31
0.0
  0
LINE
  5
75C
  8
1
 10
15.75
 20
50.85234285685231
 30
0.0
 11
35.75
 21
50.85234285685231
 31
0.0
  0
TEXT
  5
7D7
  8
0
 62
     3
 10
0.0
 20
0.0
 30
0.0
 40
10.0
  1
KG-RR080-SUS
  7
STANDARD1
  0
ENDSEC
  0
EOF
