  0
SECTION
  2
HEADER
  9
$ACADVER
  1
AC1009
  9
$INSBASE
 10
0.0
 20
0.0
 30
0.0
  9
$EXTMIN
 10
0.0
 20
-2.960436562073669
 30
0.0
  9
$EXTMAX
 10
624.5
 20
653.0
 30
0.0
  9
$LIMMIN
 10
0.0
 20
0.0
  9
$LIMMAX
 10
375.0
 20
270.0
  9
$ORTHOMODE
 70
     1
  9
$REGENMODE
 70
     1
  9
$FILLMODE
 70
     1
  9
$QTEXTMODE
 70
     0
  9
$MIRRTEXT
 70
     0
  9
$DRAGMODE
 70
     2
  9
$LTSCALE
 40
5.0
  9
$OSMODE
 70
    37
  9
$ATTMODE
 70
     1
  9
$TEXTSIZE
 40
0.2
  9
$TRACEWID
 40
0.05
  9
$TEXTSTYLE
  7
ST
  9
$CLAYER
  8
0
  9
$CELTYPE
  6
BYLAYER
  9
$CECOLOR
 62
   256
  9
$DIMSCALE
 40
1.0
  9
$DIMASZ
 40
3.0
  9
$DIMEXO
 40
2.0
  9
$DIMDLI
 40
0.3799999999999999
  9
$DIMRND
 40
0.0
  9
$DIMDLE
 40
0.0
  9
$DIMEXE
 40
2.0
  9
$DIMTP
 40
0.0
  9
$DIMTM
 40
0.0
  9
$DIMTXT
 40
6.0
  9
$DIMCEN
 40
0.09
  9
$DIMTSZ
 40
0.0
  9
$DIMTOL
 70
     0
  9
$DIMLIM
 70
     0
  9
$DIMTIH
 70
     0
  9
$DIMTOH
 70
     0
  9
$DIMSE1
 70
     0
  9
$DIMSE2
 70
     0
  9
$DIMTAD
 70
     1
  9
$DIMZIN
 70
     8
  9
$DIMBLK
  1

  9
$DIMASO
 70
     0
  9
$DIMSHO
 70
     0
  9
$DIMPOST
  1

  9
$DIMAPOST
  1

  9
$DIMALT
 70
     0
  9
$DIMALTD
 70
     2
  9
$DIMALTF
 40
25.399999999999999
  9
$DIMLFAC
 40
1.0
  9
$DIMTOFL
 70
     1
  9
$DIMTVP
 40
1.6000000000000001
  9
$DIMTIX
 70
     1
  9
$DIMSOXD
 70
     0
  9
$DIMSAH
 70
     0
  9
$DIMBLK1
  1

  9
$DIMBLK2
  1

  9
$DIMSTYLE
  2
STANDARD
  9
$DIMCLRD
 70
     0
  9
$DIMCLRE
 70
     0
  9
$DIMCLRT
 70
     0
  9
$DIMTFAC
 40
1.0
  9
$DIMGAP
 40
1.1999999999999991
  9
$LUNITS
 70
     2
  9
$LUPREC
 70
     1
  9
$SKETCHINC
 40
0.1
  9
$FILLETRAD
 40
1.5
  9
$AUNITS
 70
     0
  9
$AUPREC
 70
     0
  9
$MENU
  1
ACAD
  9
$ELEVATION
 40
0.0
  9
$PELEVATION
 40
0.0
  9
$THICKNESS
 40
0.0
  9
$LIMCHECK
 70
     0
  9
$BLIPMODE
 70
     0
  9
$CHAMFERA
 40
0.0
  9
$CHAMFERB
 40
0.0
  9
$SKPOLY
 70
     0
  9
$TDCREATE
 40
2448586.4078643522
  9
$TDUPDATE
 40
2459496.584401655
  9
$TDINDWG
 40
0.535581169
  9
$TDUSRTIMER
 40
0.535581169
  9
$USRTIMER
 70
     1
  9
$ANGBASE
 50
0.0
  9
$ANGDIR
 70
     0
  9
$PDMODE
 70
     0
  9
$PDSIZE
 40
0.0
  9
$PLINEWID
 40
0.0
  9
$COORDS
 70
     1
  9
$SPLFRAME
 70
     0
  9
$SPLINETYPE
 70
     6
  9
$SPLINESEGS
 70
     8
  9
$ATTDIA
 70
     0
  9
$ATTREQ
 70
     1
  9
$HANDLING
 70
     1
  9
$HANDSEED
  5
82DA
  9
$SURFTAB1
 70
     6
  9
$SURFTAB2
 70
     6
  9
$SURFTYPE
 70
     6
  9
$SURFU
 70
     6
  9
$SURFV
 70
     6
  9
$UCSNAME
  2

  9
$UCSORG
 10
0.0
 20
0.0
 30
0.0
  9
$UCSXDIR
 10
1.0
 20
0.0
 30
0.0
  9
$UCSYDIR
 10
0.0
 20
1.0
 30
0.0
  9
$PUCSNAME
  2

  9
$PUCSORG
 10
0.0
 20
0.0
 30
0.0
  9
$PUCSXDIR
 10
1.0
 20
0.0
 30
0.0
  9
$PUCSYDIR
 10
0.0
 20
1.0
 30
0.0
  9
$USERI1
 70
     0
  9
$USERI2
 70
     1
  9
$USERI3
 70
     1
  9
$USERI4
 70
     0
  9
$USERI5
 70
     0
  9
$USERR1
 40
0.0
  9
$USERR2
 40
0.0
  9
$USERR3
 40
0.0
  9
$USERR4
 40
0.0
  9
$USERR5
 40
0.0
  9
$WORLDVIEW
 70
     1
  9
$SHADEDGE
 70
     3
  9
$SHADEDIF
 70
    70
  9
$TILEMODE
 70
     1
  9
$MAXACTVP
 70
    16
  9
$PLIMCHECK
 70
     0
  9
$PEXTMIN
 10
1.0000000000000000E+020
 20
1.0000000000000000E+020
 30
1.0000000000000000E+020
  9
$PEXTMAX
 10
-1.0000000000000000E+020
 20
-1.0000000000000000E+020
 30
-1.0000000000000000E+020
  9
$PLIMMIN
 10
0.0
 20
0.0
  9
$PLIMMAX
 10
12.0
 20
9.0
  9
$UNITMODE
 70
     0
  9
$VISRETAIN
 70
     0
  9
$PLINEGEN
 70
     1
  9
$PSLTSCALE
 70
     0
  0
ENDSEC
  0
SECTION
  2
TABLES
  0
TABLE
  2
VPORT
 70
     1
  0
VPORT
  2
*ACTIVE
 70
     0
 10
0.0
 20
0.0
 11
1.0
 21
1.0
 12
845.47546012269925
 22
350.0
 13
0.0
 23
0.0
 14
5.0
 24
5.0
 15
10.0
 25
10.0
 16
0.0
 26
0.0
 36
1.0
 17
0.0
 27
0.0
 37
0.0
 40
700.0
 41
2.415644171779141
 42
50.0
 43
0.0
 44
0.0
 50
0.0
 51
0.0
 71
     0
 72
   500
 73
     1
 74
     0
 75
     0
 76
     0
 77
     0
 78
     2
  0
ENDTAB
  0
TABLE
  2
LTYPE
 70
     4
  0
LTYPE
  2
CONTINUOUS
 70
     0
  3
実線
 72
    65
 73
     0
 40
0.0
  0
LTYPE
  2
CENTER
 70
     0
  3
____ _ ____ _ ____ _ ____ _ ____ _ ____ _ ____
 72
    65
 73
     4
 40
2.0
 49
1.25
 49
-0.25
 49
0.25
 49
-0.25
  0
LTYPE
  2
PHANTOM2
 70
     0
  3
___ _ _ ___ _ _ ___ _ _ ___ _ _
 72
    65
 73
     6
 40
1.25
 49
0.625
 49
-0.125
 49
0.125
 49
-0.125
 49
0.125
 49
-0.125
  0
LTYPE
  2
HIDDEN
 70
     0
  3
Hidden __ __ __ __ __ __ __ __ __ __ __ __ __ __
 72
    65
 73
     2
 40
1.905
 49
1.27
 49
-0.635
  0
ENDTAB
  0
TABLE
  2
LAYER
 70
     5
  0
LAYER
  2
0
 70
     0
 62
     7
  6
CONTINUOUS
  0
LAYER
  2
1
 70
     0
 62
     1
  6
CENTER
  0
LAYER
  2
DEFPOINTS
 70
     0
 62
     7
  6
CONTINUOUS
  0
LAYER
  2
2
 70
     0
 62
     2
  6
HIDDEN
  0
LAYER
  2
3
 70
     0
 62
     3
  6
CONTINUOUS
  0
ENDTAB
  0
TABLE
  2
STYLE
 70
     4
  0
STYLE
  2
STANDARD
 70
     0
 40
0.0
 41
1.0
 50
0.0
 71
     0
 42
5.0
  3
simplex.shx
  4
BIGFONT.shx
  0
STYLE
  2
07500
 70
     0
 40
0.0
 41
0.75
 50
0.0
 71
     0
 42
0.2
  3
simplex.shx
  4
BIGFONT.shx
  0
STYLE
  2
ST
 70
     0
 40
0.0
 41
1.0
 50
0.0
 71
     0
 42
0.2
  3
simplex.shx
  4
BIGFONT.shx
  0
STYLE
  2
STANDARD1
 70
     0
 40
0.0
 41
1.0
 50
0.0
 71
     0
 42
3.0
  3
txt
  4

  0
ENDTAB
  0
TABLE
  2
VIEW
 70
     1
  0
VIEW
  2
ALL
 70
     0
 40
270.0
 10
220.99159663865549
 20
135.0
 41
0.0
 11
0.0
 21
0.0
 31
1.0
 12
0.0
 22
0.0
 32
0.0
 42
0.0
 43
0.0
 44
0.0
 50
0.0
 71
     0
  0
ENDTAB
  0
TABLE
  2
UCS
 70
     0
  0
ENDTAB
  0
TABLE
  2
APPID
 70
    41
  0
APPID
  2
ACAD
 70
     0
  0
APPID
  2
DCO15
 70
     0
  0
APPID
  2
GENIUS_GENOREF_13
 70
     0
  0
APPID
  2
GENIUS_GENOENT_13
 70
     0
  0
APPID
  2
GENIUS_GENBH_13
 70
     0
  0
APPID
  2
GENIUS_GENOBJ_13
 70
     0
  0
APPID
  2
GENIUS_GENODEF_13
 70
     0
  0
APPID
  2
GENIUS_GENOLIS_13
 70
     0
  0
APPID
  2
GENIUS_GENOBJ-NBEHI-BHF_13
 70
     0
  0
APPID
  2
GENIUS_GENOBJ-NBEHI-BHB_13
 70
     0
  0
APPID
  2
GENIUS_GENOBJ-F-PART_13
 70
     0
  0
APPID
  2
GENIUS_GEFSTDP_13
 70
     0
  0
APPID
  2
GENIUS_GENOBJ-N-RSSYM_13
 70
     0
  0
APPID
  2
GENIUS_GENSYMENT_13
 70
     0
  0
APPID
  2
GENIUS_GENOBJ-N-TIT_13
 70
     0
  0
APPID
  2
GENIUS_GENTITLE_13
 70
     0
  0
APPID
  2
GENIUS_GENZVEED_13
 70
     0
  0
APPID
  2
GENIUS_GENOBJ-N-LEADER_13
 70
     0
  0
APPID
  2
GENIUS_GENOBJ-N-FIL_13
 70
     0
  0
APPID
  2
GENIUS_GENOBJ-N-SEC_13
 70
     0
  0
APPID
  2
GENIUS_GENOBJ-N-CRS_13
 70
     0
  0
APPID
  2
GENIUS_GENOBJ-N-ZOO_13
 70
     0
  0
APPID
  2
GENIUS_GENZOO_13
 70
     0
  0
APPID
  2
GENIUS_GENOBJ-F-TOL_13
 70
     0
  0
APPID
  2
GENIUS_GENFIL_13
 70
     0
  0
APPID
  2
GENIUS_GENOBJ-N-CHA_13
 70
     0
  0
APPID
  2
_CALL_MAC$
 70
     0
  0
APPID
  2
ASM_BASE
 70
     0
  0
APPID
  2
ASM_EXPLO_VER_2_00
 70
     0
  0
APPID
  2
ASM_CADM_VER_12_00
 70
     0
  0
APPID
  2
ASM_BASEFORO
 70
     0
  0
APPID
  2
ASM_BASETRAVI
 70
     0
  0
APPID
  2
ASM_BASETRAVI1
 70
     0
  0
APPID
  2
ASM_GRUPPI
 70
     0
  0
APPID
  2
ASM_CADM_ALBERO
 70
     0
  0
APPID
  2
ASM_GOLE
 70
     0
  0
APPID
  2
ACAD_MLEADERVER
 70
     0
  0
APPID
  2
ACAD_EXEMPT_FROM_CAD_STANDARDS
 70
     0
  0
APPID
  2
ACAD_NAV_VCDISPLAY
 70
     0
  0
APPID
  2
ACAD_DSTYLE_DIMJAG
 70
     0
  0
APPID
  2
ACAD_DSTYLE_DIMTALN
 70
     0
  0
ENDTAB
  0
TABLE
  2
DIMSTYLE
 70
     1
  0
DIMSTYLE
  2
STANDARD
 70
     0
  3

  4

  5

  6

  7

 40
1.0
 41
0.18
 42
0.0625
 43
0.38
 44
0.18
 45
0.0
 46
0.0
 47
0.0
 48
0.0
140
0.18
141
0.09
142
0.0
143
25.399999999999999
144
1.0
145
0.0
146
1.0
147
0.09
 71
     0
 72
     0
 73
     1
 74
     1
 75
     0
 76
     0
 77
     0
 78
     0
170
     0
171
     2
172
     0
173
     0
174
     0
175
     0
176
     0
177
     0
178
     0
  0
ENDTAB
  0
ENDSEC
  0
SECTION
  2
BLOCKS
  0
BLOCK
  8
0
  2
$MODEL_SPACE
 70
     0
 10
0.0
 20
0.0
 30
0.0
  3
$MODEL_SPACE
  1

  0
ENDBLK
  5
3C
  8
0
  0
BLOCK
 67
     1
  8
0
  2
$PAPER_SPACE
 70
     0
 10
0.0
 20
0.0
 30
0.0
  3
$PAPER_SPACE
  1

  0
ENDBLK
  5
3A
 67
     1
  8
0
  0
ENDSEC
  0
SECTION
  2
ENTITIES
  0
TEXT
  5
5689
  8
0
 62
     3
 10
0.0
 20
0.0
 30
0.0
 40
10.0
  1
KFX-BP280
  7
STANDARD1
  0
LINE
  5
5AF9
  8
0
 10
379.5
 20
643.0
 30
0.0
 11
100.0
 21
643.0
 31
0.0
  0
LINE
  5
5AFA
  8
0
 10
379.5
 20
518.0
 30
0.0
 11
100.0
 21
518.0
 31
0.0
  0
CIRCLE
  5
5B01
  8
0
 10
364.75
 20
580.49999999999989
 30
0.0
 40
6.0000000000000044
  0
CIRCLE
  5
5B02
  8
0
 10
114.75
 20
580.49999999999989
 30
0.0
 40
6.0
  0
LINE
  5
5B07
  8
0
 10
379.5
 20
638.0
 30
0.0
 11
100.0
 21
638.0
 31
0.0
  0
LINE
  5
5B08
  8
0
 10
379.5
 20
523.0
 30
0.0
 11
100.0
 21
523.0
 31
0.0
  0
CIRCLE
  5
5B09
  8
0
 10
114.75
 20
580.49999999999989
 30
0.0
 40
6.25
  0
CIRCLE
  5
5B0A
  8
0
 10
364.75
 20
580.49999999999989
 30
0.0
 40
6.2500000000000338
  0
CIRCLE
  5
5B0E
  8
0
 10
239.75
 20
580.49999999999989
 30
0.0
 40
3.3235000000000001
  0
CIRCLE
  5
5B0F
  8
0
 10
364.75
 20
580.49999999999989
 30
0.0
 40
10.000000000000011
  0
CIRCLE
  5
5B10
  8
0
 10
114.75
 20
580.49999999999989
 30
0.0
 40
10.0
  0
LINE
  5
5B11
  8
0
 10
186.25
 20
545.52194096397079
 30
0.0
 11
185.0831072718747
 21
543.59999999999991
 31
0.0
  0
LINE
  5
5B12
  8
0
 10
186.25
 20
543.59999999999991
 30
0.0
 11
186.25
 21
545.52194096397079
 31
0.0
  0
LINE
  5
5B13
  8
0
 10
185.0831072718747
 20
543.59999999999991
 30
0.0
 11
186.25
 21
543.59999999999991
 31
0.0
  0
ARC
  5
5B14
  8
0
 10
165.821160181018
 20
543.625
 30
0.0
 40
0.8280632653140656
 50
359.55014292541171
 51
94.929832357111039
  0
ARC
  5
5B15
  8
0
 10
165.74327081211891
 20
543.71056882564005
 30
0.0
 40
0.9105936899612487
 50
270.42341340455442
 51
354.19689716373563
  0
ARC
  5
5B16
  8
0
 10
165.75672918788109
 20
543.71056882564005
 30
0.0
 40
0.9105936899612819
 50
185.8031028362644
 51
269.57658659543262
  0
ARC
  5
5B17
  8
0
 10
165.67883981898191
 20
543.625
 30
0.0
 40
0.8280632653140266
 50
85.070167642888975
 51
180.44985707458821
  0
LINE
  5
5B18
  8
0
 10
169.65000000000009
 20
543.70000000000005
 30
0.0
 11
169.65000000000009
 21
544.89999999999986
 31
0.0
  0
ARC
  5
5B19
  8
0
 10
168.75
 20
544.89999999999986
 30
0.0
 40
0.9000000000000056
 50
0.0
 51
180.0
  0
ARC
  5
5B1A
  8
0
 10
168.75
 20
543.70000000000005
 30
0.0
 40
0.9000000000000198
 50
180.0
 51
0.0
  0
LINE
  5
5B1B
  8
0
 10
167.84999999999991
 20
544.89999999999986
 30
0.0
 11
167.84999999999991
 21
543.70000000000005
 31
0.0
  0
ARC
  5
5B1C
  8
0
 10
312.74327081211908
 20
543.71056882564005
 30
0.0
 40
0.9105936899611418
 50
270.42341340455442
 51
354.19689716373239
  0
ARC
  5
5B1D
  8
0
 10
312.82116018101812
 20
543.625
 30
0.0
 40
0.8280632653140244
 50
359.55014292539869
 51
94.929832357111039
  0
ARC
  5
5B1E
  8
0
 10
312.678839818982
 20
543.625
 30
0.0
 40
0.8280632653139722
 50
85.070167642888975
 51
180.44985707460449
  0
ARC
  5
5B1F
  8
0
 10
312.75672918788109
 20
543.71056882564005
 30
0.0
 40
0.9105936899612501
 50
185.80310283627409
 51
269.57658659544558
  0
ARC
  5
5B20
  8
0
 10
165.7282581706167
 20
545.27499999999986
 30
0.0
 40
0.5254500044199625
 50
272.3714355147182
 51
87.628564485281842
  0
ARC
  5
5B21
  8
0
 10
165.77174182938319
 20
545.27499999999986
 30
0.0
 40
0.5254500044199625
 50
92.371435514718144
 51
267.6285644852818
  0
LINE
  5
5B22
  8
0
 10
292.75
 20
545.52194096397079
 30
0.0
 11
291.58310727187472
 21
543.59999999999991
 31
0.0
  0
LINE
  5
5B23
  8
0
 10
291.58310727187472
 20
543.59999999999991
 30
0.0
 11
292.75
 21
543.59999999999991
 31
0.0
  0
LINE
  5
5B24
  8
0
 10
292.75
 20
543.59999999999991
 30
0.0
 11
292.75
 21
545.52194096397079
 31
0.0
  0
LINE
  5
5B25
  8
0
 10
296.15000000000009
 20
543.70000000000005
 30
0.0
 11
296.15000000000009
 21
544.89999999999986
 31
0.0
  0
ARC
  5
5B26
  8
0
 10
295.25
 20
544.89999999999986
 30
0.0
 40
0.9000000000000056
 50
0.0
 51
180.0
  0
LINE
  5
5B27
  8
0
 10
294.34999999999991
 20
544.89999999999986
 30
0.0
 11
294.34999999999991
 21
543.70000000000005
 31
0.0
  0
ARC
  5
5B28
  8
0
 10
295.25
 20
543.70000000000005
 30
0.0
 40
0.9000000000000056
 50
180.0
 51
0.0
  0
LINE
  5
5B29
  8
0
 10
316.65000000000009
 20
543.70000000000005
 30
0.0
 11
316.65000000000009
 21
544.89999999999986
 31
0.0
  0
ARC
  5
5B2A
  8
0
 10
315.75
 20
544.89999999999998
 30
0.0
 40
0.9000000000000056
 50
0.0
 51
180.0
  0
LINE
  5
5B2B
  8
0
 10
314.84999999999991
 20
544.89999999999986
 30
0.0
 11
314.84999999999991
 21
543.70000000000005
 31
0.0
  0
ARC
  5
5B2C
  8
0
 10
315.75
 20
543.70000000000005
 30
0.0
 40
0.9000000000000056
 50
180.0
 51
0.0
  0
ARC
  5
5B2D
  8
0
 10
312.72825817061681
 20
545.27499999999986
 30
0.0
 40
0.5254500044199625
 50
272.3714355147182
 51
87.628564485281842
  0
ARC
  5
5B2E
  8
0
 10
312.77174182938319
 20
545.27499999999986
 30
0.0
 40
0.5254500044199625
 50
92.371435514718144
 51
267.6285644852818
  0
ARC
  5
5B2F
  8
0
 10
255.69999999999999
 20
544.89999999999998
 30
0.0
 40
0.9000000000000056
 50
0.0
 51
180.0
  0
LINE
  5
5B30
  8
0
 10
256.59999999999991
 20
543.70000000000005
 30
0.0
 11
256.59999999999991
 21
544.89999999999986
 31
0.0
  0
ARC
  5
5B31
  8
0
 10
255.69999999999999
 20
543.70000000000005
 30
0.0
 40
0.9000000000000056
 50
180.0
 51
0.0
  0
LINE
  5
5B32
  8
0
 10
254.80000000000001
 20
544.89999999999986
 30
0.0
 11
254.80000000000001
 21
543.70000000000005
 31
0.0
  0
ARC
  5
5B33
  8
0
 10
265.69999999999999
 20
544.89999999999998
 30
0.0
 40
0.9000000000000056
 50
359.99999999999682
 51
180.00000000000321
  0
LINE
  5
5B34
  8
0
 10
266.59999999999991
 20
543.70000000000005
 30
0.0
 11
266.59999999999991
 21
544.89999999999986
 31
0.0
  0
ARC
  5
5B35
  8
0
 10
265.69999999999999
 20
543.70000000000005
 30
0.0
 40
0.8999999999999772
 50
180.0
 51
0.0
  0
LINE
  5
5B36
  8
0
 10
264.80000000000001
 20
544.89999999999986
 30
0.0
 11
264.80000000000001
 21
543.70000000000005
 31
0.0
  0
LINE
  5
5B37
  8
0
 10
276.59999999999991
 20
543.70000000000005
 30
0.0
 11
276.59999999999991
 21
544.89999999999986
 31
0.0
  0
ARC
  5
5B38
  8
0
 10
275.7000000000001
 20
543.70000000000005
 30
0.0
 40
0.8999999999999772
 50
180.0
 51
0.0
  0
LINE
  5
5B39
  8
0
 10
274.80000000000001
 20
544.89999999999986
 30
0.0
 11
274.80000000000001
 21
543.70000000000005
 31
0.0
  0
ARC
  5
5B3A
  8
0
 10
275.7000000000001
 20
544.89999999999998
 30
0.0
 40
0.8999999999999772
 50
359.99999999999682
 51
180.00000000000321
  0
LINE
  5
5B3B
  8
0
 10
330.75
 20
535.63799999999992
 30
0.0
 11
331.75
 21
534.49999999999989
 31
0.0
  0
LINE
  5
5B3C
  8
0
 10
331.75
 20
534.49999999999989
 30
0.0
 11
332.75
 21
535.63799999999992
 31
0.0
  0
LINE
  5
5B3D
  8
0
 10
332.75
 20
535.63799999999992
 30
0.0
 11
333.75
 21
534.49999999999989
 31
0.0
  0
LINE
  5
5B3E
  8
0
 10
333.75
 20
534.49999999999989
 30
0.0
 11
334.75
 21
535.63799999999992
 31
0.0
  0
ARC
  5
5B3F
  8
0
 10
245.25
 20
544.89999999999998
 30
0.0
 40
0.9000000000000056
 50
0.0
 51
180.0
  0
LINE
  5
5B40
  8
0
 10
244.34999999999991
 20
544.89999999999986
 30
0.0
 11
244.34999999999991
 21
543.70000000000005
 31
0.0
  0
ARC
  5
5B41
  8
0
 10
245.25
 20
543.70000000000005
 30
0.0
 40
0.9000000000000056
 50
180.0
 51
0.0
  0
LINE
  5
5B42
  8
0
 10
246.15000000000009
 20
543.70000000000005
 30
0.0
 11
246.15000000000009
 21
544.89999999999986
 31
0.0
  0
LINE
  5
5B43
  8
0
 10
100.0
 20
534.78449999999987
 30
0.0
 11
100.75
 21
535.63799999999992
 31
0.0
  0
LINE
  5
5B44
  8
0
 10
300.75
 20
535.63799999999992
 30
0.0
 11
299.75
 21
534.49999999999989
 31
0.0
  0
LINE
  5
5B45
  8
0
 10
257.40000000000009
 20
550.49999999999989
 30
0.0
 11
257.09999999999991
 21
550.49999999999989
 31
0.0
  0
LINE
  5
5B46
  8
0
 10
257.09999999999991
 20
550.49999999999989
 30
0.0
 11
257.09999999999991
 21
542.49999999999989
 31
0.0
  0
LINE
  5
5B47
  8
0
 10
257.09999999999991
 20
542.49999999999989
 30
0.0
 11
257.40000000000009
 21
542.49999999999989
 31
0.0
  0
LINE
  5
5B48
  8
0
 10
257.40000000000009
 20
542.49999999999989
 30
0.0
 11
257.40000000000009
 21
550.49999999999989
 31
0.0
  0
LINE
  5
5B49
  8
0
 10
295.75
 20
534.49999999999989
 30
0.0
 11
294.75
 21
535.63799999999992
 31
0.0
  0
LINE
  5
5B4A
  8
0
 10
286.75
 20
535.63799999999992
 30
0.0
 11
285.75
 21
534.49999999999989
 31
0.0
  0
LINE
  5
5B4B
  8
0
 10
271.75
 20
534.49999999999989
 30
0.0
 11
270.75
 21
535.63799999999992
 31
0.0
  0
LINE
  5
5B4C
  8
0
 10
261.75
 20
534.49999999999989
 30
0.0
 11
260.75
 21
535.63799999999992
 31
0.0
  0
LINE
  5
5B4D
  8
0
 10
251.75
 20
534.49999999999989
 30
0.0
 11
250.75
 21
535.63799999999992
 31
0.0
  0
LINE
  5
5B4E
  8
0
 10
241.75
 20
534.49999999999989
 30
0.0
 11
240.75
 21
535.63799999999992
 31
0.0
  0
LINE
  5
5B4F
  8
0
 10
243.25
 20
546.10000000000002
 30
0.0
 11
241.55000000000001
 21
543.29999999999995
 31
0.0
  0
LINE
  5
5B50
  8
0
 10
241.55000000000001
 20
543.29999999999995
 30
0.0
 11
243.25
 21
543.29999999999995
 31
0.0
  0
LINE
  5
5B51
  8
0
 10
243.25
 20
543.29999999999995
 30
0.0
 11
243.25
 21
542.49999999999989
 31
0.0
  0
LINE
  5
5B52
  8
0
 10
243.25
 20
542.49999999999989
 30
0.0
 11
243.55000000000001
 21
542.49999999999989
 31
0.0
  0
LINE
  5
5B53
  8
0
 10
243.55000000000001
 20
542.49999999999989
 30
0.0
 11
243.55000000000001
 21
543.29999999999995
 31
0.0
  0
LINE
  5
5B54
  8
0
 10
243.55000000000001
 20
543.29999999999995
 30
0.0
 11
243.9500000000001
 21
543.29999999999995
 31
0.0
  0
LINE
  5
5B55
  8
0
 10
243.9500000000001
 20
543.29999999999995
 30
0.0
 11
243.9500000000001
 21
543.59999999999991
 31
0.0
  0
LINE
  5
5B56
  8
0
 10
243.9500000000001
 20
543.59999999999991
 30
0.0
 11
243.55000000000001
 21
543.59999999999991
 31
0.0
  0
LINE
  5
5B57
  8
0
 10
243.55000000000001
 20
543.59999999999991
 30
0.0
 11
243.55000000000001
 21
546.10000000000002
 31
0.0
  0
LINE
  5
5B58
  8
0
 10
243.55000000000001
 20
546.10000000000002
 30
0.0
 11
243.25
 21
546.10000000000002
 31
0.0
  0
LINE
  5
5B59
  8
0
 10
253.19999999999999
 20
546.10000000000002
 30
0.0
 11
251.83148309406741
 21
544.47222191986225
 31
0.0
  0
ARC
  5
5B5A
  8
0
 10
252.75
 20
543.70000000000005
 30
0.0
 40
1.1999999999999971
 50
139.94532911595971
 51
98.53570700668557
  0
LINE
  5
5B5B
  8
0
 10
252.57188910977769
 20
544.88670826692328
 30
0.0
 11
253.42962922648331
 21
545.90694452003424
 31
0.0
  0
LINE
  5
5B5C
  8
0
 10
253.42962922648331
 20
545.90694452003424
 30
0.0
 11
253.19999999999999
 21
546.10000000000002
 31
0.0
  0
ARC
  5
5B5D
  8
0
 10
262.71913963288131
 20
545.27695345570623
 30
0.0
 40
0.8236249002626205
 50
87.852684177100613
 51
235.27741817707431
  0
ARC
  5
5B5E
  8
0
 10
262.6517051485614
 20
543.58612027346692
 30
0.0
 40
1.0905590888416621
 50
111.6137639328508
 51
184.52930169688781
  0
ARC
  5
5B5F
  8
0
 10
262.7687637152153
 20
543.72488714175711
 30
0.0
 40
1.2250308514688759
 50
190.57816319422139
 51
269.1223700772926
  0
ARC
  5
5B60
  8
0
 10
262.7312362847847
 20
543.72488714175711
 30
0.0
 40
1.225030851468879
 50
270.8776299226684
 51
349.42183680577858
  0
ARC
  5
5B61
  8
0
 10
262.84829485143842
 20
543.58612027346692
 30
0.0
 40
1.090559088841796
 50
355.4706983031187
 51
68.386236067148005
  0
ARC
  5
5B62
  8
0
 10
262.78086036711852
 20
545.27695345570623
 30
0.0
 40
0.8236249002626415
 50
304.72258182292558
 51
92.147315822925563
  0
LINE
  5
5B63
  8
0
 10
303.75
 20
534.49999999999989
 30
0.0
 11
302.75
 21
535.63799999999992
 31
0.0
  0
ARC
  5
5B64
  8
0
 10
272.75
 20
544.89999999999998
 30
0.0
 40
1.1999999999999591
 50
0.0
 51
180.0
  0
LINE
  5
5B65
  8
0
 10
271.55000000000001
 20
544.89999999999986
 30
0.0
 11
271.55000000000001
 21
543.70000000000005
 31
0.0
  0
ARC
  5
5B66
  8
0
 10
272.75
 20
543.70000000000005
 30
0.0
 40
1.1999999999999891
 50
179.9999999999967
 51
0.0000000000032569
  0
LINE
  5
5B67
  8
0
 10
273.94999999999999
 20
543.70000000000005
 30
0.0
 11
273.94999999999999
 21
544.89999999999986
 31
0.0
  0
ARC
  5
5B68
  8
0
 10
312.65170514856158
 20
543.58612027346692
 30
0.0
 40
1.090559088841804
 50
111.613763932852
 51
184.5293016968846
  0
ARC
  5
5B69
  8
0
 10
312.71913963288131
 20
545.27695345570623
 30
0.0
 40
0.8236249002626205
 50
87.852684177100613
 51
235.27741817707431
  0
ARC
  5
5B6A
  8
0
 10
312.78086036711881
 20
545.27695345570623
 30
0.0
 40
0.8236249002626415
 50
304.72258182292558
 51
92.147315822925563
  0
ARC
  5
5B6B
  8
0
 10
312.84829485143842
 20
543.58612027346692
 30
0.0
 40
1.090559088841796
 50
355.4706983031187
 51
68.386236067148005
  0
ARC
  5
5B6C
  8
0
 10
312.7312362847847
 20
543.72488714175711
 30
0.0
 40
1.225030851468857
 50
270.8776299226684
 51
349.42183680577858
  0
ARC
  5
5B6D
  8
0
 10
312.7687637152153
 20
543.72488714175722
 30
0.0
 40
1.2250308514689521
 50
190.57816319422781
 51
269.1223700772926
  0
LINE
  5
5B6E
  8
0
 10
314.55000000000001
 20
544.89999999999986
 30
0.0
 11
314.55000000000001
 21
543.70000000000005
 31
0.0
  0
ARC
  5
5B6F
  8
0
 10
315.75
 20
544.89999999999998
 30
0.0
 40
1.1999999999999891
 50
0.0
 51
180.0
  0
LINE
  5
5B70
  8
0
 10
316.9500000000001
 20
543.70000000000005
 30
0.0
 11
316.9500000000001
 21
544.89999999999986
 31
0.0
  0
ARC
  5
5B71
  8
0
 10
315.75
 20
543.70000000000005
 30
0.0
 40
1.2000000000000171
 50
180.0
 51
0.0
  0
LINE
  5
5B72
  8
0
 10
309.90717817682838
 20
545.79999999999995
 30
0.0
 11
310.59999999999991
 21
545.79999999999995
 31
0.0
  0
LINE
  5
5B73
  8
0
 10
310.16796419817319
 20
546.10000000000002
 30
0.0
 11
309.90717817682838
 21
545.79999999999995
 31
0.0
  0
LINE
  5
5B74
  8
0
 10
310.90000000000009
 20
546.10000000000002
 30
0.0
 11
310.16796419817319
 21
546.10000000000002
 31
0.0
  0
LINE
  5
5B75
  8
0
 10
310.90000000000009
 20
542.49999999999989
 30
0.0
 11
310.90000000000009
 21
546.10000000000002
 31
0.0
  0
LINE
  5
5B76
  8
0
 10
310.59999999999991
 20
542.49999999999989
 30
0.0
 11
310.90000000000009
 21
542.49999999999989
 31
0.0
  0
LINE
  5
5B77
  8
0
 10
310.59999999999991
 20
545.79999999999995
 30
0.0
 11
310.59999999999991
 21
542.49999999999989
 31
0.0
  0
LINE
  5
5B78
  8
0
 10
291.0499999999999
 20
543.29999999999995
 30
0.0
 11
292.75
 21
543.29999999999995
 31
0.0
  0
LINE
  5
5B79
  8
0
 10
292.75
 20
546.10000000000002
 30
0.0
 11
291.0499999999999
 21
543.29999999999995
 31
0.0
  0
LINE
  5
5B7A
  8
0
 10
293.0499999999999
 20
546.10000000000002
 30
0.0
 11
292.75
 21
546.10000000000002
 31
0.0
  0
LINE
  5
5B7B
  8
0
 10
293.0499999999999
 20
543.59999999999991
 30
0.0
 11
293.0499999999999
 21
546.10000000000002
 31
0.0
  0
LINE
  5
5B7C
  8
0
 10
293.44999999999999
 20
543.59999999999991
 30
0.0
 11
293.0499999999999
 21
543.59999999999991
 31
0.0
  0
LINE
  5
5B7D
  8
0
 10
293.44999999999999
 20
543.29999999999995
 30
0.0
 11
293.44999999999999
 21
543.59999999999991
 31
0.0
  0
LINE
  5
5B7E
  8
0
 10
293.0499999999999
 20
543.29999999999995
 30
0.0
 11
293.44999999999999
 21
543.29999999999995
 31
0.0
  0
LINE
  5
5B7F
  8
0
 10
293.0499999999999
 20
542.49999999999989
 30
0.0
 11
293.0499999999999
 21
543.29999999999995
 31
0.0
  0
LINE
  5
5B80
  8
0
 10
292.75
 20
542.49999999999989
 30
0.0
 11
293.0499999999999
 21
542.49999999999989
 31
0.0
  0
LINE
  5
5B81
  8
0
 10
292.75
 20
543.29999999999995
 30
0.0
 11
292.75
 21
542.49999999999989
 31
0.0
  0
LINE
  5
5B82
  8
0
 10
294.05000000000001
 20
544.89999999999986
 30
0.0
 11
294.05000000000001
 21
543.70000000000005
 31
0.0
  0
ARC
  5
5B83
  8
0
 10
295.25
 20
544.89999999999998
 30
0.0
 40
1.1999999999999591
 50
0.0
 51
180.0
  0
LINE
  5
5B84
  8
0
 10
296.4500000000001
 20
543.70000000000005
 30
0.0
 11
296.4500000000001
 21
544.89999999999986
 31
0.0
  0
ARC
  5
5B85
  8
0
 10
295.25
 20
543.69999999999993
 30
0.0
 40
1.1999999999999891
 50
179.9999999999967
 51
0.0000000000032569
  0
LINE
  5
5B86
  8
0
 10
288.90717817682838
 20
545.79999999999995
 30
0.0
 11
289.59999999999991
 21
545.79999999999995
 31
0.0
  0
LINE
  5
5B87
  8
0
 10
289.16796419817319
 20
546.10000000000002
 30
0.0
 11
288.90717817682838
 21
545.79999999999995
 31
0.0
  0
LINE
  5
5B88
  8
0
 10
289.90000000000009
 20
546.10000000000002
 30
0.0
 11
289.16796419817319
 21
546.10000000000002
 31
0.0
  0
LINE
  5
5B89
  8
0
 10
289.90000000000009
 20
542.49999999999989
 30
0.0
 11
289.90000000000009
 21
546.10000000000002
 31
0.0
  0
LINE
  5
5B8A
  8
0
 10
289.59999999999991
 20
542.49999999999989
 30
0.0
 11
289.90000000000009
 21
542.49999999999989
 31
0.0
  0
LINE
  5
5B8B
  8
0
 10
289.59999999999991
 20
545.79999999999995
 30
0.0
 11
289.59999999999991
 21
542.49999999999989
 31
0.0
  0
LINE
  5
5B8C
  8
0
 10
269.90717817682838
 20
545.79999999999995
 30
0.0
 11
270.59999999999991
 21
545.79999999999995
 31
0.0
  0
LINE
  5
5B8D
  8
0
 10
270.16796419817319
 20
546.10000000000002
 30
0.0
 11
269.90717817682838
 21
545.79999999999995
 31
0.0
  0
LINE
  5
5B8E
  8
0
 10
270.90000000000009
 20
546.10000000000002
 30
0.0
 11
270.16796419817319
 21
546.10000000000002
 31
0.0
  0
LINE
  5
5B8F
  8
0
 10
270.90000000000009
 20
542.49999999999989
 30
0.0
 11
270.90000000000009
 21
546.10000000000002
 31
0.0
  0
LINE
  5
5B90
  8
0
 10
270.59999999999991
 20
542.49999999999989
 30
0.0
 11
270.90000000000009
 21
542.49999999999989
 31
0.0
  0
LINE
  5
5B91
  8
0
 10
270.59999999999991
 20
545.79999999999995
 30
0.0
 11
270.59999999999991
 21
542.49999999999989
 31
0.0
  0
LINE
  5
5B92
  8
0
 10
254.5
 20
544.89999999999986
 30
0.0
 11
254.5
 21
543.70000000000005
 31
0.0
  0
ARC
  5
5B93
  8
0
 10
255.69999999999999
 20
544.89999999999998
 30
0.0
 40
1.1999999999999891
 50
359.99999999999682
 51
180.00000000000321
  0
LINE
  5
5B94
  8
0
 10
256.90000000000009
 20
543.70000000000005
 30
0.0
 11
256.90000000000009
 21
544.89999999999986
 31
0.0
  0
ARC
  5
5B95
  8
0
 10
255.69999999999999
 20
543.70000000000005
 30
0.0
 40
1.1999999999999591
 50
180.0
 51
0.0
  0
LINE
  5
5B96
  8
0
 10
264.5
 20
544.89999999999986
 30
0.0
 11
264.5
 21
543.70000000000005
 31
0.0
  0
ARC
  5
5B97
  8
0
 10
265.69999999999999
 20
544.89999999999998
 30
0.0
 40
1.1999999999999891
 50
0.0
 51
180.0
  0
LINE
  5
5B98
  8
0
 10
266.90000000000009
 20
543.70000000000005
 30
0.0
 11
266.90000000000009
 21
544.89999999999986
 31
0.0
  0
ARC
  5
5B99
  8
0
 10
265.69999999999999
 20
543.70000000000005
 30
0.0
 40
1.2000000000000171
 50
180.0
 51
0.0
  0
LINE
  5
5B9A
  8
0
 10
274.5
 20
544.89999999999986
 30
0.0
 11
274.5
 21
543.70000000000005
 31
0.0
  0
ARC
  5
5B9B
  8
0
 10
275.7000000000001
 20
544.89999999999998
 30
0.0
 40
1.1999999999999891
 50
359.99999999999682
 51
180.00000000000321
  0
LINE
  5
5B9C
  8
0
 10
276.90000000000009
 20
543.70000000000005
 30
0.0
 11
276.90000000000009
 21
544.89999999999986
 31
0.0
  0
ARC
  5
5B9D
  8
0
 10
275.7000000000001
 20
543.70000000000005
 30
0.0
 40
1.1999999999999891
 50
180.0
 51
0.0
  0
LINE
  5
5B9E
  8
0
 10
244.05000000000001
 20
544.89999999999986
 30
0.0
 11
244.05000000000001
 21
543.70000000000005
 31
0.0
  0
ARC
  5
5B9F
  8
0
 10
245.25
 20
544.89999999999998
 30
0.0
 40
1.1999999999999891
 50
359.99999999999682
 51
180.00000000000321
  0
LINE
  5
5BA0
  8
0
 10
246.4500000000001
 20
543.70000000000005
 30
0.0
 11
246.4500000000001
 21
544.89999999999986
 31
0.0
  0
ARC
  5
5BA1
  8
0
 10
245.25
 20
543.70000000000005
 30
0.0
 40
1.1999999999999591
 50
180.0
 51
0.0
  0
LINE
  5
5BA2
  8
0
 10
277.09999999999991
 20
550.49999999999989
 30
0.0
 11
277.09999999999991
 21
542.49999999999989
 31
0.0
  0
LINE
  5
5BA3
  8
0
 10
277.40000000000009
 20
550.49999999999989
 30
0.0
 11
277.09999999999991
 21
550.49999999999989
 31
0.0
  0
LINE
  5
5BA4
  8
0
 10
277.40000000000009
 20
542.49999999999989
 30
0.0
 11
277.40000000000009
 21
550.49999999999989
 31
0.0
  0
LINE
  5
5BA5
  8
0
 10
277.09999999999991
 20
542.49999999999989
 30
0.0
 11
277.40000000000009
 21
542.49999999999989
 31
0.0
  0
LINE
  5
5BA6
  8
0
 10
287.09999999999991
 20
550.49999999999989
 30
0.0
 11
287.09999999999991
 21
542.49999999999989
 31
0.0
  0
LINE
  5
5BA7
  8
0
 10
287.40000000000009
 20
550.49999999999989
 30
0.0
 11
287.09999999999991
 21
550.49999999999989
 31
0.0
  0
LINE
  5
5BA8
  8
0
 10
287.40000000000009
 20
542.49999999999989
 30
0.0
 11
287.40000000000009
 21
550.49999999999989
 31
0.0
  0
LINE
  5
5BA9
  8
0
 10
287.09999999999991
 20
542.49999999999989
 30
0.0
 11
287.40000000000009
 21
542.49999999999989
 31
0.0
  0
LINE
  5
5BAA
  8
0
 10
307.09999999999991
 20
550.49999999999989
 30
0.0
 11
307.09999999999991
 21
542.49999999999989
 31
0.0
  0
LINE
  5
5BAB
  8
0
 10
307.40000000000009
 20
550.49999999999989
 30
0.0
 11
307.09999999999991
 21
550.49999999999989
 31
0.0
  0
LINE
  5
5BAC
  8
0
 10
307.40000000000009
 20
542.49999999999989
 30
0.0
 11
307.40000000000009
 21
550.49999999999989
 31
0.0
  0
LINE
  5
5BAD
  8
0
 10
307.09999999999991
 20
542.49999999999989
 30
0.0
 11
307.40000000000009
 21
542.49999999999989
 31
0.0
  0
LINE
  5
5BAE
  8
0
 10
317.09999999999991
 20
550.49999999999989
 30
0.0
 11
317.09999999999991
 21
542.49999999999989
 31
0.0
  0
LINE
  5
5BAF
  8
0
 10
317.40000000000009
 20
550.49999999999989
 30
0.0
 11
317.09999999999991
 21
550.49999999999989
 31
0.0
  0
LINE
  5
5BB0
  8
0
 10
317.40000000000009
 20
542.49999999999989
 30
0.0
 11
317.40000000000009
 21
550.49999999999989
 31
0.0
  0
LINE
  5
5BB1
  8
0
 10
317.09999999999991
 20
542.49999999999989
 30
0.0
 11
317.40000000000009
 21
542.49999999999989
 31
0.0
  0
LINE
  5
5BB2
  8
0
 10
246.94999999999999
 20
550.49999999999989
 30
0.0
 11
246.94999999999999
 21
542.49999999999989
 31
0.0
  0
LINE
  5
5BB3
  8
0
 10
247.25
 20
550.49999999999989
 30
0.0
 11
246.94999999999999
 21
550.49999999999989
 31
0.0
  0
LINE
  5
5BB4
  8
0
 10
247.25
 20
542.49999999999989
 30
0.0
 11
247.25
 21
550.49999999999989
 31
0.0
  0
LINE
  5
5BB5
  8
0
 10
246.94999999999999
 20
542.49999999999989
 30
0.0
 11
247.25
 21
542.49999999999989
 31
0.0
  0
LINE
  5
5BB6
  8
0
 10
297.09999999999991
 20
550.49999999999989
 30
0.0
 11
297.09999999999991
 21
539.5
 31
0.0
  0
LINE
  5
5BB7
  8
0
 10
297.40000000000009
 20
550.49999999999989
 30
0.0
 11
297.09999999999991
 21
550.49999999999989
 31
0.0
  0
LINE
  5
5BB8
  8
0
 10
297.40000000000009
 20
539.5
 30
0.0
 11
297.40000000000009
 21
550.49999999999989
 31
0.0
  0
LINE
  5
5BB9
  8
0
 10
297.09999999999991
 20
539.5
 30
0.0
 11
297.40000000000009
 21
539.5
 31
0.0
  0
LINE
  5
5BBA
  8
0
 10
267.09999999999991
 20
550.49999999999989
 30
0.0
 11
267.09999999999991
 21
539.5
 31
0.0
  0
LINE
  5
5BBB
  8
0
 10
267.40000000000009
 20
550.49999999999989
 30
0.0
 11
267.09999999999991
 21
550.49999999999989
 31
0.0
  0
LINE
  5
5BBC
  8
0
 10
267.40000000000009
 20
539.5
 30
0.0
 11
267.40000000000009
 21
550.49999999999989
 31
0.0
  0
LINE
  5
5BBD
  8
0
 10
267.09999999999991
 20
539.5
 30
0.0
 11
267.40000000000009
 21
539.5
 31
0.0
  0
LINE
  5
5BBF
  8
0
 10
240.75
 20
535.63799999999992
 30
0.0
 11
239.75
 21
534.49999999999989
 31
0.0
  0
LINE
  5
5BC0
  8
0
 10
242.75
 20
535.63799999999992
 30
0.0
 11
241.75
 21
534.49999999999989
 31
0.0
  0
LINE
  5
5BC1
  8
0
 10
243.75
 20
534.49999999999989
 30
0.0
 11
242.75
 21
535.63799999999992
 31
0.0
  0
LINE
  5
5BC2
  8
0
 10
244.75
 20
535.63799999999992
 30
0.0
 11
243.75
 21
534.49999999999989
 31
0.0
  0
LINE
  5
5BC3
  8
0
 10
245.75
 20
534.49999999999989
 30
0.0
 11
244.75
 21
535.63799999999992
 31
0.0
  0
LINE
  5
5BC4
  8
0
 10
246.75
 20
535.63799999999992
 30
0.0
 11
245.75
 21
534.49999999999989
 31
0.0
  0
LINE
  5
5BC5
  8
0
 10
247.75
 20
534.49999999999989
 30
0.0
 11
246.75
 21
535.63799999999992
 31
0.0
  0
LINE
  5
5BC6
  8
0
 10
248.75
 20
535.63799999999992
 30
0.0
 11
247.75
 21
534.49999999999989
 31
0.0
  0
LINE
  5
5BC7
  8
0
 10
249.75
 20
534.49999999999989
 30
0.0
 11
248.75
 21
535.63799999999992
 31
0.0
  0
LINE
  5
5BC8
  8
0
 10
250.75
 20
535.63799999999992
 30
0.0
 11
249.75
 21
534.49999999999989
 31
0.0
  0
LINE
  5
5BC9
  8
0
 10
252.75
 20
535.63799999999992
 30
0.0
 11
251.75
 21
534.49999999999989
 31
0.0
  0
LINE
  5
5BCA
  8
0
 10
253.75
 20
534.49999999999989
 30
0.0
 11
252.75
 21
535.63799999999992
 31
0.0
  0
LINE
  5
5BCB
  8
0
 10
254.75
 20
535.63799999999992
 30
0.0
 11
253.75
 21
534.49999999999989
 31
0.0
  0
LINE
  5
5BCC
  8
0
 10
255.75
 20
534.49999999999989
 30
0.0
 11
254.75
 21
535.63799999999992
 31
0.0
  0
LINE
  5
5BCD
  8
0
 10
256.75
 20
535.63799999999992
 30
0.0
 11
255.75
 21
534.49999999999989
 31
0.0
  0
LINE
  5
5BCE
  8
0
 10
257.75
 20
534.49999999999989
 30
0.0
 11
256.75
 21
535.63799999999992
 31
0.0
  0
LINE
  5
5BCF
  8
0
 10
258.75
 20
535.63799999999992
 30
0.0
 11
257.75
 21
534.49999999999989
 31
0.0
  0
LINE
  5
5BD0
  8
0
 10
259.75
 20
534.49999999999989
 30
0.0
 11
258.75
 21
535.63799999999992
 31
0.0
  0
LINE
  5
5BD1
  8
0
 10
260.75
 20
535.63799999999992
 30
0.0
 11
259.75
 21
534.49999999999989
 31
0.0
  0
LINE
  5
5BD2
  8
0
 10
262.75
 20
535.63799999999992
 30
0.0
 11
261.75
 21
534.49999999999989
 31
0.0
  0
LINE
  5
5BD3
  8
0
 10
263.75
 20
534.49999999999989
 30
0.0
 11
262.75
 21
535.63799999999992
 31
0.0
  0
LINE
  5
5BD4
  8
0
 10
264.75
 20
535.63799999999992
 30
0.0
 11
263.75
 21
534.49999999999989
 31
0.0
  0
LINE
  5
5BD5
  8
0
 10
265.75
 20
534.49999999999989
 30
0.0
 11
264.75
 21
535.63799999999992
 31
0.0
  0
LINE
  5
5BD6
  8
0
 10
266.75
 20
535.63799999999992
 30
0.0
 11
265.75
 21
534.49999999999989
 31
0.0
  0
LINE
  5
5BD7
  8
0
 10
267.75
 20
534.49999999999989
 30
0.0
 11
266.75
 21
535.63799999999992
 31
0.0
  0
LINE
  5
5BD8
  8
0
 10
268.75
 20
535.63799999999992
 30
0.0
 11
267.75
 21
534.49999999999989
 31
0.0
  0
LINE
  5
5BD9
  8
0
 10
269.75
 20
534.49999999999989
 30
0.0
 11
268.75
 21
535.63799999999992
 31
0.0
  0
LINE
  5
5BDA
  8
0
 10
270.75
 20
535.63799999999992
 30
0.0
 11
269.75
 21
534.49999999999989
 31
0.0
  0
LINE
  5
5BDB
  8
0
 10
272.75
 20
535.63799999999992
 30
0.0
 11
271.75
 21
534.49999999999989
 31
0.0
  0
LINE
  5
5BDC
  8
0
 10
273.75
 20
534.49999999999989
 30
0.0
 11
272.75
 21
535.63799999999992
 31
0.0
  0
LINE
  5
5BDD
  8
0
 10
274.75
 20
535.63799999999992
 30
0.0
 11
273.75
 21
534.49999999999989
 31
0.0
  0
LINE
  5
5BDE
  8
0
 10
275.75
 20
534.49999999999989
 30
0.0
 11
274.75
 21
535.63799999999992
 31
0.0
  0
LINE
  5
5BDF
  8
0
 10
276.75
 20
535.63799999999992
 30
0.0
 11
275.75
 21
534.49999999999989
 31
0.0
  0
LINE
  5
5BE0
  8
0
 10
277.75
 20
534.49999999999989
 30
0.0
 11
276.75
 21
535.63799999999992
 31
0.0
  0
LINE
  5
5BE1
  8
0
 10
278.75
 20
535.63799999999992
 30
0.0
 11
277.75
 21
534.49999999999989
 31
0.0
  0
LINE
  5
5BE2
  8
0
 10
279.75
 20
534.49999999999989
 30
0.0
 11
278.75
 21
535.63799999999992
 31
0.0
  0
LINE
  5
5BE3
  8
0
 10
280.75
 20
535.63799999999992
 30
0.0
 11
279.75
 21
534.49999999999989
 31
0.0
  0
LINE
  5
5BE4
  8
0
 10
281.75
 20
534.49999999999989
 30
0.0
 11
280.75
 21
535.63799999999992
 31
0.0
  0
LINE
  5
5BE5
  8
0
 10
282.75
 20
535.63799999999992
 30
0.0
 11
281.75
 21
534.49999999999989
 31
0.0
  0
LINE
  5
5BE6
  8
0
 10
283.75
 20
534.49999999999989
 30
0.0
 11
282.75
 21
535.63799999999992
 31
0.0
  0
LINE
  5
5BE7
  8
0
 10
284.75
 20
535.63799999999992
 30
0.0
 11
283.75
 21
534.49999999999989
 31
0.0
  0
LINE
  5
5BE8
  8
0
 10
285.75
 20
534.49999999999989
 30
0.0
 11
284.75
 21
535.63799999999992
 31
0.0
  0
LINE
  5
5BE9
  8
0
 10
287.75
 20
534.49999999999989
 30
0.0
 11
286.75
 21
535.63799999999992
 31
0.0
  0
LINE
  5
5BEA
  8
0
 10
288.75
 20
535.63799999999992
 30
0.0
 11
287.75
 21
534.49999999999989
 31
0.0
  0
LINE
  5
5BEB
  8
0
 10
289.75
 20
534.49999999999989
 30
0.0
 11
288.75
 21
535.63799999999992
 31
0.0
  0
LINE
  5
5BEC
  8
0
 10
290.75
 20
535.63799999999992
 30
0.0
 11
289.75
 21
534.49999999999989
 31
0.0
  0
LINE
  5
5BED
  8
0
 10
291.75
 20
534.49999999999989
 30
0.0
 11
290.75
 21
535.63799999999992
 31
0.0
  0
LINE
  5
5BEE
  8
0
 10
292.75
 20
535.63799999999992
 30
0.0
 11
291.75
 21
534.49999999999989
 31
0.0
  0
LINE
  5
5BEF
  8
0
 10
293.75
 20
534.49999999999989
 30
0.0
 11
292.75
 21
535.63799999999992
 31
0.0
  0
LINE
  5
5BF0
  8
0
 10
294.75
 20
535.63799999999992
 30
0.0
 11
293.75
 21
534.49999999999989
 31
0.0
  0
LINE
  5
5BF1
  8
0
 10
296.75
 20
535.63799999999992
 30
0.0
 11
295.75
 21
534.49999999999989
 31
0.0
  0
LINE
  5
5BF2
  8
0
 10
297.75
 20
534.49999999999989
 30
0.0
 11
296.75
 21
535.63799999999992
 31
0.0
  0
LINE
  5
5BF3
  8
0
 10
298.75
 20
535.63799999999992
 30
0.0
 11
297.75
 21
534.49999999999989
 31
0.0
  0
LINE
  5
5BF4
  8
0
 10
299.75
 20
534.49999999999989
 30
0.0
 11
298.75
 21
535.63799999999992
 31
0.0
  0
LINE
  5
5BF5
  8
0
 10
301.75
 20
534.49999999999989
 30
0.0
 11
300.75
 21
535.63799999999992
 31
0.0
  0
LINE
  5
5BF6
  8
0
 10
302.75
 20
535.63799999999992
 30
0.0
 11
301.75
 21
534.49999999999989
 31
0.0
  0
LINE
  5
5BF7
  8
0
 10
304.75
 20
535.63799999999992
 30
0.0
 11
303.75
 21
534.49999999999989
 31
0.0
  0
LINE
  5
5BF8
  8
0
 10
305.75
 20
534.49999999999989
 30
0.0
 11
304.75
 21
535.63799999999992
 31
0.0
  0
LINE
  5
5BF9
  8
0
 10
306.75
 20
535.63799999999992
 30
0.0
 11
305.75
 21
534.49999999999989
 31
0.0
  0
LINE
  5
5BFA
  8
0
 10
307.75
 20
534.49999999999989
 30
0.0
 11
306.75
 21
535.63799999999992
 31
0.0
  0
LINE
  5
5BFB
  8
0
 10
308.75
 20
535.63799999999992
 30
0.0
 11
307.75
 21
534.49999999999989
 31
0.0
  0
LINE
  5
5BFC
  8
0
 10
309.75
 20
534.49999999999989
 30
0.0
 11
308.75
 21
535.63799999999992
 31
0.0
  0
LINE
  5
5BFD
  8
0
 10
310.75
 20
535.63799999999992
 30
0.0
 11
309.75
 21
534.49999999999989
 31
0.0
  0
LINE
  5
5BFE
  8
0
 10
311.75
 20
534.49999999999989
 30
0.0
 11
310.75
 21
535.63799999999992
 31
0.0
  0
LINE
  5
5BFF
  8
0
 10
312.75
 20
535.63799999999992
 30
0.0
 11
311.75
 21
534.49999999999989
 31
0.0
  0
LINE
  5
5C00
  8
0
 10
313.75
 20
534.49999999999989
 30
0.0
 11
312.75
 21
535.63799999999992
 31
0.0
  0
LINE
  5
5C01
  8
0
 10
314.75
 20
535.63799999999992
 30
0.0
 11
313.75
 21
534.49999999999989
 31
0.0
  0
LINE
  5
5C02
  8
0
 10
315.75
 20
534.49999999999989
 30
0.0
 11
314.75
 21
535.63799999999992
 31
0.0
  0
LINE
  5
5C03
  8
0
 10
316.75
 20
535.63799999999992
 30
0.0
 11
315.75
 21
534.49999999999989
 31
0.0
  0
LINE
  5
5C04
  8
0
 10
317.75
 20
534.49999999999989
 30
0.0
 11
316.75
 21
535.63799999999992
 31
0.0
  0
LINE
  5
5C05
  8
0
 10
318.75
 20
535.63799999999992
 30
0.0
 11
317.75
 21
534.49999999999989
 31
0.0
  0
LINE
  5
5C06
  8
0
 10
319.75
 20
534.49999999999989
 30
0.0
 11
318.75
 21
535.63799999999992
 31
0.0
  0
LINE
  5
5C07
  8
0
 10
320.75
 20
535.63799999999992
 30
0.0
 11
319.75
 21
534.49999999999989
 31
0.0
  0
LINE
  5
5C08
  8
0
 10
321.75
 20
534.49999999999989
 30
0.0
 11
320.75
 21
535.63799999999992
 31
0.0
  0
LINE
  5
5C09
  8
0
 10
322.75
 20
535.63799999999992
 30
0.0
 11
321.75
 21
534.49999999999989
 31
0.0
  0
LINE
  5
5C0A
  8
0
 10
323.75
 20
534.49999999999989
 30
0.0
 11
322.75
 21
535.63799999999992
 31
0.0
  0
LINE
  5
5C0B
  8
0
 10
324.75
 20
535.63799999999992
 30
0.0
 11
323.75
 21
534.49999999999989
 31
0.0
  0
LINE
  5
5C0C
  8
0
 10
325.75
 20
534.49999999999989
 30
0.0
 11
324.75
 21
535.63799999999992
 31
0.0
  0
LINE
  5
5C0D
  8
0
 10
326.75
 20
535.63799999999992
 30
0.0
 11
325.75
 21
534.49999999999989
 31
0.0
  0
LINE
  5
5C0E
  8
0
 10
327.75
 20
534.49999999999989
 30
0.0
 11
326.75
 21
535.63799999999992
 31
0.0
  0
LINE
  5
5C0F
  8
0
 10
328.75
 20
535.63799999999992
 30
0.0
 11
327.75
 21
534.49999999999989
 31
0.0
  0
LINE
  5
5C10
  8
0
 10
329.75
 20
534.49999999999989
 30
0.0
 11
328.75
 21
535.63799999999992
 31
0.0
  0
LINE
  5
5C11
  8
0
 10
330.75
 20
535.63799999999992
 30
0.0
 11
329.75
 21
534.49999999999989
 31
0.0
  0
LINE
  5
5C12
  8
0
 10
332.62873462214412
 20
535.5
 30
0.0
 11
330.87126537785599
 21
535.5
 31
0.0
  0
LINE
  5
5C13
  8
0
 10
334.62873462214412
 20
535.5
 30
0.0
 11
332.87126537785599
 21
535.5
 31
0.0
  0
LINE
  5
5C14
  8
0
 10
335.75
 20
534.49999999999989
 30
0.0
 11
334.75
 21
535.63799999999992
 31
0.0
  0
LINE
  5
5C15
  8
0
 10
336.75
 20
535.63799999999992
 30
0.0
 11
335.75
 21
534.49999999999989
 31
0.0
  0
LINE
  5
5C16
  8
0
 10
337.75
 20
534.49999999999989
 30
0.0
 11
336.75
 21
535.63799999999992
 31
0.0
  0
LINE
  5
5C17
  8
0
 10
338.75
 20
535.63799999999992
 30
0.0
 11
337.75
 21
534.49999999999989
 31
0.0
  0
LINE
  5
5C18
  8
0
 10
339.75
 20
534.49999999999989
 30
0.0
 11
338.75
 21
535.63799999999992
 31
0.0
  0
LINE
  5
5C19
  8
0
 10
340.75
 20
535.63799999999992
 30
0.0
 11
339.75
 21
534.49999999999989
 31
0.0
  0
LINE
  5
5C1A
  8
0
 10
341.75
 20
534.49999999999989
 30
0.0
 11
340.75
 21
535.63799999999992
 31
0.0
  0
LINE
  5
5C1B
  8
0
 10
342.75
 20
535.63799999999992
 30
0.0
 11
341.75
 21
534.49999999999989
 31
0.0
  0
LINE
  5
5C1C
  8
0
 10
343.75
 20
534.49999999999989
 30
0.0
 11
342.75
 21
535.63799999999992
 31
0.0
  0
LINE
  5
5C1D
  8
0
 10
344.75
 20
535.63799999999992
 30
0.0
 11
343.75
 21
534.49999999999989
 31
0.0
  0
LINE
  5
5C1E
  8
0
 10
345.75
 20
534.49999999999989
 30
0.0
 11
344.75
 21
535.63799999999992
 31
0.0
  0
LINE
  5
5C1F
  8
0
 10
346.75
 20
535.63799999999992
 30
0.0
 11
345.75
 21
534.49999999999989
 31
0.0
  0
LINE
  5
5C20
  8
0
 10
347.75
 20
534.49999999999989
 30
0.0
 11
346.75
 21
535.63799999999992
 31
0.0
  0
LINE
  5
5C21
  8
0
 10
348.75
 20
535.63799999999992
 30
0.0
 11
347.75
 21
534.49999999999989
 31
0.0
  0
LINE
  5
5C22
  8
0
 10
349.75
 20
534.49999999999989
 30
0.0
 11
348.75
 21
535.63799999999992
 31
0.0
  0
LINE
  5
5C23
  8
0
 10
350.75
 20
535.63799999999992
 30
0.0
 11
349.75
 21
534.49999999999989
 31
0.0
  0
LINE
  5
5C24
  8
0
 10
351.75
 20
534.49999999999989
 30
0.0
 11
350.75
 21
535.63799999999992
 31
0.0
  0
LINE
  5
5C25
  8
0
 10
352.75
 20
535.63799999999992
 30
0.0
 11
351.75
 21
534.49999999999989
 31
0.0
  0
LINE
  5
5C26
  8
0
 10
353.75
 20
534.49999999999989
 30
0.0
 11
352.75
 21
535.63799999999992
 31
0.0
  0
LINE
  5
5C27
  8
0
 10
354.75
 20
535.63799999999992
 30
0.0
 11
353.75
 21
534.49999999999989
 31
0.0
  0
LINE
  5
5C28
  8
0
 10
355.75
 20
534.49999999999989
 30
0.0
 11
354.75
 21
535.63799999999992
 31
0.0
  0
LINE
  5
5C29
  8
0
 10
356.75
 20
535.63799999999992
 30
0.0
 11
355.75
 21
534.49999999999989
 31
0.0
  0
LINE
  5
5C2A
  8
0
 10
357.75
 20
534.49999999999989
 30
0.0
 11
356.75
 21
535.63799999999992
 31
0.0
  0
LINE
  5
5C2B
  8
0
 10
358.75
 20
535.63799999999992
 30
0.0
 11
357.75
 21
534.49999999999989
 31
0.0
  0
LINE
  5
5C2C
  8
0
 10
359.75
 20
534.49999999999989
 30
0.0
 11
358.75
 21
535.63799999999992
 31
0.0
  0
LINE
  5
5C2D
  8
0
 10
360.75
 20
535.63799999999992
 30
0.0
 11
359.75
 21
534.49999999999989
 31
0.0
  0
LINE
  5
5C2E
  8
0
 10
361.75
 20
534.49999999999989
 30
0.0
 11
360.75
 21
535.63799999999992
 31
0.0
  0
LINE
  5
5C2F
  8
0
 10
362.75
 20
535.63799999999992
 30
0.0
 11
361.75
 21
534.49999999999989
 31
0.0
  0
LINE
  5
5C30
  8
0
 10
363.75
 20
534.49999999999989
 30
0.0
 11
362.75
 21
535.63799999999992
 31
0.0
  0
LINE
  5
5C31
  8
0
 10
364.75
 20
535.63799999999992
 30
0.0
 11
363.75
 21
534.49999999999989
 31
0.0
  0
LINE
  5
5C32
  8
0
 10
365.75
 20
534.49999999999989
 30
0.0
 11
364.75
 21
535.63799999999992
 31
0.0
  0
LINE
  5
5C33
  8
0
 10
366.75
 20
535.63799999999992
 30
0.0
 11
365.75
 21
534.49999999999989
 31
0.0
  0
LINE
  5
5C34
  8
0
 10
367.75
 20
534.49999999999989
 30
0.0
 11
366.75
 21
535.63799999999992
 31
0.0
  0
LINE
  5
5C35
  8
0
 10
368.75
 20
535.63799999999992
 30
0.0
 11
367.75
 21
534.49999999999989
 31
0.0
  0
LINE
  5
5C36
  8
0
 10
369.75
 20
534.49999999999989
 30
0.0
 11
368.75
 21
535.63799999999992
 31
0.0
  0
LINE
  5
5C37
  8
0
 10
370.75
 20
535.63799999999992
 30
0.0
 11
369.75
 21
534.49999999999989
 31
0.0
  0
LINE
  5
5C38
  8
0
 10
371.75
 20
534.49999999999989
 30
0.0
 11
370.75
 21
535.63799999999992
 31
0.0
  0
LINE
  5
5C39
  8
0
 10
372.75
 20
535.63799999999992
 30
0.0
 11
371.75
 21
534.49999999999989
 31
0.0
  0
LINE
  5
5C3A
  8
0
 10
373.75
 20
534.49999999999989
 30
0.0
 11
372.75
 21
535.63799999999992
 31
0.0
  0
LINE
  5
5C3B
  8
0
 10
374.75
 20
535.63799999999992
 30
0.0
 11
373.75
 21
534.49999999999989
 31
0.0
  0
LINE
  5
5C3C
  8
0
 10
375.75
 20
534.49999999999989
 30
0.0
 11
374.75
 21
535.63799999999992
 31
0.0
  0
LINE
  5
5C3D
  8
0
 10
376.75
 20
535.63799999999992
 30
0.0
 11
375.75
 21
534.49999999999989
 31
0.0
  0
LINE
  5
5C3E
  8
0
 10
377.75
 20
534.49999999999989
 30
0.0
 11
376.75
 21
535.63799999999992
 31
0.0
  0
LINE
  5
5C3F
  8
0
 10
378.75
 20
535.63799999999992
 30
0.0
 11
377.75
 21
534.49999999999989
 31
0.0
  0
LINE
  5
5C40
  8
0
 10
379.5
 20
534.78449999999987
 30
0.0
 11
378.75
 21
535.63799999999992
 31
0.0
  0
LINE
  5
5C41
  8
0
 10
319.09999999999991
 20
616.5
 30
0.0
 11
328.09999999999991
 21
616.5
 31
0.0
  0
LINE
  5
5C42
  8
0
 10
319.09999999999991
 20
620.5
 30
0.0
 11
319.09999999999991
 21
616.5
 31
0.0
  0
LINE
  5
5C43
  8
0
 10
328.09999999999991
 20
620.5
 30
0.0
 11
319.09999999999991
 21
620.5
 31
0.0
  0
LINE
  5
5C44
  8
0
 10
328.09999999999991
 20
616.5
 30
0.0
 11
328.09999999999991
 21
620.5
 31
0.0
  0
LINE
  5
5C45
  8
0
 10
151.40000000000009
 20
616.5
 30
0.0
 11
160.40000000000009
 21
616.5
 31
0.0
  0
LINE
  5
5C46
  8
0
 10
151.40000000000009
 20
620.5
 30
0.0
 11
151.40000000000009
 21
616.5
 31
0.0
  0
LINE
  5
5C47
  8
0
 10
160.40000000000009
 20
620.5
 30
0.0
 11
151.40000000000009
 21
620.5
 31
0.0
  0
LINE
  5
5C48
  8
0
 10
160.40000000000009
 20
616.5
 30
0.0
 11
160.40000000000009
 21
620.5
 31
0.0
  0
LINE
  5
5C49
  8
0
 10
184.40000000000009
 20
616.5
 30
0.0
 11
191.40000000000009
 21
616.5
 31
0.0
  0
LINE
  5
5C4A
  8
0
 10
184.40000000000009
 20
620.5
 30
0.0
 11
184.40000000000009
 21
616.5
 31
0.0
  0
LINE
  5
5C4B
  8
0
 10
191.40000000000009
 20
620.5
 30
0.0
 11
184.40000000000009
 21
620.5
 31
0.0
  0
LINE
  5
5C4C
  8
0
 10
191.40000000000009
 20
616.5
 30
0.0
 11
191.40000000000009
 21
620.5
 31
0.0
  0
LINE
  5
5C4D
  8
0
 10
288.09999999999991
 20
616.5
 30
0.0
 11
295.09999999999991
 21
616.5
 31
0.0
  0
LINE
  5
5C4E
  8
0
 10
288.09999999999991
 20
620.5
 30
0.0
 11
288.09999999999991
 21
616.5
 31
0.0
  0
LINE
  5
5C4F
  8
0
 10
295.09999999999991
 20
620.5
 30
0.0
 11
288.09999999999991
 21
620.5
 31
0.0
  0
LINE
  5
5C50
  8
0
 10
295.09999999999991
 20
616.5
 30
0.0
 11
295.09999999999991
 21
620.5
 31
0.0
  0
LINE
  5
5C51
  8
0
 10
237.25
 20
616.5
 30
0.0
 11
242.25
 21
616.5
 31
0.0
  0
LINE
  5
5C52
  8
0
 10
237.25
 20
620.5
 30
0.0
 11
237.25
 21
616.5
 31
0.0
  0
LINE
  5
5C53
  8
0
 10
242.25
 20
620.5
 30
0.0
 11
237.25
 21
620.5
 31
0.0
  0
LINE
  5
5C54
  8
0
 10
242.25
 20
616.5
 30
0.0
 11
242.25
 21
620.5
 31
0.0
  0
LINE
  5
5C55
  8
0
 10
150.09999999999991
 20
620.5
 30
0.0
 11
150.09999999999991
 21
608.79999999999995
 31
0.0
  0
ARC
  5
5C56
  8
0
 10
150.25
 20
620.5
 30
0.0
 40
0.1500000000000128
 50
0.0000000000032569
 51
179.9999999999967
  0
LINE
  5
5C57
  8
0
 10
150.40000000000009
 20
608.79999999999995
 30
0.0
 11
150.40000000000009
 21
620.5
 31
0.0
  0
ARC
  5
5C58
  8
0
 10
150.25
 20
608.79999999999995
 30
0.0
 40
0.1500000000000057
 50
180.0
 51
0.0
  0
LINE
  5
5C59
  8
0
 10
183.09999999999991
 20
620.5
 30
0.0
 11
183.09999999999991
 21
608.79999999999995
 31
0.0
  0
ARC
  5
5C5A
  8
0
 10
183.25
 20
620.5
 30
0.0
 40
0.1500000000000057
 50
0.0
 51
180.0
  0
LINE
  5
5C5B
  8
0
 10
183.40000000000009
 20
608.79999999999995
 30
0.0
 11
183.40000000000009
 21
620.5
 31
0.0
  0
ARC
  5
5C5C
  8
0
 10
183.25
 20
608.79999999999995
 30
0.0
 40
0.1500000000000199
 50
180.0
 51
0.0
  0
LINE
  5
5C5D
  8
0
 10
213.59999999999991
 20
620.5
 30
0.0
 11
213.59999999999991
 21
608.79999999999995
 31
0.0
  0
ARC
  5
5C5E
  8
0
 10
213.75
 20
620.5
 30
0.0
 40
0.1500000000000057
 50
0.0
 51
180.0
  0
LINE
  5
5C5F
  8
0
 10
213.90000000000009
 20
608.79999999999995
 30
0.0
 11
213.90000000000009
 21
620.5
 31
0.0
  0
ARC
  5
5C60
  8
0
 10
213.75
 20
608.79999999999995
 30
0.0
 40
0.1500000000000199
 50
180.0
 51
0.0
  0
LINE
  5
5C61
  8
0
 10
329.09999999999991
 20
620.5
 30
0.0
 11
329.09999999999991
 21
608.79999999999995
 31
0.0
  0
ARC
  5
5C62
  8
0
 10
329.25
 20
620.5
 30
0.0
 40
0.1500000000000057
 50
0.0000000000065138
 51
179.99999999999349
  0
LINE
  5
5C63
  8
0
 10
329.40000000000009
 20
608.79999999999995
 30
0.0
 11
329.40000000000009
 21
620.5
 31
0.0
  0
ARC
  5
5C64
  8
0
 10
329.25
 20
608.79999999999995
 30
0.0
 40
0.1500000000000341
 50
180.00000000000321
 51
359.99999999999682
  0
LINE
  5
5C65
  8
0
 10
296.09999999999991
 20
620.5
 30
0.0
 11
296.09999999999991
 21
608.79999999999995
 31
0.0
  0
ARC
  5
5C66
  8
0
 10
296.25
 20
620.5
 30
0.0
 40
0.1500000000000057
 50
359.99999999999352
 51
180.00000000000651
  0
LINE
  5
5C67
  8
0
 10
296.40000000000009
 20
608.79999999999995
 30
0.0
 11
296.40000000000009
 21
620.5
 31
0.0
  0
ARC
  5
5C68
  8
0
 10
296.25
 20
608.79999999999995
 30
0.0
 40
0.1500000000000057
 50
179.99999999999349
 51
0.0000000000065138
  0
LINE
  5
5C69
  8
0
 10
265.59999999999991
 20
620.5
 30
0.0
 11
265.59999999999991
 21
608.64999999999998
 31
0.0
  0
ARC
  5
5C6A
  8
0
 10
265.75
 20
620.5
 30
0.0
 40
0.1500000000000057
 50
359.99999999998369
 51
180.00000000001631
  0
LINE
  5
5C6B
  8
0
 10
265.90000000000009
 20
608.64999999999998
 30
0.0
 11
265.90000000000009
 21
620.5
 31
0.0
  0
ARC
  5
5C6C
  8
0
 10
265.75
 20
608.64999999999998
 30
0.0
 40
0.1500000000000057
 50
179.99999999999349
 51
0.0000000000065138
  0
LINE
  5
5C6D
  8
0
 10
239.7000000000001
 20
621.49999999999989
 30
0.0
 11
239.80000000000001
 21
621.49999999999989
 31
0.0
  0
LINE
  5
5C6E
  8
0
 10
239.7000000000001
 20
625.49999999999989
 30
0.0
 11
239.7000000000001
 21
621.49999999999989
 31
0.0
  0
LINE
  5
5C6F
  8
0
 10
379.5
 20
602.5
 30
0.0
 11
100.0
 21
602.5
 31
0.0
  0
LINE
  5
5C70
  8
0
 10
239.80000000000001
 20
621.49999999999989
 30
0.0
 11
239.80000000000001
 21
625.49999999999989
 31
0.0
  0
LINE
  5
5C71
  8
0
 10
379.5
 20
643.0
 30
0.0
 11
379.5
 21
518.0
 31
0.0
  0
LINE
  5
5C72
  8
0
 10
100.0
 20
643.0
 30
0.0
 11
100.0
 21
518.0
 31
0.0
  0
ARC
  5
5C75
  8
0
 10
272.75
 20
544.89999999999986
 30
0.0
 40
0.9000000000000056
 50
0.0
 51
180.0
  0
LINE
  5
5C76
  8
0
 10
273.65000000000009
 20
543.70000000000005
 30
0.0
 11
273.65000000000009
 21
544.89999999999986
 31
0.0
  0
ARC
  5
5C77
  8
0
 10
272.75
 20
543.70000000000005
 30
0.0
 40
0.9000000000000341
 50
180.0
 51
0.0
  0
LINE
  5
5C78
  8
0
 10
271.84999999999991
 20
544.89999999999986
 30
0.0
 11
271.84999999999991
 21
543.70000000000005
 31
0.0
  0
ARC
  5
5C79
  8
0
 10
214.2282581706167
 20
545.27499999999986
 30
0.0
 40
0.5254500044199554
 50
272.3714355147182
 51
87.628564485281842
  0
ARC
  5
5C7A
  8
0
 10
214.2717418293833
 20
545.27499999999986
 30
0.0
 40
0.5254500044199554
 50
92.371435514718144
 51
267.6285644852818
  0
ARC
  5
5C7B
  8
0
 10
214.32116018101809
 20
543.625
 30
0.0
 40
0.8280632653140232
 50
359.55014292541171
 51
94.929832357111039
  0
ARC
  5
5C7C
  8
0
 10
214.24327081211891
 20
543.71056882564005
 30
0.0
 40
0.910593689961249
 50
270.42341340455442
 51
354.19689716373563
  0
ARC
  5
5C7D
  8
0
 10
214.25672918788109
 20
543.71056882564005
 30
0.0
 40
0.9105936899612819
 50
185.8031028362644
 51
269.57658659543262
  0
ARC
  5
5C7E
  8
0
 10
214.17883981898191
 20
543.625
 30
0.0
 40
0.8280632653140266
 50
85.070167642888975
 51
180.44985707458821
  0
ARC
  5
5C7F
  8
0
 10
262.72825817061681
 20
545.27499999999986
 30
0.0
 40
0.5254500044199625
 50
272.3714355147182
 51
87.628564485281842
  0
ARC
  5
5C80
  8
0
 10
262.77174182938319
 20
545.27499999999986
 30
0.0
 40
0.5254500044199625
 50
92.371435514718144
 51
267.6285644852818
  0
ARC
  5
5C81
  8
0
 10
262.82116018101812
 20
543.62500000000011
 30
0.0
 40
0.8280632653139397
 50
359.55014292539551
 51
94.929832357124269
  0
ARC
  5
5C82
  8
0
 10
262.74327081211908
 20
543.71056882564005
 30
0.0
 40
0.9105936899611418
 50
270.42341340455442
 51
354.19689716373239
  0
ARC
  5
5C83
  8
0
 10
262.75672918788109
 20
543.71056882564005
 30
0.0
 40
0.9105936899612501
 50
185.80310283627409
 51
269.57658659544558
  0
ARC
  5
5C84
  8
0
 10
262.678839818982
 20
543.625
 30
0.0
 40
0.828063265314017
 50
85.070167642888975
 51
180.44985707460131
  0
ARC
  5
5C85
  8
0
 10
188.75
 20
544.89999999999986
 30
0.0
 40
0.9000000000000056
 50
0.0
 51
180.0
  0
LINE
  5
5C86
  8
0
 10
189.65000000000009
 20
543.70000000000005
 30
0.0
 11
189.65000000000009
 21
544.89999999999986
 31
0.0
  0
ARC
  5
5C87
  8
0
 10
188.75
 20
543.70000000000005
 30
0.0
 40
0.9000000000000198
 50
180.0
 51
0.0
  0
LINE
  5
5C88
  8
0
 10
187.84999999999991
 20
544.89999999999986
 30
0.0
 11
187.84999999999991
 21
543.70000000000005
 31
0.0
  0
ARC
  5
5C89
  8
0
 10
208.75
 20
544.89999999999986
 30
0.0
 40
0.9000000000000056
 50
0.0
 51
180.0
  0
LINE
  5
5C8A
  8
0
 10
209.65000000000009
 20
543.70000000000005
 30
0.0
 11
209.65000000000009
 21
544.89999999999986
 31
0.0
  0
ARC
  5
5C8B
  8
0
 10
208.75
 20
543.70000000000005
 30
0.0
 40
0.9000000000000198
 50
180.0
 51
0.0
  0
LINE
  5
5C8C
  8
0
 10
207.84999999999991
 20
544.89999999999986
 30
0.0
 11
207.84999999999991
 21
543.70000000000005
 31
0.0
  0
CIRCLE
  5
5C8D
  8
0
 10
252.75
 20
543.70000000000005
 30
0.0
 40
0.9000000000000001
  0
CIRCLE
  5
5C8E
  8
0
 10
224.25
 20
543.70000000000005
 30
0.0
 40
0.9000000000000001
  0
LINE
  5
5C8F
  8
0
 10
243.25
 20
545.52194096397079
 30
0.0
 11
242.0831072718747
 21
543.59999999999991
 31
0.0
  0
LINE
  5
5C90
  8
0
 10
243.25
 20
543.59999999999991
 30
0.0
 11
243.25
 21
545.52194096397079
 31
0.0
  0
LINE
  5
5C91
  8
0
 10
242.0831072718747
 20
543.59999999999991
 30
0.0
 11
243.25
 21
543.59999999999991
 31
0.0
  0
ARC
  5
5C92
  8
0
 10
227.09999999999991
 20
544.89999999999986
 30
0.0
 40
0.9000000000000198
 50
0.0
 51
180.0
  0
LINE
  5
5C93
  8
0
 10
228.0
 20
543.70000000000005
 30
0.0
 11
228.0
 21
544.89999999999986
 31
0.0
  0
ARC
  5
5C94
  8
0
 10
227.09999999999991
 20
543.70000000000005
 30
0.0
 40
0.9000000000000056
 50
180.00000000000321
 51
359.99999999999682
  0
LINE
  5
5C95
  8
0
 10
226.19999999999999
 20
544.89999999999986
 30
0.0
 11
226.19999999999999
 21
543.70000000000005
 31
0.0
  0
ARC
  5
5C96
  8
0
 10
217.09999999999991
 20
544.89999999999986
 30
0.0
 40
0.9000000000000056
 50
0.0
 51
180.0
  0
LINE
  5
5C97
  8
0
 10
218.0
 20
543.70000000000005
 30
0.0
 11
218.0
 21
544.89999999999986
 31
0.0
  0
ARC
  5
5C98
  8
0
 10
217.09999999999991
 20
543.70000000000005
 30
0.0
 40
0.9000000000000198
 50
180.00000000000321
 51
359.99999999999682
  0
LINE
  5
5C99
  8
0
 10
216.19999999999999
 20
544.89999999999986
 30
0.0
 11
216.19999999999999
 21
543.70000000000005
 31
0.0
  0
ARC
  5
5C9A
  8
0
 10
205.59999999999991
 20
544.89999999999986
 30
0.0
 40
0.9000000000000056
 50
0.0000000000032569
 51
179.9999999999967
  0
LINE
  5
5C9B
  8
0
 10
206.5
 20
543.70000000000005
 30
0.0
 11
206.5
 21
544.89999999999986
 31
0.0
  0
ARC
  5
5C9C
  8
0
 10
205.59999999999991
 20
543.70000000000005
 30
0.0
 40
0.9000000000000198
 50
180.00000000000321
 51
359.99999999999682
  0
LINE
  5
5C9D
  8
0
 10
204.7000000000001
 20
544.89999999999986
 30
0.0
 11
204.7000000000001
 21
543.70000000000005
 31
0.0
  0
LINE
  5
5C9E
  8
0
 10
234.75
 20
545.52194096397079
 30
0.0
 11
233.5831072718747
 21
543.59999999999991
 31
0.0
  0
LINE
  5
5C9F
  8
0
 10
234.75
 20
543.59999999999991
 30
0.0
 11
234.75
 21
545.52194096397079
 31
0.0
  0
LINE
  5
5CA0
  8
0
 10
233.5831072718747
 20
543.59999999999991
 30
0.0
 11
234.75
 21
543.59999999999991
 31
0.0
  0
ARC
  5
5CA1
  8
0
 10
236.75
 20
544.89999999999986
 30
0.0
 40
0.9000000000000341
 50
0.0
 51
180.0
  0
LINE
  5
5CA2
  8
0
 10
237.65000000000009
 20
543.70000000000005
 30
0.0
 11
237.65000000000009
 21
544.89999999999986
 31
0.0
  0
ARC
  5
5CA3
  8
0
 10
236.75
 20
543.70000000000005
 30
0.0
 40
0.9000000000000341
 50
180.00000000000321
 51
359.99999999999682
  0
LINE
  5
5CA4
  8
0
 10
235.84999999999991
 20
544.89999999999986
 30
0.0
 11
235.84999999999991
 21
543.70000000000005
 31
0.0
  0
LINE
  5
5CA5
  8
0
 10
100.75
 20
535.63799999999992
 30
0.0
 11
101.75
 21
534.49999999999989
 31
0.0
  0
LINE
  5
5CA6
  8
0
 10
101.75
 20
534.49999999999989
 30
0.0
 11
102.75
 21
535.63799999999992
 31
0.0
  0
LINE
  5
5CA7
  8
0
 10
102.75
 20
535.63799999999992
 30
0.0
 11
103.75
 21
534.49999999999989
 31
0.0
  0
LINE
  5
5CA8
  8
0
 10
103.75
 20
534.49999999999989
 30
0.0
 11
104.75
 21
535.63799999999992
 31
0.0
  0
LINE
  5
5CA9
  8
0
 10
104.75
 20
535.63799999999992
 30
0.0
 11
105.75
 21
534.49999999999989
 31
0.0
  0
LINE
  5
5CAA
  8
0
 10
105.75
 20
534.49999999999989
 30
0.0
 11
106.75
 21
535.63799999999992
 31
0.0
  0
LINE
  5
5CAB
  8
0
 10
106.75
 20
535.63799999999992
 30
0.0
 11
107.75
 21
534.49999999999989
 31
0.0
  0
LINE
  5
5CAC
  8
0
 10
107.75
 20
534.49999999999989
 30
0.0
 11
108.75
 21
535.63799999999992
 31
0.0
  0
LINE
  5
5CAD
  8
0
 10
108.75
 20
535.63799999999992
 30
0.0
 11
109.75
 21
534.49999999999989
 31
0.0
  0
LINE
  5
5CAE
  8
0
 10
109.75
 20
534.49999999999989
 30
0.0
 11
110.75
 21
535.63799999999992
 31
0.0
  0
LINE
  5
5CAF
  8
0
 10
110.75
 20
535.63799999999992
 30
0.0
 11
111.75
 21
534.49999999999989
 31
0.0
  0
LINE
  5
5CB0
  8
0
 10
111.75
 20
534.49999999999989
 30
0.0
 11
112.75
 21
535.63799999999992
 31
0.0
  0
LINE
  5
5CB1
  8
0
 10
112.75
 20
535.63799999999992
 30
0.0
 11
113.75
 21
534.49999999999989
 31
0.0
  0
LINE
  5
5CB2
  8
0
 10
113.75
 20
534.49999999999989
 30
0.0
 11
114.75
 21
535.63799999999992
 31
0.0
  0
LINE
  5
5CB3
  8
0
 10
114.75
 20
535.63799999999992
 30
0.0
 11
115.75
 21
534.49999999999989
 31
0.0
  0
LINE
  5
5CB4
  8
0
 10
115.75
 20
534.49999999999989
 30
0.0
 11
116.75
 21
535.63799999999992
 31
0.0
  0
LINE
  5
5CB5
  8
0
 10
116.75
 20
535.63799999999992
 30
0.0
 11
117.75
 21
534.49999999999989
 31
0.0
  0
LINE
  5
5CB6
  8
0
 10
117.75
 20
534.49999999999989
 30
0.0
 11
118.75
 21
535.63799999999992
 31
0.0
  0
LINE
  5
5CB7
  8
0
 10
118.75
 20
535.63799999999992
 30
0.0
 11
119.75
 21
534.49999999999989
 31
0.0
  0
LINE
  5
5CB8
  8
0
 10
119.75
 20
534.49999999999989
 30
0.0
 11
120.75
 21
535.63799999999992
 31
0.0
  0
LINE
  5
5CB9
  8
0
 10
120.75
 20
535.63799999999992
 30
0.0
 11
121.75
 21
534.49999999999989
 31
0.0
  0
LINE
  5
5CBA
  8
0
 10
121.75
 20
534.49999999999989
 30
0.0
 11
122.75
 21
535.63799999999992
 31
0.0
  0
LINE
  5
5CBB
  8
0
 10
122.75
 20
535.63799999999992
 30
0.0
 11
123.75
 21
534.49999999999989
 31
0.0
  0
LINE
  5
5CBC
  8
0
 10
123.75
 20
534.49999999999989
 30
0.0
 11
124.75
 21
535.63799999999992
 31
0.0
  0
LINE
  5
5CBD
  8
0
 10
124.75
 20
535.63799999999992
 30
0.0
 11
125.75
 21
534.49999999999989
 31
0.0
  0
LINE
  5
5CBE
  8
0
 10
125.75
 20
534.49999999999989
 30
0.0
 11
126.75
 21
535.63799999999992
 31
0.0
  0
LINE
  5
5CBF
  8
0
 10
126.75
 20
535.63799999999992
 30
0.0
 11
127.75
 21
534.49999999999989
 31
0.0
  0
LINE
  5
5CC0
  8
0
 10
127.75
 20
534.49999999999989
 30
0.0
 11
128.75
 21
535.63799999999992
 31
0.0
  0
LINE
  5
5CC1
  8
0
 10
128.75
 20
535.63799999999992
 30
0.0
 11
129.75
 21
534.49999999999989
 31
0.0
  0
LINE
  5
5CC2
  8
0
 10
129.75
 20
534.49999999999989
 30
0.0
 11
130.75
 21
535.63799999999992
 31
0.0
  0
LINE
  5
5CC3
  8
0
 10
130.75
 20
535.63799999999992
 30
0.0
 11
131.75
 21
534.49999999999989
 31
0.0
  0
LINE
  5
5CC4
  8
0
 10
131.75
 20
534.49999999999989
 30
0.0
 11
132.75
 21
535.63799999999992
 31
0.0
  0
LINE
  5
5CC5
  8
0
 10
132.75
 20
535.63799999999992
 30
0.0
 11
133.75
 21
534.49999999999989
 31
0.0
  0
LINE
  5
5CC6
  8
0
 10
133.75
 20
534.49999999999989
 30
0.0
 11
134.75
 21
535.63799999999992
 31
0.0
  0
LINE
  5
5CC7
  8
0
 10
134.75
 20
535.63799999999992
 30
0.0
 11
135.75
 21
534.49999999999989
 31
0.0
  0
LINE
  5
5CC8
  8
0
 10
135.75
 20
534.49999999999989
 30
0.0
 11
136.75
 21
535.63799999999992
 31
0.0
  0
LINE
  5
5CC9
  8
0
 10
136.75
 20
535.63799999999992
 30
0.0
 11
137.75
 21
534.49999999999989
 31
0.0
  0
LINE
  5
5CCA
  8
0
 10
137.75
 20
534.49999999999989
 30
0.0
 11
138.75
 21
535.63799999999992
 31
0.0
  0
LINE
  5
5CCB
  8
0
 10
138.75
 20
535.63799999999992
 30
0.0
 11
139.75
 21
534.49999999999989
 31
0.0
  0
LINE
  5
5CCC
  8
0
 10
139.75
 20
534.49999999999989
 30
0.0
 11
140.75
 21
535.63799999999992
 31
0.0
  0
LINE
  5
5CCD
  8
0
 10
140.75
 20
535.63799999999992
 30
0.0
 11
141.75
 21
534.49999999999989
 31
0.0
  0
LINE
  5
5CCE
  8
0
 10
141.75
 20
534.49999999999989
 30
0.0
 11
142.75
 21
535.63799999999992
 31
0.0
  0
LINE
  5
5CCF
  8
0
 10
142.75
 20
535.63799999999992
 30
0.0
 11
143.75
 21
534.49999999999989
 31
0.0
  0
LINE
  5
5CD0
  8
0
 10
143.75
 20
534.49999999999989
 30
0.0
 11
144.75
 21
535.63799999999992
 31
0.0
  0
LINE
  5
5CD1
  8
0
 10
144.75
 20
535.63799999999992
 30
0.0
 11
145.75
 21
534.49999999999989
 31
0.0
  0
LINE
  5
5CD2
  8
0
 10
145.75
 20
534.49999999999989
 30
0.0
 11
146.75
 21
535.63799999999992
 31
0.0
  0
LINE
  5
5CD3
  8
0
 10
146.75
 20
535.63799999999992
 30
0.0
 11
147.75
 21
534.49999999999989
 31
0.0
  0
LINE
  5
5CD4
  8
0
 10
147.75
 20
534.49999999999989
 30
0.0
 11
148.75
 21
535.63799999999992
 31
0.0
  0
LINE
  5
5CD5
  8
0
 10
148.75
 20
535.63799999999992
 30
0.0
 11
149.75
 21
534.49999999999989
 31
0.0
  0
LINE
  5
5CD6
  8
0
 10
149.75
 20
534.49999999999989
 30
0.0
 11
150.75
 21
535.63799999999992
 31
0.0
  0
LINE
  5
5CD7
  8
0
 10
150.75
 20
535.63799999999992
 30
0.0
 11
151.75
 21
534.49999999999989
 31
0.0
  0
LINE
  5
5CD8
  8
0
 10
151.75
 20
534.49999999999989
 30
0.0
 11
152.75
 21
535.63799999999992
 31
0.0
  0
LINE
  5
5CD9
  8
0
 10
152.75
 20
535.63799999999992
 30
0.0
 11
153.75
 21
534.49999999999989
 31
0.0
  0
LINE
  5
5CDA
  8
0
 10
153.75
 20
534.49999999999989
 30
0.0
 11
154.75
 21
535.63799999999992
 31
0.0
  0
LINE
  5
5CDB
  8
0
 10
154.75
 20
535.63799999999992
 30
0.0
 11
155.75
 21
534.49999999999989
 31
0.0
  0
LINE
  5
5CDC
  8
0
 10
155.75
 20
534.49999999999989
 30
0.0
 11
156.75
 21
535.63799999999992
 31
0.0
  0
LINE
  5
5CDD
  8
0
 10
156.75
 20
535.63799999999992
 30
0.0
 11
157.75
 21
534.49999999999989
 31
0.0
  0
LINE
  5
5CDE
  8
0
 10
157.75
 20
534.49999999999989
 30
0.0
 11
158.75
 21
535.63799999999992
 31
0.0
  0
LINE
  5
5CDF
  8
0
 10
158.75
 20
535.63799999999992
 30
0.0
 11
159.75
 21
534.49999999999989
 31
0.0
  0
LINE
  5
5CE0
  8
0
 10
159.75
 20
534.49999999999989
 30
0.0
 11
160.75
 21
535.63799999999992
 31
0.0
  0
LINE
  5
5CE1
  8
0
 10
161.75
 20
534.49999999999989
 30
0.0
 11
162.75
 21
535.63799999999992
 31
0.0
  0
LINE
  5
5CE2
  8
0
 10
160.75
 20
535.63799999999992
 30
0.0
 11
161.75
 21
534.49999999999989
 31
0.0
  0
LINE
  5
5CE3
  8
0
 10
163.75
 20
534.49999999999989
 30
0.0
 11
164.75
 21
535.63799999999992
 31
0.0
  0
LINE
  5
5CE4
  8
0
 10
162.75
 20
535.63799999999992
 30
0.0
 11
163.75
 21
534.49999999999989
 31
0.0
  0
LINE
  5
5CE5
  8
0
 10
164.75
 20
535.63799999999992
 30
0.0
 11
165.75
 21
534.49999999999989
 31
0.0
  0
LINE
  5
5CE6
  8
0
 10
165.75
 20
534.49999999999989
 30
0.0
 11
166.75
 21
535.63799999999992
 31
0.0
  0
LINE
  5
5CE7
  8
0
 10
166.75
 20
535.63799999999992
 30
0.0
 11
167.75
 21
534.49999999999989
 31
0.0
  0
LINE
  5
5CE8
  8
0
 10
167.75
 20
534.49999999999989
 30
0.0
 11
168.75
 21
535.63799999999992
 31
0.0
  0
LINE
  5
5CE9
  8
0
 10
168.75
 20
535.63799999999992
 30
0.0
 11
169.75
 21
534.49999999999989
 31
0.0
  0
LINE
  5
5CEA
  8
0
 10
169.75
 20
534.49999999999989
 30
0.0
 11
170.75
 21
535.63799999999992
 31
0.0
  0
LINE
  5
5CEB
  8
0
 10
170.75
 20
535.63799999999992
 30
0.0
 11
171.75
 21
534.49999999999989
 31
0.0
  0
LINE
  5
5CEC
  8
0
 10
171.75
 20
534.49999999999989
 30
0.0
 11
172.75
 21
535.63799999999992
 31
0.0
  0
LINE
  5
5CED
  8
0
 10
172.75
 20
535.63799999999992
 30
0.0
 11
173.75
 21
534.49999999999989
 31
0.0
  0
LINE
  5
5CEE
  8
0
 10
173.75
 20
534.49999999999989
 30
0.0
 11
174.75
 21
535.63799999999992
 31
0.0
  0
LINE
  5
5CEF
  8
0
 10
174.75
 20
535.63799999999992
 30
0.0
 11
175.75
 21
534.49999999999989
 31
0.0
  0
LINE
  5
5CF0
  8
0
 10
175.75
 20
534.49999999999989
 30
0.0
 11
176.75
 21
535.63799999999992
 31
0.0
  0
LINE
  5
5CF1
  8
0
 10
176.75
 20
535.63799999999992
 30
0.0
 11
177.75
 21
534.49999999999989
 31
0.0
  0
LINE
  5
5CF2
  8
0
 10
177.75
 20
534.49999999999989
 30
0.0
 11
178.75
 21
535.63799999999992
 31
0.0
  0
LINE
  5
5CF3
  8
0
 10
178.75
 20
535.63799999999992
 30
0.0
 11
179.75
 21
534.49999999999989
 31
0.0
  0
LINE
  5
5CF4
  8
0
 10
179.75
 20
534.49999999999989
 30
0.0
 11
180.75
 21
535.63799999999992
 31
0.0
  0
LINE
  5
5CF5
  8
0
 10
180.75
 20
535.63799999999992
 30
0.0
 11
181.75
 21
534.49999999999989
 31
0.0
  0
LINE
  5
5CF6
  8
0
 10
181.75
 20
534.49999999999989
 30
0.0
 11
182.75
 21
535.63799999999992
 31
0.0
  0
LINE
  5
5CF7
  8
0
 10
182.75
 20
535.63799999999992
 30
0.0
 11
183.75
 21
534.49999999999989
 31
0.0
  0
LINE
  5
5CF8
  8
0
 10
183.75
 20
534.49999999999989
 30
0.0
 11
184.75
 21
535.63799999999992
 31
0.0
  0
LINE
  5
5CF9
  8
0
 10
184.75
 20
535.63799999999992
 30
0.0
 11
185.75
 21
534.49999999999989
 31
0.0
  0
LINE
  5
5CFA
  8
0
 10
185.75
 20
534.49999999999989
 30
0.0
 11
186.75
 21
535.63799999999992
 31
0.0
  0
LINE
  5
5CFB
  8
0
 10
186.75
 20
535.63799999999992
 30
0.0
 11
187.75
 21
534.49999999999989
 31
0.0
  0
LINE
  5
5CFC
  8
0
 10
187.75
 20
534.49999999999989
 30
0.0
 11
188.75
 21
535.63799999999992
 31
0.0
  0
LINE
  5
5CFD
  8
0
 10
188.75
 20
535.63799999999992
 30
0.0
 11
189.75
 21
534.49999999999989
 31
0.0
  0
LINE
  5
5CFE
  8
0
 10
189.75
 20
534.49999999999989
 30
0.0
 11
190.75
 21
535.63799999999992
 31
0.0
  0
LINE
  5
5CFF
  8
0
 10
190.75
 20
535.63799999999992
 30
0.0
 11
191.75
 21
534.49999999999989
 31
0.0
  0
LINE
  5
5D00
  8
0
 10
191.75
 20
534.49999999999989
 30
0.0
 11
192.75
 21
535.63799999999992
 31
0.0
  0
LINE
  5
5D01
  8
0
 10
192.75
 20
535.63799999999992
 30
0.0
 11
193.75
 21
534.49999999999989
 31
0.0
  0
LINE
  5
5D02
  8
0
 10
193.75
 20
534.49999999999989
 30
0.0
 11
194.75
 21
535.63799999999992
 31
0.0
  0
LINE
  5
5D03
  8
0
 10
194.75
 20
535.63799999999992
 30
0.0
 11
195.75
 21
534.49999999999989
 31
0.0
  0
LINE
  5
5D04
  8
0
 10
195.75
 20
534.49999999999989
 30
0.0
 11
196.75
 21
535.63799999999992
 31
0.0
  0
LINE
  5
5D05
  8
0
 10
196.75
 20
535.63799999999992
 30
0.0
 11
197.75
 21
534.49999999999989
 31
0.0
  0
LINE
  5
5D06
  8
0
 10
197.75
 20
534.49999999999989
 30
0.0
 11
198.75
 21
535.63799999999992
 31
0.0
  0
LINE
  5
5D07
  8
0
 10
198.75
 20
535.63799999999992
 30
0.0
 11
199.75
 21
534.49999999999989
 31
0.0
  0
LINE
  5
5D08
  8
0
 10
199.75
 20
534.49999999999989
 30
0.0
 11
200.75
 21
535.63799999999992
 31
0.0
  0
LINE
  5
5D09
  8
0
 10
200.75
 20
535.63799999999992
 30
0.0
 11
201.75
 21
534.49999999999989
 31
0.0
  0
LINE
  5
5D0A
  8
0
 10
201.75
 20
534.49999999999989
 30
0.0
 11
202.75
 21
535.63799999999992
 31
0.0
  0
LINE
  5
5D0B
  8
0
 10
202.75
 20
535.63799999999992
 30
0.0
 11
203.75
 21
534.49999999999989
 31
0.0
  0
LINE
  5
5D0C
  8
0
 10
203.75
 20
534.49999999999989
 30
0.0
 11
204.75
 21
535.63799999999992
 31
0.0
  0
LINE
  5
5D0D
  8
0
 10
204.75
 20
535.63799999999992
 30
0.0
 11
205.75
 21
534.49999999999989
 31
0.0
  0
LINE
  5
5D0E
  8
0
 10
205.75
 20
534.49999999999989
 30
0.0
 11
206.75
 21
535.63799999999992
 31
0.0
  0
LINE
  5
5D0F
  8
0
 10
206.75
 20
535.63799999999992
 30
0.0
 11
207.75
 21
534.49999999999989
 31
0.0
  0
LINE
  5
5D10
  8
0
 10
207.75
 20
534.49999999999989
 30
0.0
 11
208.75
 21
535.63799999999992
 31
0.0
  0
LINE
  5
5D11
  8
0
 10
208.75
 20
535.63799999999992
 30
0.0
 11
209.75
 21
534.49999999999989
 31
0.0
  0
LINE
  5
5D12
  8
0
 10
209.75
 20
534.49999999999989
 30
0.0
 11
210.75
 21
535.63799999999992
 31
0.0
  0
LINE
  5
5D13
  8
0
 10
210.75
 20
535.63799999999992
 30
0.0
 11
211.75
 21
534.49999999999989
 31
0.0
  0
LINE
  5
5D14
  8
0
 10
211.75
 20
534.49999999999989
 30
0.0
 11
212.75
 21
535.63799999999992
 31
0.0
  0
LINE
  5
5D15
  8
0
 10
212.75
 20
535.63799999999992
 30
0.0
 11
213.75
 21
534.49999999999989
 31
0.0
  0
LINE
  5
5D16
  8
0
 10
213.75
 20
534.49999999999989
 30
0.0
 11
214.75
 21
535.63799999999992
 31
0.0
  0
LINE
  5
5D17
  8
0
 10
214.75
 20
535.63799999999992
 30
0.0
 11
215.75
 21
534.49999999999989
 31
0.0
  0
LINE
  5
5D18
  8
0
 10
215.75
 20
534.49999999999989
 30
0.0
 11
216.75
 21
535.63799999999992
 31
0.0
  0
LINE
  5
5D19
  8
0
 10
216.75
 20
535.63799999999992
 30
0.0
 11
217.75
 21
534.49999999999989
 31
0.0
  0
LINE
  5
5D1A
  8
0
 10
217.75
 20
534.49999999999989
 30
0.0
 11
218.75
 21
535.63799999999992
 31
0.0
  0
LINE
  5
5D1B
  8
0
 10
218.75
 20
535.63799999999992
 30
0.0
 11
219.75
 21
534.49999999999989
 31
0.0
  0
LINE
  5
5D1C
  8
0
 10
219.75
 20
534.49999999999989
 30
0.0
 11
220.75
 21
535.63799999999992
 31
0.0
  0
LINE
  5
5D1D
  8
0
 10
220.75
 20
535.63799999999992
 30
0.0
 11
221.75
 21
534.49999999999989
 31
0.0
  0
LINE
  5
5D1E
  8
0
 10
221.75
 20
534.49999999999989
 30
0.0
 11
222.75
 21
535.63799999999992
 31
0.0
  0
LINE
  5
5D1F
  8
0
 10
222.75
 20
535.63799999999992
 30
0.0
 11
223.75
 21
534.49999999999989
 31
0.0
  0
LINE
  5
5D20
  8
0
 10
223.75
 20
534.49999999999989
 30
0.0
 11
224.75
 21
535.63799999999992
 31
0.0
  0
LINE
  5
5D21
  8
0
 10
224.75
 20
535.63799999999992
 30
0.0
 11
225.75
 21
534.49999999999989
 31
0.0
  0
LINE
  5
5D22
  8
0
 10
225.75
 20
534.49999999999989
 30
0.0
 11
226.75
 21
535.63799999999992
 31
0.0
  0
LINE
  5
5D23
  8
0
 10
226.75
 20
535.63799999999992
 30
0.0
 11
227.75
 21
534.49999999999989
 31
0.0
  0
LINE
  5
5D24
  8
0
 10
227.75
 20
534.49999999999989
 30
0.0
 11
228.75
 21
535.63799999999992
 31
0.0
  0
LINE
  5
5D25
  8
0
 10
228.75
 20
535.63799999999992
 30
0.0
 11
229.75
 21
534.49999999999989
 31
0.0
  0
LINE
  5
5D26
  8
0
 10
229.75
 20
534.49999999999989
 30
0.0
 11
230.75
 21
535.63799999999992
 31
0.0
  0
LINE
  5
5D27
  8
0
 10
230.75
 20
535.63799999999992
 30
0.0
 11
231.75
 21
534.49999999999989
 31
0.0
  0
LINE
  5
5D28
  8
0
 10
231.75
 20
534.49999999999989
 30
0.0
 11
232.75
 21
535.63799999999992
 31
0.0
  0
LINE
  5
5D29
  8
0
 10
232.75
 20
535.63799999999992
 30
0.0
 11
233.75
 21
534.49999999999989
 31
0.0
  0
LINE
  5
5D2A
  8
0
 10
233.75
 20
534.49999999999989
 30
0.0
 11
234.75
 21
535.63799999999992
 31
0.0
  0
LINE
  5
5D2B
  8
0
 10
234.75
 20
535.63799999999992
 30
0.0
 11
235.75
 21
534.49999999999989
 31
0.0
  0
LINE
  5
5D2C
  8
0
 10
235.75
 20
534.49999999999989
 30
0.0
 11
236.75
 21
535.63799999999992
 31
0.0
  0
LINE
  5
5D2D
  8
0
 10
236.75
 20
535.63799999999992
 30
0.0
 11
237.75
 21
534.49999999999989
 31
0.0
  0
LINE
  5
5D2E
  8
0
 10
237.75
 20
534.49999999999989
 30
0.0
 11
238.75
 21
535.63799999999992
 31
0.0
  0
LINE
  5
5D31
  8
0
 10
238.75
 20
535.63799999999992
 30
0.0
 11
239.75
 21
534.49999999999989
 31
0.0
  0
LINE
  5
5D33
  8
0
 10
242.62873462214409
 20
535.5
 30
0.0
 11
240.87126537785591
 21
535.5
 31
0.0
  0
LINE
  5
5D34
  8
0
 10
244.62873462214409
 20
535.5
 30
0.0
 11
242.87126537785591
 21
535.5
 31
0.0
  0
LINE
  5
5D35
  8
0
 10
246.62873462214409
 20
535.5
 30
0.0
 11
244.87126537785591
 21
535.5
 31
0.0
  0
LINE
  5
5D36
  8
0
 10
248.62873462214409
 20
535.5
 30
0.0
 11
246.87126537785591
 21
535.5
 31
0.0
  0
LINE
  5
5D37
  8
0
 10
250.62873462214409
 20
535.5
 30
0.0
 11
248.87126537785591
 21
535.5
 31
0.0
  0
LINE
  5
5D38
  8
0
 10
252.62873462214409
 20
535.5
 30
0.0
 11
250.87126537785591
 21
535.5
 31
0.0
  0
LINE
  5
5D39
  8
0
 10
254.62873462214409
 20
535.5
 30
0.0
 11
252.87126537785591
 21
535.5
 31
0.0
  0
LINE
  5
5D3A
  8
0
 10
256.62873462214412
 20
535.5
 30
0.0
 11
254.87126537785591
 21
535.5
 31
0.0
  0
LINE
  5
5D3B
  8
0
 10
258.62873462214412
 20
535.5
 30
0.0
 11
256.87126537785588
 21
535.5
 31
0.0
  0
LINE
  5
5D3C
  8
0
 10
260.62873462214412
 20
535.5
 30
0.0
 11
258.87126537785588
 21
535.5
 31
0.0
  0
LINE
  5
5D3D
  8
0
 10
262.62873462214412
 20
535.5
 30
0.0
 11
260.87126537785588
 21
535.5
 31
0.0
  0
LINE
  5
5D3E
  8
0
 10
264.62873462214412
 20
535.5
 30
0.0
 11
262.87126537785588
 21
535.5
 31
0.0
  0
LINE
  5
5D3F
  8
0
 10
266.62873462214412
 20
535.5
 30
0.0
 11
264.87126537785588
 21
535.5
 31
0.0
  0
LINE
  5
5D40
  8
0
 10
268.62873462214401
 20
535.5
 30
0.0
 11
266.87126537785588
 21
535.5
 31
0.0
  0
LINE
  5
5D41
  8
0
 10
270.62873462214401
 20
535.5
 30
0.0
 11
268.87126537785588
 21
535.5
 31
0.0
  0
LINE
  5
5D42
  8
0
 10
272.62873462214401
 20
535.5
 30
0.0
 11
270.87126537785588
 21
535.5
 31
0.0
  0
LINE
  5
5D43
  8
0
 10
274.62873462214401
 20
535.5
 30
0.0
 11
272.87126537785588
 21
535.5
 31
0.0
  0
LINE
  5
5D44
  8
0
 10
276.62873462214412
 20
535.5
 30
0.0
 11
274.87126537785599
 21
535.5
 31
0.0
  0
LINE
  5
5D45
  8
0
 10
278.62873462214412
 20
535.5
 30
0.0
 11
276.87126537785599
 21
535.5
 31
0.0
  0
LINE
  5
5D46
  8
0
 10
280.62873462214412
 20
535.5
 30
0.0
 11
278.87126537785599
 21
535.5
 31
0.0
  0
LINE
  5
5D47
  8
0
 10
282.62873462214412
 20
535.5
 30
0.0
 11
280.87126537785599
 21
535.5
 31
0.0
  0
LINE
  5
5D48
  8
0
 10
284.62873462214412
 20
535.5
 30
0.0
 11
282.87126537785588
 21
535.5
 31
0.0
  0
LINE
  5
5D49
  8
0
 10
286.62873462214412
 20
535.5
 30
0.0
 11
284.87126537785588
 21
535.5
 31
0.0
  0
LINE
  5
5D4A
  8
0
 10
288.62873462214412
 20
535.5
 30
0.0
 11
286.87126537785588
 21
535.5
 31
0.0
  0
LINE
  5
5D4B
  8
0
 10
290.62873462214412
 20
535.5
 30
0.0
 11
288.87126537785588
 21
535.5
 31
0.0
  0
LINE
  5
5D4C
  8
0
 10
292.62873462214412
 20
535.5
 30
0.0
 11
290.87126537785588
 21
535.5
 31
0.0
  0
LINE
  5
5D4D
  8
0
 10
294.62873462214412
 20
535.5
 30
0.0
 11
292.87126537785588
 21
535.5
 31
0.0
  0
LINE
  5
5D4E
  8
0
 10
296.62873462214412
 20
535.5
 30
0.0
 11
294.87126537785588
 21
535.5
 31
0.0
  0
LINE
  5
5D4F
  8
0
 10
298.62873462214412
 20
535.5
 30
0.0
 11
296.87126537785588
 21
535.5
 31
0.0
  0
LINE
  5
5D50
  8
0
 10
300.62873462214412
 20
535.5
 30
0.0
 11
298.87126537785588
 21
535.5
 31
0.0
  0
LINE
  5
5D51
  8
0
 10
302.62873462214412
 20
535.5
 30
0.0
 11
300.87126537785588
 21
535.5
 31
0.0
  0
LINE
  5
5D52
  8
0
 10
304.62873462214412
 20
535.5
 30
0.0
 11
302.87126537785588
 21
535.5
 31
0.0
  0
LINE
  5
5D53
  8
0
 10
306.62873462214412
 20
535.5
 30
0.0
 11
304.87126537785588
 21
535.5
 31
0.0
  0
LINE
  5
5D54
  8
0
 10
308.62873462214412
 20
535.5
 30
0.0
 11
306.87126537785588
 21
535.5
 31
0.0
  0
LINE
  5
5D55
  8
0
 10
310.62873462214412
 20
535.5
 30
0.0
 11
308.87126537785588
 21
535.5
 31
0.0
  0
LINE
  5
5D56
  8
0
 10
312.62873462214412
 20
535.5
 30
0.0
 11
310.87126537785588
 21
535.5
 31
0.0
  0
LINE
  5
5D57
  8
0
 10
314.62873462214412
 20
535.5
 30
0.0
 11
312.87126537785588
 21
535.5
 31
0.0
  0
LINE
  5
5D58
  8
0
 10
316.62873462214412
 20
535.5
 30
0.0
 11
314.87126537785588
 21
535.5
 31
0.0
  0
LINE
  5
5D59
  8
0
 10
318.62873462214412
 20
535.5
 30
0.0
 11
316.87126537785588
 21
535.5
 31
0.0
  0
LINE
  5
5D5A
  8
0
 10
320.62873462214401
 20
535.5
 30
0.0
 11
318.87126537785588
 21
535.5
 31
0.0
  0
LINE
  5
5D5B
  8
0
 10
322.62873462214401
 20
535.5
 30
0.0
 11
320.87126537785588
 21
535.5
 31
0.0
  0
LINE
  5
5D5C
  8
0
 10
324.62873462214401
 20
535.5
 30
0.0
 11
322.87126537785588
 21
535.5
 31
0.0
  0
LINE
  5
5D5D
  8
0
 10
326.62873462214412
 20
535.5
 30
0.0
 11
324.87126537785599
 21
535.5
 31
0.0
  0
LINE
  5
5D5E
  8
0
 10
328.62873462214412
 20
535.5
 30
0.0
 11
326.87126537785599
 21
535.5
 31
0.0
  0
LINE
  5
5D5F
  8
0
 10
330.62873462214412
 20
535.5
 30
0.0
 11
328.87126537785599
 21
535.5
 31
0.0
  0
LINE
  5
5D60
  8
0
 10
366.62873462214412
 20
535.5
 30
0.0
 11
364.87126537785588
 21
535.5
 31
0.0
  0
LINE
  5
5D61
  8
0
 10
368.62873462214412
 20
535.5
 30
0.0
 11
366.87126537785588
 21
535.5
 31
0.0
  0
LINE
  5
5D62
  8
0
 10
336.62873462214412
 20
535.5
 30
0.0
 11
334.87126537785588
 21
535.5
 31
0.0
  0
LINE
  5
5D63
  8
0
 10
338.62873462214412
 20
535.5
 30
0.0
 11
336.87126537785588
 21
535.5
 31
0.0
  0
LINE
  5
5D64
  8
0
 10
340.62873462214412
 20
535.5
 30
0.0
 11
338.87126537785588
 21
535.5
 31
0.0
  0
LINE
  5
5D65
  8
0
 10
342.62873462214412
 20
535.5
 30
0.0
 11
340.87126537785588
 21
535.5
 31
0.0
  0
LINE
  5
5D66
  8
0
 10
344.62873462214412
 20
535.5
 30
0.0
 11
342.87126537785588
 21
535.5
 31
0.0
  0
LINE
  5
5D67
  8
0
 10
346.62873462214412
 20
535.5
 30
0.0
 11
344.87126537785588
 21
535.5
 31
0.0
  0
LINE
  5
5D68
  8
0
 10
348.62873462214412
 20
535.5
 30
0.0
 11
346.87126537785588
 21
535.5
 31
0.0
  0
LINE
  5
5D69
  8
0
 10
350.62873462214412
 20
535.5
 30
0.0
 11
348.87126537785588
 21
535.5
 31
0.0
  0
LINE
  5
5D6A
  8
0
 10
352.62873462214412
 20
535.5
 30
0.0
 11
350.87126537785588
 21
535.5
 31
0.0
  0
LINE
  5
5D6B
  8
0
 10
354.62873462214429
 20
535.5
 30
0.0
 11
352.87126537785588
 21
535.5
 31
0.0
  0
LINE
  5
5D6C
  8
0
 10
356.62873462214412
 20
535.5
 30
0.0
 11
354.87126537785588
 21
535.5
 31
0.0
  0
LINE
  5
5D6D
  8
0
 10
358.62873462214412
 20
535.5
 30
0.0
 11
356.87126537785588
 21
535.5
 31
0.0
  0
LINE
  5
5D6E
  8
0
 10
360.62873462214412
 20
535.5
 30
0.0
 11
358.87126537785588
 21
535.5
 31
0.0
  0
LINE
  5
5D6F
  8
0
 10
362.62873462214412
 20
535.5
 30
0.0
 11
360.87126537785588
 21
535.5
 31
0.0
  0
LINE
  5
5D70
  8
0
 10
364.62873462214412
 20
535.5
 30
0.0
 11
362.87126537785588
 21
535.5
 31
0.0
  0
ARC
  5
5D71
  8
0
 10
165.6517051485614
 20
543.58612027346692
 30
0.0
 40
1.090559088841748
 50
111.613763932852
 51
184.52930169689111
  0
ARC
  5
5D72
  8
0
 10
165.71913963288119
 20
545.27695345570623
 30
0.0
 40
0.8236249002626479
 50
87.852684177100613
 51
235.27741817707431
  0
ARC
  5
5D73
  8
0
 10
165.78086036711869
 20
545.27695345570623
 30
0.0
 40
0.8236249002626495
 50
304.72258182292558
 51
92.147315822925563
  0
ARC
  5
5D74
  8
0
 10
165.8482948514386
 20
543.58612027346692
 30
0.0
 40
1.090559088841752
 50
355.47069830311221
 51
68.386236067149213
  0
ARC
  5
5D75
  8
0
 10
165.7312362847847
 20
543.72488714175711
 30
0.0
 40
1.2250308514689281
 50
270.8776299226684
 51
349.42183680577222
  0
ARC
  5
5D76
  8
0
 10
165.7687637152153
 20
543.72488714175711
 30
0.0
 40
1.2250308514689341
 50
190.578163194231
 51
269.1223700772926
  0
LINE
  5
5D77
  8
0
 10
167.5499999999999
 20
544.89999999999986
 30
0.0
 11
167.5499999999999
 21
543.70000000000005
 31
0.0
  0
ARC
  5
5D78
  8
0
 10
168.75
 20
544.89999999999998
 30
0.0
 40
1.2000000000000031
 50
0.0
 51
180.0
  0
LINE
  5
5D79
  8
0
 10
169.94999999999999
 20
543.70000000000005
 30
0.0
 11
169.94999999999999
 21
544.89999999999986
 31
0.0
  0
ARC
  5
5D7A
  8
0
 10
168.75
 20
543.70000000000005
 30
0.0
 40
1.2000000000000171
 50
180.0
 51
0.0
  0
LINE
  5
5D7B
  8
0
 10
162.90717817682841
 20
545.79999999999995
 30
0.0
 11
163.59999999999991
 21
545.79999999999995
 31
0.0
  0
LINE
  5
5D7C
  8
0
 10
163.16796419817319
 20
546.10000000000002
 30
0.0
 11
162.90717817682841
 21
545.79999999999995
 31
0.0
  0
LINE
  5
5D7D
  8
0
 10
163.90000000000009
 20
546.10000000000002
 30
0.0
 11
163.16796419817319
 21
546.10000000000002
 31
0.0
  0
LINE
  5
5D7E
  8
0
 10
163.90000000000009
 20
542.49999999999989
 30
0.0
 11
163.90000000000009
 21
546.10000000000002
 31
0.0
  0
LINE
  5
5D7F
  8
0
 10
163.59999999999991
 20
542.49999999999989
 30
0.0
 11
163.90000000000009
 21
542.49999999999989
 31
0.0
  0
LINE
  5
5D80
  8
0
 10
163.59999999999991
 20
545.79999999999995
 30
0.0
 11
163.59999999999991
 21
542.49999999999989
 31
0.0
  0
LINE
  5
5D81
  8
0
 10
212.09999999999991
 20
550.49999999999989
 30
0.0
 11
212.09999999999991
 21
539.5
 31
0.0
  0
LINE
  5
5D82
  8
0
 10
212.40000000000009
 20
550.49999999999989
 30
0.0
 11
212.09999999999991
 21
550.49999999999989
 31
0.0
  0
LINE
  5
5D83
  8
0
 10
212.40000000000009
 20
539.5
 30
0.0
 11
212.40000000000009
 21
550.49999999999989
 31
0.0
  0
LINE
  5
5D84
  8
0
 10
212.09999999999991
 20
539.5
 30
0.0
 11
212.40000000000009
 21
539.5
 31
0.0
  0
LINE
  5
5D85
  8
0
 10
182.09999999999991
 20
550.49999999999989
 30
0.0
 11
182.09999999999991
 21
539.5
 31
0.0
  0
LINE
  5
5D86
  8
0
 10
182.40000000000009
 20
550.49999999999989
 30
0.0
 11
182.09999999999991
 21
550.49999999999989
 31
0.0
  0
LINE
  5
5D87
  8
0
 10
182.40000000000009
 20
539.5
 30
0.0
 11
182.40000000000009
 21
550.49999999999989
 31
0.0
  0
LINE
  5
5D88
  8
0
 10
182.09999999999991
 20
539.5
 30
0.0
 11
182.40000000000009
 21
539.5
 31
0.0
  0
LINE
  5
5D89
  8
0
 10
232.25
 20
550.49999999999989
 30
0.0
 11
232.25
 21
542.49999999999989
 31
0.0
  0
LINE
  5
5D8A
  8
0
 10
232.5499999999999
 20
550.49999999999989
 30
0.0
 11
232.25
 21
550.49999999999989
 31
0.0
  0
LINE
  5
5D8B
  8
0
 10
232.5499999999999
 20
542.49999999999989
 30
0.0
 11
232.5499999999999
 21
550.49999999999989
 31
0.0
  0
LINE
  5
5D8C
  8
0
 10
232.25
 20
542.49999999999989
 30
0.0
 11
232.5499999999999
 21
542.49999999999989
 31
0.0
  0
LINE
  5
5D8D
  8
0
 10
162.09999999999991
 20
550.49999999999989
 30
0.0
 11
162.09999999999991
 21
542.49999999999989
 31
0.0
  0
LINE
  5
5D8E
  8
0
 10
162.40000000000009
 20
550.49999999999989
 30
0.0
 11
162.09999999999991
 21
550.49999999999989
 31
0.0
  0
LINE
  5
5D8F
  8
0
 10
162.40000000000009
 20
542.49999999999989
 30
0.0
 11
162.40000000000009
 21
550.49999999999989
 31
0.0
  0
LINE
  5
5D90
  8
0
 10
162.09999999999991
 20
542.49999999999989
 30
0.0
 11
162.40000000000009
 21
542.49999999999989
 31
0.0
  0
LINE
  5
5D91
  8
0
 10
172.09999999999991
 20
550.49999999999989
 30
0.0
 11
172.09999999999991
 21
542.49999999999989
 31
0.0
  0
LINE
  5
5D92
  8
0
 10
172.40000000000009
 20
550.49999999999989
 30
0.0
 11
172.09999999999991
 21
550.49999999999989
 31
0.0
  0
LINE
  5
5D93
  8
0
 10
172.40000000000009
 20
542.49999999999989
 30
0.0
 11
172.40000000000009
 21
550.49999999999989
 31
0.0
  0
LINE
  5
5D94
  8
0
 10
172.09999999999991
 20
542.49999999999989
 30
0.0
 11
172.40000000000009
 21
542.49999999999989
 31
0.0
  0
LINE
  5
5D95
  8
0
 10
192.09999999999991
 20
550.49999999999989
 30
0.0
 11
192.09999999999991
 21
542.49999999999989
 31
0.0
  0
LINE
  5
5D96
  8
0
 10
192.40000000000009
 20
550.49999999999989
 30
0.0
 11
192.09999999999991
 21
550.49999999999989
 31
0.0
  0
LINE
  5
5D97
  8
0
 10
192.40000000000009
 20
542.49999999999989
 30
0.0
 11
192.40000000000009
 21
550.49999999999989
 31
0.0
  0
LINE
  5
5D98
  8
0
 10
192.09999999999991
 20
542.49999999999989
 30
0.0
 11
192.40000000000009
 21
542.49999999999989
 31
0.0
  0
LINE
  5
5D99
  8
0
 10
202.09999999999991
 20
550.49999999999989
 30
0.0
 11
202.09999999999991
 21
542.49999999999989
 31
0.0
  0
LINE
  5
5D9A
  8
0
 10
202.40000000000009
 20
550.49999999999989
 30
0.0
 11
202.09999999999991
 21
550.49999999999989
 31
0.0
  0
LINE
  5
5D9B
  8
0
 10
202.40000000000009
 20
542.49999999999989
 30
0.0
 11
202.40000000000009
 21
550.49999999999989
 31
0.0
  0
LINE
  5
5D9C
  8
0
 10
202.09999999999991
 20
542.49999999999989
 30
0.0
 11
202.40000000000009
 21
542.49999999999989
 31
0.0
  0
LINE
  5
5D9D
  8
0
 10
222.09999999999991
 20
550.49999999999989
 30
0.0
 11
222.09999999999991
 21
542.49999999999989
 31
0.0
  0
LINE
  5
5D9E
  8
0
 10
222.40000000000009
 20
550.49999999999989
 30
0.0
 11
222.09999999999991
 21
550.49999999999989
 31
0.0
  0
LINE
  5
5D9F
  8
0
 10
222.40000000000009
 20
542.49999999999989
 30
0.0
 11
222.40000000000009
 21
550.49999999999989
 31
0.0
  0
LINE
  5
5DA0
  8
0
 10
222.09999999999991
 20
542.49999999999989
 30
0.0
 11
222.40000000000009
 21
542.49999999999989
 31
0.0
  0
LINE
  5
5DA1
  8
0
 10
235.55000000000001
 20
544.89999999999986
 30
0.0
 11
235.55000000000001
 21
543.70000000000005
 31
0.0
  0
ARC
  5
5DA2
  8
0
 10
236.75
 20
544.89999999999998
 30
0.0
 40
1.1999999999999891
 50
0.0
 51
180.0
  0
LINE
  5
5DA3
  8
0
 10
237.9500000000001
 20
543.70000000000005
 30
0.0
 11
237.9500000000001
 21
544.89999999999986
 31
0.0
  0
ARC
  5
5DA4
  8
0
 10
236.75
 20
543.70000000000005
 30
0.0
 40
1.1999999999999591
 50
180.0
 51
0.0
  0
LINE
  5
5DA5
  8
0
 10
233.05000000000001
 20
543.29999999999995
 30
0.0
 11
234.75
 21
543.29999999999995
 31
0.0
  0
LINE
  5
5DA6
  8
0
 10
234.75
 20
546.10000000000002
 30
0.0
 11
233.05000000000001
 21
543.29999999999995
 31
0.0
  0
LINE
  5
5DA7
  8
0
 10
235.05000000000001
 20
546.10000000000002
 30
0.0
 11
234.75
 21
546.10000000000002
 31
0.0
  0
LINE
  5
5DA8
  8
0
 10
235.05000000000001
 20
543.59999999999991
 30
0.0
 11
235.05000000000001
 21
546.10000000000002
 31
0.0
  0
LINE
  5
5DA9
  8
0
 10
235.4500000000001
 20
543.59999999999991
 30
0.0
 11
235.05000000000001
 21
543.59999999999991
 31
0.0
  0
LINE
  5
5DAA
  8
0
 10
235.4500000000001
 20
543.29999999999995
 30
0.0
 11
235.4500000000001
 21
543.59999999999991
 31
0.0
  0
LINE
  5
5DAB
  8
0
 10
235.05000000000001
 20
543.29999999999995
 30
0.0
 11
235.4500000000001
 21
543.29999999999995
 31
0.0
  0
LINE
  5
5DAC
  8
0
 10
235.05000000000001
 20
542.49999999999989
 30
0.0
 11
235.05000000000001
 21
543.29999999999995
 31
0.0
  0
LINE
  5
5DAD
  8
0
 10
234.75
 20
542.49999999999989
 30
0.0
 11
235.05000000000001
 21
542.49999999999989
 31
0.0
  0
LINE
  5
5DAE
  8
0
 10
234.75
 20
543.29999999999995
 30
0.0
 11
234.75
 21
542.49999999999989
 31
0.0
  0
LINE
  5
5DAF
  8
0
 10
204.40000000000009
 20
544.89999999999986
 30
0.0
 11
204.40000000000009
 21
543.70000000000005
 31
0.0
  0
ARC
  5
5DB0
  8
0
 10
205.59999999999991
 20
544.89999999999998
 30
0.0
 40
1.1999999999999891
 50
0.0
 51
180.0
  0
LINE
  5
5DB1
  8
0
 10
206.80000000000001
 20
543.70000000000005
 30
0.0
 11
206.80000000000001
 21
544.89999999999986
 31
0.0
  0
ARC
  5
5DB2
  8
0
 10
205.59999999999991
 20
543.70000000000005
 30
0.0
 40
1.2000000000000031
 50
180.0
 51
0.0
  0
LINE
  5
5DB3
  8
0
 10
215.90000000000009
 20
544.89999999999986
 30
0.0
 11
215.90000000000009
 21
543.70000000000005
 31
0.0
  0
ARC
  5
5DB4
  8
0
 10
217.09999999999991
 20
544.89999999999998
 30
0.0
 40
1.2000000000000031
 50
0.0
 51
180.0
  0
LINE
  5
5DB5
  8
0
 10
218.2999999999999
 20
543.70000000000005
 30
0.0
 11
218.2999999999999
 21
544.89999999999986
 31
0.0
  0
ARC
  5
5DB6
  8
0
 10
217.09999999999991
 20
543.70000000000005
 30
0.0
 40
1.1999999999999731
 50
180.0
 51
0.0
  0
LINE
  5
5DB7
  8
0
 10
225.90000000000009
 20
544.89999999999986
 30
0.0
 11
225.90000000000009
 21
543.70000000000005
 31
0.0
  0
ARC
  5
5DB8
  8
0
 10
227.09999999999991
 20
544.89999999999986
 30
0.0
 40
1.2000000000000031
 50
0.0
 51
180.0
  0
LINE
  5
5DB9
  8
0
 10
228.2999999999999
 20
543.70000000000005
 30
0.0
 11
228.2999999999999
 21
544.89999999999986
 31
0.0
  0
ARC
  5
5DBA
  8
0
 10
227.09999999999991
 20
543.70000000000005
 30
0.0
 40
1.2000000000000031
 50
180.0
 51
0.0
  0
ARC
  5
5DBB
  8
0
 10
224.25
 20
543.70000000000005
 30
0.0
 40
1.2000000000000139
 50
139.94532911595971
 51
98.53570700668557
  0
LINE
  5
5DBC
  8
0
 10
224.69999999999999
 20
546.10000000000002
 30
0.0
 11
223.33148309406741
 21
544.47222191986225
 31
0.0
  0
LINE
  5
5DBD
  8
0
 10
224.9296292264832
 20
545.90694452003424
 30
0.0
 11
224.69999999999999
 21
546.10000000000002
 31
0.0
  0
LINE
  5
5DBE
  8
0
 10
224.07188910977769
 20
544.88670826692339
 30
0.0
 11
224.9296292264832
 21
545.90694452003424
 31
0.0
  0
LINE
  5
5DBF
  8
0
 10
207.5499999999999
 20
544.89999999999986
 30
0.0
 11
207.5499999999999
 21
543.70000000000005
 31
0.0
  0
ARC
  5
5DC0
  8
0
 10
208.75
 20
544.89999999999998
 30
0.0
 40
1.2000000000000031
 50
0.0
 51
180.0
  0
LINE
  5
5DC1
  8
0
 10
209.94999999999999
 20
543.70000000000005
 30
0.0
 11
209.94999999999999
 21
544.89999999999986
 31
0.0
  0
ARC
  5
5DC2
  8
0
 10
208.75
 20
543.70000000000005
 30
0.0
 40
1.2000000000000031
 50
180.0
 51
0.0
  0
LINE
  5
5DC3
  8
0
 10
187.5499999999999
 20
544.89999999999986
 30
0.0
 11
187.5499999999999
 21
543.70000000000005
 31
0.0
  0
ARC
  5
5DC4
  8
0
 10
188.75
 20
544.89999999999986
 30
0.0
 40
1.2000000000000171
 50
0.0
 51
180.0
  0
LINE
  5
5DC5
  8
0
 10
189.94999999999999
 20
543.70000000000005
 30
0.0
 11
189.94999999999999
 21
544.89999999999986
 31
0.0
  0
ARC
  5
5DC6
  8
0
 10
188.75
 20
543.70000000000005
 30
0.0
 40
1.2000000000000031
 50
180.0
 51
0.0
  0
ARC
  5
5DC7
  8
0
 10
214.1517051485614
 20
543.58612027346692
 30
0.0
 40
1.090559088841748
 50
111.613763932852
 51
184.52930169689111
  0
ARC
  5
5DC8
  8
0
 10
214.21913963288151
 20
545.27695345570623
 30
0.0
 40
0.8236249002626408
 50
87.852684177100613
 51
235.27741817707431
  0
ARC
  5
5DC9
  8
0
 10
214.28086036711849
 20
545.27695345570623
 30
0.0
 40
0.8236249002626495
 50
304.72258182292558
 51
92.147315822925563
  0
ARC
  5
5DCA
  8
0
 10
214.3482948514384
 20
543.58612027346692
 30
0.0
 40
1.090559088841873
 50
355.4706983031154
 51
68.386236067148005
  0
ARC
  5
5DCB
  8
0
 10
214.2312362847847
 20
543.72488714175711
 30
0.0
 40
1.225030851468885
 50
270.8776299226684
 51
349.42183680577222
  0
ARC
  5
5DCC
  8
0
 10
214.2687637152153
 20
543.72488714175711
 30
0.0
 40
1.2250308514689321
 50
190.57816319422781
 51
269.1223700772926
  0
LINE
  5
5DCD
  8
0
 10
202.90717817682841
 20
545.79999999999995
 30
0.0
 11
203.59999999999991
 21
545.79999999999995
 31
0.0
  0
LINE
  5
5DCE
  8
0
 10
203.16796419817319
 20
546.10000000000002
 30
0.0
 11
202.90717817682841
 21
545.79999999999995
 31
0.0
  0
LINE
  5
5DCF
  8
0
 10
203.90000000000009
 20
546.10000000000002
 30
0.0
 11
203.16796419817319
 21
546.10000000000002
 31
0.0
  0
LINE
  5
5DD0
  8
0
 10
203.90000000000009
 20
542.49999999999989
 30
0.0
 11
203.90000000000009
 21
546.10000000000002
 31
0.0
  0
LINE
  5
5DD1
  8
0
 10
203.59999999999991
 20
542.49999999999989
 30
0.0
 11
203.90000000000009
 21
542.49999999999989
 31
0.0
  0
LINE
  5
5DD2
  8
0
 10
203.59999999999991
 20
545.79999999999995
 30
0.0
 11
203.59999999999991
 21
542.49999999999989
 31
0.0
  0
LINE
  5
5DD3
  8
0
 10
182.90717817682841
 20
545.79999999999995
 30
0.0
 11
183.59999999999991
 21
545.79999999999995
 31
0.0
  0
LINE
  5
5DD4
  8
0
 10
183.16796419817319
 20
546.10000000000002
 30
0.0
 11
182.90717817682841
 21
545.79999999999995
 31
0.0
  0
LINE
  5
5DD5
  8
0
 10
183.90000000000009
 20
546.10000000000002
 30
0.0
 11
183.16796419817319
 21
546.10000000000002
 31
0.0
  0
LINE
  5
5DD6
  8
0
 10
183.90000000000009
 20
542.49999999999989
 30
0.0
 11
183.90000000000009
 21
546.10000000000002
 31
0.0
  0
LINE
  5
5DD7
  8
0
 10
183.59999999999991
 20
542.49999999999989
 30
0.0
 11
183.90000000000009
 21
542.49999999999989
 31
0.0
  0
LINE
  5
5DD8
  8
0
 10
183.59999999999991
 20
545.79999999999995
 30
0.0
 11
183.59999999999991
 21
542.49999999999989
 31
0.0
  0
LINE
  5
5DD9
  8
0
 10
184.5499999999999
 20
543.29999999999995
 30
0.0
 11
186.25
 21
543.29999999999995
 31
0.0
  0
LINE
  5
5DDA
  8
0
 10
186.25
 20
546.10000000000002
 30
0.0
 11
184.5499999999999
 21
543.29999999999995
 31
0.0
  0
LINE
  5
5DDB
  8
0
 10
186.5499999999999
 20
546.10000000000002
 30
0.0
 11
186.25
 21
546.10000000000002
 31
0.0
  0
LINE
  5
5DDC
  8
0
 10
186.5499999999999
 20
543.59999999999991
 30
0.0
 11
186.5499999999999
 21
546.10000000000002
 31
0.0
  0
LINE
  5
5DDD
  8
0
 10
186.94999999999999
 20
543.59999999999991
 30
0.0
 11
186.5499999999999
 21
543.59999999999991
 31
0.0
  0
LINE
  5
5DDE
  8
0
 10
186.94999999999999
 20
543.29999999999995
 30
0.0
 11
186.94999999999999
 21
543.59999999999991
 31
0.0
  0
LINE
  5
5DDF
  8
0
 10
186.5499999999999
 20
543.29999999999995
 30
0.0
 11
186.94999999999999
 21
543.29999999999995
 31
0.0
  0
LINE
  5
5DE0
  8
0
 10
186.5499999999999
 20
542.49999999999989
 30
0.0
 11
186.5499999999999
 21
543.29999999999995
 31
0.0
  0
LINE
  5
5DE1
  8
0
 10
186.25
 20
542.49999999999989
 30
0.0
 11
186.5499999999999
 21
542.49999999999989
 31
0.0
  0
LINE
  5
5DE2
  8
0
 10
186.25
 20
543.29999999999995
 30
0.0
 11
186.25
 21
542.49999999999989
 31
0.0
  0
LINE
  5
5DE3
  8
0
 10
240.62873462214409
 20
535.5
 30
0.0
 11
238.87126537785591
 21
535.5
 31
0.0
  0
LINE
  5
5DE4
  8
0
 10
379.5
 20
558.49999999999989
 30
0.0
 11
100.0
 21
558.49999999999989
 31
0.0
  0
LINE
  5
5DE5
  8
0
 10
100.62873462214429
 20
535.5
 30
0.0
 11
100.0
 21
535.5
 31
0.0
  0
LINE
  5
5DE6
  8
0
 10
102.62873462214429
 20
535.5
 30
0.0
 11
100.87126537785571
 21
535.5
 31
0.0
  0
LINE
  5
5DE7
  8
0
 10
104.62873462214429
 20
535.5
 30
0.0
 11
102.87126537785571
 21
535.5
 31
0.0
  0
LINE
  5
5DE8
  8
0
 10
106.62873462214429
 20
535.5
 30
0.0
 11
104.87126537785571
 21
535.5
 31
0.0
  0
LINE
  5
5DE9
  8
0
 10
108.62873462214429
 20
535.5
 30
0.0
 11
106.87126537785571
 21
535.5
 31
0.0
  0
LINE
  5
5DEA
  8
0
 10
110.62873462214429
 20
535.5
 30
0.0
 11
108.87126537785571
 21
535.5
 31
0.0
  0
LINE
  5
5DEB
  8
0
 10
112.62873462214399
 20
535.5
 30
0.0
 11
110.87126537785571
 21
535.5
 31
0.0
  0
LINE
  5
5DEC
  8
0
 10
114.62873462214399
 20
535.5
 30
0.0
 11
112.87126537785571
 21
535.5
 31
0.0
  0
LINE
  5
5DED
  8
0
 10
116.62873462214399
 20
535.5
 30
0.0
 11
114.87126537785571
 21
535.5
 31
0.0
  0
LINE
  5
5DEE
  8
0
 10
118.62873462214399
 20
535.5
 30
0.0
 11
116.87126537785571
 21
535.5
 31
0.0
  0
LINE
  5
5DEF
  8
0
 10
120.62873462214399
 20
535.5
 30
0.0
 11
118.87126537785591
 21
535.5
 31
0.0
  0
LINE
  5
5DF0
  8
0
 10
122.62873462214399
 20
535.5
 30
0.0
 11
120.87126537785591
 21
535.5
 31
0.0
  0
LINE
  5
5DF1
  8
0
 10
124.62873462214399
 20
535.5
 30
0.0
 11
122.87126537785591
 21
535.5
 31
0.0
  0
LINE
  5
5DF2
  8
0
 10
126.62873462214409
 20
535.5
 30
0.0
 11
124.87126537785591
 21
535.5
 31
0.0
  0
LINE
  5
5DF3
  8
0
 10
128.62873462214401
 20
535.5
 30
0.0
 11
126.87126537785591
 21
535.5
 31
0.0
  0
LINE
  5
5DF4
  8
0
 10
130.62873462214401
 20
535.5
 30
0.0
 11
128.87126537785591
 21
535.5
 31
0.0
  0
LINE
  5
5DF5
  8
0
 10
132.62873462214401
 20
535.5
 30
0.0
 11
130.87126537785571
 21
535.5
 31
0.0
  0
LINE
  5
5DF6
  8
0
 10
134.62873462214401
 20
535.5
 30
0.0
 11
132.87126537785571
 21
535.5
 31
0.0
  0
LINE
  5
5DF7
  8
0
 10
136.62873462214401
 20
535.5
 30
0.0
 11
134.87126537785571
 21
535.5
 31
0.0
  0
LINE
  5
5DF8
  8
0
 10
138.62873462214401
 20
535.5
 30
0.0
 11
136.87126537785571
 21
535.5
 31
0.0
  0
LINE
  5
5DF9
  8
0
 10
140.62873462214401
 20
535.5
 30
0.0
 11
138.87126537785571
 21
535.5
 31
0.0
  0
LINE
  5
5DFA
  8
0
 10
142.62873462214401
 20
535.5
 30
0.0
 11
140.87126537785591
 21
535.5
 31
0.0
  0
LINE
  5
5DFB
  8
0
 10
144.62873462214401
 20
535.5
 30
0.0
 11
142.87126537785591
 21
535.5
 31
0.0
  0
LINE
  5
5DFC
  8
0
 10
146.62873462214409
 20
535.5
 30
0.0
 11
144.87126537785571
 21
535.5
 31
0.0
  0
LINE
  5
5DFD
  8
0
 10
148.62873462214401
 20
535.5
 30
0.0
 11
146.87126537785571
 21
535.5
 31
0.0
  0
LINE
  5
5DFE
  8
0
 10
150.62873462214409
 20
535.5
 30
0.0
 11
148.87126537785571
 21
535.5
 31
0.0
  0
LINE
  5
5DFF
  8
0
 10
152.62873462214401
 20
535.5
 30
0.0
 11
150.87126537785571
 21
535.5
 31
0.0
  0
LINE
  5
5E00
  8
0
 10
154.62873462214401
 20
535.5
 30
0.0
 11
152.87126537785571
 21
535.5
 31
0.0
  0
LINE
  5
5E01
  8
0
 10
156.62873462214401
 20
535.5
 30
0.0
 11
154.87126537785571
 21
535.5
 31
0.0
  0
LINE
  5
5E02
  8
0
 10
158.62873462214401
 20
535.5
 30
0.0
 11
156.87126537785571
 21
535.5
 31
0.0
  0
LINE
  5
5E03
  8
0
 10
160.62873462214401
 20
535.5
 30
0.0
 11
158.87126537785571
 21
535.5
 31
0.0
  0
LINE
  5
5E04
  8
0
 10
162.62873462214429
 20
535.5
 30
0.0
 11
160.87126537785571
 21
535.5
 31
0.0
  0
LINE
  5
5E05
  8
0
 10
164.62873462214429
 20
535.5
 30
0.0
 11
162.87126537785571
 21
535.5
 31
0.0
  0
LINE
  5
5E06
  8
0
 10
166.62873462214429
 20
535.5
 30
0.0
 11
164.87126537785571
 21
535.5
 31
0.0
  0
LINE
  5
5E07
  8
0
 10
168.62873462214429
 20
535.5
 30
0.0
 11
166.87126537785591
 21
535.5
 31
0.0
  0
LINE
  5
5E08
  8
0
 10
170.62873462214429
 20
535.5
 30
0.0
 11
168.87126537785591
 21
535.5
 31
0.0
  0
LINE
  5
5E09
  8
0
 10
172.62873462214401
 20
535.5
 30
0.0
 11
170.87126537785591
 21
535.5
 31
0.0
  0
LINE
  5
5E0A
  8
0
 10
174.62873462214401
 20
535.5
 30
0.0
 11
172.87126537785591
 21
535.5
 31
0.0
  0
LINE
  5
5E0B
  8
0
 10
176.62873462214409
 20
535.5
 30
0.0
 11
174.87126537785591
 21
535.5
 31
0.0
  0
LINE
  5
5E0C
  8
0
 10
178.62873462214401
 20
535.5
 30
0.0
 11
176.87126537785591
 21
535.5
 31
0.0
  0
LINE
  5
5E0D
  8
0
 10
180.62873462214401
 20
535.5
 30
0.0
 11
178.87126537785591
 21
535.5
 31
0.0
  0
LINE
  5
5E0E
  8
0
 10
182.62873462214401
 20
535.5
 30
0.0
 11
180.87126537785591
 21
535.5
 31
0.0
  0
LINE
  5
5E0F
  8
0
 10
184.62873462214401
 20
535.5
 30
0.0
 11
182.87126537785591
 21
535.5
 31
0.0
  0
LINE
  5
5E10
  8
0
 10
186.62873462214401
 20
535.5
 30
0.0
 11
184.87126537785591
 21
535.5
 31
0.0
  0
LINE
  5
5E11
  8
0
 10
188.62873462214401
 20
535.5
 30
0.0
 11
186.87126537785591
 21
535.5
 31
0.0
  0
LINE
  5
5E12
  8
0
 10
190.62873462214401
 20
535.5
 30
0.0
 11
188.87126537785591
 21
535.5
 31
0.0
  0
LINE
  5
5E13
  8
0
 10
192.62873462214401
 20
535.5
 30
0.0
 11
190.87126537785591
 21
535.5
 31
0.0
  0
LINE
  5
5E14
  8
0
 10
194.62873462214401
 20
535.5
 30
0.0
 11
192.87126537785591
 21
535.5
 31
0.0
  0
LINE
  5
5E15
  8
0
 10
196.62873462214409
 20
535.5
 30
0.0
 11
194.87126537785591
 21
535.5
 31
0.0
  0
LINE
  5
5E16
  8
0
 10
198.62873462214401
 20
535.5
 30
0.0
 11
196.87126537785591
 21
535.5
 31
0.0
  0
LINE
  5
5E17
  8
0
 10
200.62873462214409
 20
535.5
 30
0.0
 11
198.87126537785591
 21
535.5
 31
0.0
  0
LINE
  5
5E18
  8
0
 10
202.62873462214409
 20
535.5
 30
0.0
 11
200.87126537785591
 21
535.5
 31
0.0
  0
LINE
  5
5E19
  8
0
 10
204.62873462214409
 20
535.5
 30
0.0
 11
202.87126537785591
 21
535.5
 31
0.0
  0
LINE
  5
5E1A
  8
0
 10
206.62873462214409
 20
535.5
 30
0.0
 11
204.87126537785591
 21
535.5
 31
0.0
  0
LINE
  5
5E1B
  8
0
 10
208.62873462214409
 20
535.5
 30
0.0
 11
206.87126537785591
 21
535.5
 31
0.0
  0
LINE
  5
5E1C
  8
0
 10
210.62873462214409
 20
535.5
 30
0.0
 11
208.87126537785591
 21
535.5
 31
0.0
  0
LINE
  5
5E1D
  8
0
 10
212.62873462214409
 20
535.5
 30
0.0
 11
210.87126537785591
 21
535.5
 31
0.0
  0
LINE
  5
5E1E
  8
0
 10
214.62873462214409
 20
535.5
 30
0.0
 11
212.87126537785591
 21
535.5
 31
0.0
  0
LINE
  5
5E1F
  8
0
 10
216.62873462214409
 20
535.5
 30
0.0
 11
214.87126537785591
 21
535.5
 31
0.0
  0
LINE
  5
5E20
  8
0
 10
218.62873462214401
 20
535.5
 30
0.0
 11
216.87126537785591
 21
535.5
 31
0.0
  0
LINE
  5
5E21
  8
0
 10
220.62873462214401
 20
535.5
 30
0.0
 11
218.87126537785591
 21
535.5
 31
0.0
  0
LINE
  5
5E22
  8
0
 10
222.62873462214401
 20
535.5
 30
0.0
 11
220.87126537785591
 21
535.5
 31
0.0
  0
LINE
  5
5E23
  8
0
 10
224.62873462214401
 20
535.5
 30
0.0
 11
222.87126537785591
 21
535.5
 31
0.0
  0
LINE
  5
5E24
  8
0
 10
226.62873462214409
 20
535.5
 30
0.0
 11
224.87126537785599
 21
535.5
 31
0.0
  0
LINE
  5
5E25
  8
0
 10
228.62873462214409
 20
535.5
 30
0.0
 11
226.87126537785599
 21
535.5
 31
0.0
  0
LINE
  5
5E26
  8
0
 10
230.62873462214409
 20
535.5
 30
0.0
 11
228.87126537785599
 21
535.5
 31
0.0
  0
LINE
  5
5E27
  8
0
 10
232.62873462214409
 20
535.5
 30
0.0
 11
230.87126537785599
 21
535.5
 31
0.0
  0
LINE
  5
5E28
  8
0
 10
234.62873462214409
 20
535.5
 30
0.0
 11
232.87126537785591
 21
535.5
 31
0.0
  0
LINE
  5
5E29
  8
0
 10
236.62873462214409
 20
535.5
 30
0.0
 11
234.87126537785591
 21
535.5
 31
0.0
  0
LINE
  5
5E2A
  8
0
 10
238.62873462214409
 20
535.5
 30
0.0
 11
236.87126537785591
 21
535.5
 31
0.0
  0
LINE
  5
5E2B
  8
0
 10
370.62873462214401
 20
535.5
 30
0.0
 11
368.87126537785588
 21
535.5
 31
0.0
  0
LINE
  5
5E2C
  8
0
 10
372.62873462214401
 20
535.5
 30
0.0
 11
370.87126537785588
 21
535.5
 31
0.0
  0
LINE
  5
5E2D
  8
0
 10
374.62873462214401
 20
535.5
 30
0.0
 11
372.87126537785588
 21
535.5
 31
0.0
  0
LINE
  5
5E2E
  8
0
 10
376.62873462214412
 20
535.5
 30
0.0
 11
374.87126537785599
 21
535.5
 31
0.0
  0
LINE
  5
5E2F
  8
0
 10
378.62873462214412
 20
535.5
 30
0.0
 11
376.87126537785599
 21
535.5
 31
0.0
  0
LINE
  5
5E30
  8
0
 10
379.5
 20
535.5
 30
0.0
 11
378.87126537785599
 21
535.5
 31
0.0
  0
LINE
  5
6008
  8
0
 10
568.0
 20
351.30000000000001
 30
0.0
 11
568.0
 21
345.0
 31
0.0
  0
LINE
  5
6009
  8
0
 10
556.0
 20
345.0
 30
0.0
 11
556.0
 21
351.30000000000001
 31
0.0
  0
LINE
  5
6021
  8
0
 10
516.0
 20
382.0
 30
0.0
 11
516.0
 21
397.0
 31
0.0
  0
LINE
  5
6022
  8
0
 10
517.0
 20
381.0
 30
0.0
 11
516.0
 21
382.0
 31
0.0
  0
LINE
  5
6023
  8
0
 10
516.0
 20
397.0
 30
0.0
 11
517.0
 21
398.0
 31
0.0
  0
LINE
  5
6024
  8
0
 10
499.5
 20
345.0
 30
0.0
 11
624.5
 21
345.0
 31
0.0
  0
LINE
  5
6025
  8
0
 10
572.0
 20
351.30000000000001
 30
0.0
 11
572.0
 21
345.0
 31
0.0
  0
LINE
  5
6026
  8
0
 10
540.0
 20
397.0
 30
0.0
 11
540.0
 21
398.0
 31
0.0
  0
LINE
  5
6027
  8
0
 10
540.0
 20
398.0
 30
0.0
 11
517.0
 21
398.0
 31
0.0
  0
LINE
  5
6028
  8
0
 10
504.49999999999989
 20
355.0
 30
0.0
 11
499.5
 21
355.0
 31
0.0
  0
LINE
  5
6029
  8
0
 10
499.5
 20
355.0
 30
0.0
 11
499.5
 21
345.0
 31
0.0
  0
LINE
  5
602A
  8
0
 10
624.5
 20
345.0
 30
0.0
 11
624.5
 21
355.0
 31
0.0
  0
LINE
  5
602B
  8
0
 10
624.5
 20
355.0
 30
0.0
 11
619.5
 21
355.0
 31
0.0
  0
LINE
  5
602C
  8
0
 10
619.5
 20
355.0
 30
0.0
 11
619.5
 21
368.0
 31
0.0
  0
LINE
  5
602D
  8
0
 10
619.5
 20
368.0
 30
0.0
 11
593.0
 21
368.0
 31
0.0
  0
LINE
  5
602E
  8
0
 10
593.0
 20
368.0
 30
0.0
 11
593.0
 21
381.0
 31
0.0
  0
LINE
  5
602F
  8
0
 10
593.0
 20
381.0
 30
0.0
 11
607.0
 21
381.0
 31
0.0
  0
LINE
  5
6030
  8
0
 10
607.0
 20
381.0
 30
0.0
 11
608.0
 21
382.0
 31
0.0
  0
LINE
  5
6031
  8
0
 10
608.0
 20
382.0
 30
0.0
 11
608.0
 21
397.0
 31
0.0
  0
LINE
  5
6032
  8
0
 10
608.0
 20
397.0
 30
0.0
 11
607.0
 21
398.0
 31
0.0
  0
LINE
  5
6033
  8
0
 10
607.0
 20
398.0
 30
0.0
 11
584.0
 21
398.0
 31
0.0
  0
LINE
  5
6034
  8
0
 10
584.0
 20
398.0
 30
0.0
 11
584.0
 21
397.0
 31
0.0
  0
LINE
  5
6035
  8
0
 10
584.0
 20
397.0
 30
0.0
 11
540.0
 21
397.0
 31
0.0
  0
LINE
  5
6037
  8
0
 10
517.0
 20
381.0
 30
0.0
 11
531.0
 21
381.0
 31
0.0
  0
LINE
  5
6038
  8
0
 10
531.0
 20
381.0
 30
0.0
 11
531.0
 21
368.0
 31
0.0
  0
LINE
  5
6039
  8
0
 10
531.0
 20
368.0
 30
0.0
 11
504.49999999999989
 21
368.0
 31
0.0
  0
LINE
  5
603A
  8
0
 10
504.49999999999989
 20
368.0
 30
0.0
 11
504.49999999999989
 21
355.0
 31
0.0
  0
LINE
  5
603B
  8
0
 10
552.0
 20
351.30000000000001
 30
0.0
 11
552.0
 21
345.0
 31
0.0
  0
LINE
  5
603C
  8
0
 10
572.0
 20
351.30000000000001
 30
0.0
 11
552.0
 21
351.30000000000001
 31
0.0
  0
LINE
  5
6057
  8
1
 10
562.00000000000023
 20
408.0
 30
0.0
 11
562.0
 21
335.0
 31
0.0
  0
LINE
  5
66DE
  8
0
 10
100.62873462214429
 20
381.0
 30
0.0
 11
100.0
 21
381.71550000000002
 31
0.0
  0
LINE
  5
66DF
  8
0
 10
100.0
 20
397.28449999999998
 30
0.0
 11
100.62873462214429
 21
398.0
 31
0.0
  0
LINE
  5
66E0
  8
0
 10
378.87126537785622
 20
398.0
 30
0.0
 11
379.5
 21
397.28449999999998
 31
0.0
  0
LINE
  5
66E1
  8
0
 10
379.5
 20
381.71550000000002
 30
0.0
 11
378.87126537785622
 21
381.0
 31
0.0
  0
LINE
  5
66E2
  8
0
 10
178.75
 20
381.0
 30
0.0
 11
178.75
 21
398.0
 31
0.0
  0
LINE
  5
66E3
  8
0
 10
179.75
 20
382.0
 30
0.0
 11
179.75
 21
397.0
 31
0.0
  0
LINE
  5
66E4
  8
0
 10
168.75
 20
381.0
 30
0.0
 11
168.75
 21
398.0
 31
0.0
  0
LINE
  5
66E5
  8
0
 10
167.75
 20
382.0
 30
0.0
 11
167.75
 21
397.0
 31
0.0
  0
LINE
  5
66E6
  8
0
 10
138.75
 20
381.0
 30
0.0
 11
138.75
 21
398.0
 31
0.0
  0
LINE
  5
66E7
  8
0
 10
180.75
 20
381.0
 30
0.0
 11
180.75
 21
398.0
 31
0.0
  0
LINE
  5
66E8
  8
0
 10
106.75
 20
381.0
 30
0.0
 11
106.75
 21
398.0
 31
0.0
  0
LINE
  5
66E9
  8
0
 10
107.75
 20
382.0
 30
0.0
 11
107.75
 21
397.0
 31
0.0
  0
LINE
  5
66EA
  8
0
 10
166.75
 20
381.0
 30
0.0
 11
166.75
 21
398.0
 31
0.0
  0
LINE
  5
66EB
  8
0
 10
108.62873462214429
 20
381.0
 30
0.0
 11
107.75
 21
382.0
 31
0.0
  0
LINE
  5
66EC
  8
0
 10
107.75
 20
382.0
 30
0.0
 11
106.87126537785591
 21
381.0
 31
0.0
  0
LINE
  5
66ED
  8
0
 10
139.75
 20
382.0
 30
0.0
 11
139.75
 21
397.0
 31
0.0
  0
LINE
  5
66EE
  8
0
 10
124.75
 20
381.0
 30
0.0
 11
124.75
 21
398.0
 31
0.0
  0
LINE
  5
66EF
  8
0
 10
169.75
 20
382.0
 30
0.0
 11
169.75
 21
397.0
 31
0.0
  0
LINE
  5
66F0
  8
0
 10
137.75
 20
382.0
 30
0.0
 11
137.75
 21
397.0
 31
0.0
  0
LINE
  5
66F1
  8
0
 10
172.75
 20
381.0
 30
0.0
 11
172.75
 21
398.0
 31
0.0
  0
LINE
  5
66F2
  8
0
 10
173.75
 20
382.0
 30
0.0
 11
173.75
 21
397.0
 31
0.0
  0
LINE
  5
66F3
  8
0
 10
174.75
 20
381.0
 30
0.0
 11
174.75
 21
398.0
 31
0.0
  0
LINE
  5
66F4
  8
0
 10
175.75
 20
382.0
 30
0.0
 11
175.75
 21
397.0
 31
0.0
  0
LINE
  5
66F5
  8
0
 10
176.75
 20
381.0
 30
0.0
 11
176.75
 21
398.0
 31
0.0
  0
LINE
  5
66F6
  8
0
 10
177.75
 20
382.0
 30
0.0
 11
177.75
 21
397.0
 31
0.0
  0
LINE
  5
66F7
  8
0
 10
138.62873462214429
 20
381.0
 30
0.0
 11
137.75
 21
382.0
 31
0.0
  0
LINE
  5
66F8
  8
0
 10
137.75
 20
382.0
 30
0.0
 11
136.87126537785591
 21
381.0
 31
0.0
  0
LINE
  5
66F9
  8
0
 10
140.62873462214429
 20
381.0
 30
0.0
 11
139.75
 21
382.0
 31
0.0
  0
LINE
  5
66FA
  8
0
 10
139.75
 20
382.0
 30
0.0
 11
138.87126537785591
 21
381.0
 31
0.0
  0
LINE
  5
66FB
  8
0
 10
181.75
 20
382.0
 30
0.0
 11
181.75
 21
397.0
 31
0.0
  0
LINE
  5
66FC
  8
0
 10
184.75
 20
381.0
 30
0.0
 11
184.75
 21
398.0
 31
0.0
  0
LINE
  5
66FD
  8
0
 10
187.75
 20
382.0
 30
0.0
 11
187.7500000000002
 21
397.0
 31
0.0
  0
LINE
  5
66FE
  8
0
 10
188.75
 20
381.0
 30
0.0
 11
188.75
 21
398.0
 31
0.0
  0
LINE
  5
66FF
  8
0
 10
189.75
 20
382.0
 30
0.0
 11
189.75
 21
397.0
 31
0.0
  0
LINE
  5
6700
  8
0
 10
190.75
 20
381.0
 30
0.0
 11
190.75
 21
398.0
 31
0.0
  0
LINE
  5
6701
  8
0
 10
191.75
 20
382.0
 30
0.0
 11
191.75
 21
397.0
 31
0.0
  0
LINE
  5
6702
  8
0
 10
192.75
 20
381.0
 30
0.0
 11
192.75
 21
398.0
 31
0.0
  0
LINE
  5
6703
  8
0
 10
193.75
 20
382.0
 30
0.0
 11
193.75
 21
397.0
 31
0.0
  0
LINE
  5
6704
  8
0
 10
194.75
 20
381.0
 30
0.0
 11
194.75
 21
398.0
 31
0.0
  0
LINE
  5
6705
  8
0
 10
195.75
 20
382.0
 30
0.0
 11
195.75
 21
397.0
 31
0.0
  0
LINE
  5
6706
  8
0
 10
196.75
 20
381.0
 30
0.0
 11
196.75
 21
398.0
 31
0.0
  0
LINE
  5
6707
  8
0
 10
197.75
 20
382.0
 30
0.0
 11
197.75
 21
397.0
 31
0.0
  0
LINE
  5
6708
  8
0
 10
198.75
 20
381.0
 30
0.0
 11
198.75
 21
398.0
 31
0.0
  0
LINE
  5
6709
  8
0
 10
199.75
 20
382.0
 30
0.0
 11
199.75
 21
397.0
 31
0.0
  0
LINE
  5
670A
  8
0
 10
200.75
 20
381.0
 30
0.0
 11
200.75
 21
398.0
 31
0.0
  0
LINE
  5
670B
  8
0
 10
201.75
 20
382.0
 30
0.0
 11
201.75
 21
397.0
 31
0.0
  0
LINE
  5
670C
  8
0
 10
202.75
 20
381.0
 30
0.0
 11
202.75
 21
398.0
 31
0.0
  0
LINE
  5
670D
  8
0
 10
203.75
 20
382.0
 30
0.0
 11
203.75
 21
397.0
 31
0.0
  0
LINE
  5
670E
  8
0
 10
204.75
 20
381.0
 30
0.0
 11
204.75
 21
398.0
 31
0.0
  0
LINE
  5
670F
  8
0
 10
205.75
 20
382.0
 30
0.0
 11
205.75
 21
397.0
 31
0.0
  0
LINE
  5
6710
  8
0
 10
206.75
 20
381.0
 30
0.0
 11
206.75
 21
398.0
 31
0.0
  0
LINE
  5
6711
  8
0
 10
207.75
 20
382.0
 30
0.0
 11
207.75
 21
397.0
 31
0.0
  0
LINE
  5
6712
  8
0
 10
208.75
 20
381.0
 30
0.0
 11
208.75
 21
398.0
 31
0.0
  0
LINE
  5
6713
  8
0
 10
209.75
 20
382.0
 30
0.0
 11
209.75
 21
397.0
 31
0.0
  0
LINE
  5
6714
  8
0
 10
210.75
 20
381.0
 30
0.0
 11
210.75
 21
398.0
 31
0.0
  0
LINE
  5
6715
  8
0
 10
211.75
 20
382.0
 30
0.0
 11
211.75
 21
397.0
 31
0.0
  0
LINE
  5
6716
  8
0
 10
212.75
 20
381.0
 30
0.0
 11
212.75
 21
398.0
 31
0.0
  0
LINE
  5
6717
  8
0
 10
213.75
 20
382.0
 30
0.0
 11
213.75
 21
397.0
 31
0.0
  0
LINE
  5
6718
  8
0
 10
214.75
 20
381.0
 30
0.0
 11
214.75
 21
398.0
 31
0.0
  0
LINE
  5
6719
  8
0
 10
215.75
 20
382.0
 30
0.0
 11
215.75
 21
397.0
 31
0.0
  0
LINE
  5
671A
  8
0
 10
216.75
 20
381.0
 30
0.0
 11
216.75
 21
398.0
 31
0.0
  0
LINE
  5
671B
  8
0
 10
217.75
 20
382.0
 30
0.0
 11
217.75
 21
397.0
 31
0.0
  0
LINE
  5
671C
  8
0
 10
218.75
 20
381.0
 30
0.0
 11
218.75
 21
398.0
 31
0.0
  0
LINE
  5
671D
  8
0
 10
219.75
 20
382.0
 30
0.0
 11
219.75
 21
397.0
 31
0.0
  0
LINE
  5
671E
  8
0
 10
220.75
 20
381.0
 30
0.0
 11
220.75
 21
398.0
 31
0.0
  0
LINE
  5
671F
  8
0
 10
221.75
 20
382.0
 30
0.0
 11
221.75
 21
397.0
 31
0.0
  0
LINE
  5
6720
  8
0
 10
222.75
 20
381.0
 30
0.0
 11
222.75
 21
398.0
 31
0.0
  0
LINE
  5
6721
  8
0
 10
223.75
 20
382.0
 30
0.0
 11
223.75
 21
397.0
 31
0.0
  0
LINE
  5
6722
  8
0
 10
224.75
 20
381.0
 30
0.0
 11
224.75
 21
398.0
 31
0.0
  0
LINE
  5
6723
  8
0
 10
225.75
 20
382.0
 30
0.0
 11
225.75
 21
397.0
 31
0.0
  0
LINE
  5
6724
  8
0
 10
226.75
 20
381.0
 30
0.0
 11
226.75
 21
398.0
 31
0.0
  0
LINE
  5
6725
  8
0
 10
227.75
 20
382.0
 30
0.0
 11
227.75
 21
397.0
 31
0.0
  0
LINE
  5
6726
  8
0
 10
228.75
 20
381.0
 30
0.0
 11
228.75
 21
398.0
 31
0.0
  0
LINE
  5
6727
  8
0
 10
229.75
 20
382.0
 30
0.0
 11
229.75
 21
397.0
 31
0.0
  0
LINE
  5
6728
  8
0
 10
164.75
 20
381.0
 30
0.0
 11
164.75
 21
398.0
 31
0.0
  0
LINE
  5
6729
  8
0
 10
165.75
 20
382.0
 30
0.0
 11
165.75
 21
397.0
 31
0.0
  0
LINE
  5
672A
  8
0
 10
232.75
 20
381.0
 30
0.0
 11
232.75
 21
398.0
 31
0.0
  0
LINE
  5
672B
  8
0
 10
233.75
 20
382.0
 30
0.0
 11
233.75
 21
397.0
 31
0.0
  0
LINE
  5
672C
  8
0
 10
234.75
 20
381.0
 30
0.0
 11
234.75
 21
398.0
 31
0.0
  0
LINE
  5
672D
  8
0
 10
235.75
 20
382.0
 30
0.0
 11
235.75
 21
397.0
 31
0.0
  0
LINE
  5
672E
  8
0
 10
236.75
 20
381.0
 30
0.0
 11
236.75
 21
398.0
 31
0.0
  0
LINE
  5
672F
  8
0
 10
237.75
 20
382.0
 30
0.0
 11
237.75
 21
397.0
 31
0.0
  0
LINE
  5
6730
  8
0
 10
238.75
 20
381.0
 30
0.0
 11
238.75
 21
398.0
 31
0.0
  0
LINE
  5
6731
  8
0
 10
170.75
 20
381.0
 30
0.0
 11
170.75
 21
398.0
 31
0.0
  0
LINE
  5
6732
  8
0
 10
171.75
 20
382.0
 30
0.0
 11
171.75
 21
397.0
 31
0.0
  0
LINE
  5
6733
  8
0
 10
241.75
 20
382.0
 30
0.0
 11
241.75
 21
397.0
 31
0.0
  0
LINE
  5
6734
  8
0
 10
242.75
 20
381.0
 30
0.0
 11
242.75
 21
398.0
 31
0.0
  0
LINE
  5
6735
  8
0
 10
243.75
 20
382.0
 30
0.0
 11
243.75
 21
397.0
 31
0.0
  0
LINE
  5
6736
  8
0
 10
244.75
 20
381.0
 30
0.0
 11
244.75
 21
398.0
 31
0.0
  0
LINE
  5
6737
  8
0
 10
245.75
 20
382.0
 30
0.0
 11
245.75
 21
397.0
 31
0.0
  0
LINE
  5
6738
  8
0
 10
246.75
 20
381.0
 30
0.0
 11
246.75
 21
398.0
 31
0.0
  0
LINE
  5
6739
  8
0
 10
247.75
 20
382.0
 30
0.0
 11
247.75
 21
397.0
 31
0.0
  0
LINE
  5
673A
  8
0
 10
248.75
 20
381.0
 30
0.0
 11
248.75
 21
398.0
 31
0.0
  0
LINE
  5
673B
  8
0
 10
249.75
 20
382.0
 30
0.0
 11
249.75
 21
397.0
 31
0.0
  0
LINE
  5
673C
  8
0
 10
250.75
 20
381.0
 30
0.0
 11
250.75
 21
398.0
 31
0.0
  0
LINE
  5
673D
  8
0
 10
251.75
 20
382.0
 30
0.0
 11
251.75
 21
397.0
 31
0.0
  0
LINE
  5
673E
  8
0
 10
252.75
 20
381.0
 30
0.0
 11
252.75
 21
398.0
 31
0.0
  0
LINE
  5
673F
  8
0
 10
253.75
 20
382.0
 30
0.0
 11
253.75
 21
397.0
 31
0.0
  0
LINE
  5
6740
  8
0
 10
254.75
 20
381.0
 30
0.0
 11
254.75
 21
398.0
 31
0.0
  0
LINE
  5
6741
  8
0
 10
255.75
 20
382.0
 30
0.0
 11
255.75
 21
397.0
 31
0.0
  0
LINE
  5
6742
  8
0
 10
256.75
 20
381.0
 30
0.0
 11
256.75
 21
398.0
 31
0.0
  0
LINE
  5
6743
  8
0
 10
257.75
 20
382.0
 30
0.0
 11
257.75
 21
397.0
 31
0.0
  0
LINE
  5
6744
  8
0
 10
258.75
 20
381.0
 30
0.0
 11
258.75
 21
398.0
 31
0.0
  0
LINE
  5
6745
  8
0
 10
259.75
 20
382.0
 30
0.0
 11
259.75
 21
397.0
 31
0.0
  0
LINE
  5
6746
  8
0
 10
260.75
 20
381.0
 30
0.0
 11
260.75
 21
398.0
 31
0.0
  0
LINE
  5
6747
  8
0
 10
261.75
 20
382.0
 30
0.0
 11
261.75
 21
397.0
 31
0.0
  0
LINE
  5
6748
  8
0
 10
262.75
 20
381.0
 30
0.0
 11
262.75
 21
398.0
 31
0.0
  0
LINE
  5
6749
  8
0
 10
263.75
 20
382.0
 30
0.0
 11
263.75
 21
397.0
 31
0.0
  0
LINE
  5
674A
  8
0
 10
264.75
 20
381.0
 30
0.0
 11
264.75
 21
398.0
 31
0.0
  0
LINE
  5
674B
  8
0
 10
265.75
 20
382.0
 30
0.0
 11
265.75
 21
397.0
 31
0.0
  0
LINE
  5
674C
  8
0
 10
266.75
 20
381.0
 30
0.0
 11
266.75
 21
398.0
 31
0.0
  0
LINE
  5
674D
  8
0
 10
267.75
 20
382.0
 30
0.0
 11
267.75
 21
397.0
 31
0.0
  0
LINE
  5
674E
  8
0
 10
268.75
 20
381.0
 30
0.0
 11
268.75
 21
398.0
 31
0.0
  0
LINE
  5
674F
  8
0
 10
269.75
 20
382.0
 30
0.0
 11
269.75
 21
397.0
 31
0.0
  0
LINE
  5
6750
  8
0
 10
270.75
 20
381.0
 30
0.0
 11
270.75
 21
398.0
 31
0.0
  0
LINE
  5
6751
  8
0
 10
271.75
 20
382.0
 30
0.0
 11
271.75
 21
397.0
 31
0.0
  0
LINE
  5
6752
  8
0
 10
272.75
 20
381.0
 30
0.0
 11
272.75
 21
398.0
 31
0.0
  0
LINE
  5
6753
  8
0
 10
273.75
 20
382.0
 30
0.0
 11
273.75
 21
397.0
 31
0.0
  0
LINE
  5
6754
  8
0
 10
274.75
 20
381.0
 30
0.0
 11
274.75
 21
398.0
 31
0.0
  0
LINE
  5
6755
  8
0
 10
275.75
 20
382.0
 30
0.0
 11
275.75
 21
397.0
 31
0.0
  0
LINE
  5
6756
  8
0
 10
276.75
 20
381.0
 30
0.0
 11
276.75
 21
398.0
 31
0.0
  0
LINE
  5
6757
  8
0
 10
277.75
 20
382.0
 30
0.0
 11
277.75
 21
397.0
 31
0.0
  0
LINE
  5
6758
  8
0
 10
278.75
 20
381.0
 30
0.0
 11
278.75
 21
398.0
 31
0.0
  0
LINE
  5
6759
  8
0
 10
279.75
 20
382.0
 30
0.0
 11
279.75
 21
397.0
 31
0.0
  0
LINE
  5
675A
  8
0
 10
280.75
 20
381.0
 30
0.0
 11
280.75
 21
398.0
 31
0.0
  0
LINE
  5
675B
  8
0
 10
281.75
 20
382.0
 30
0.0
 11
281.75
 21
397.0
 31
0.0
  0
LINE
  5
675C
  8
0
 10
282.75
 20
381.0
 30
0.0
 11
282.75
 21
398.0
 31
0.0
  0
LINE
  5
675D
  8
0
 10
283.75
 20
382.0
 30
0.0
 11
283.75
 21
397.0
 31
0.0
  0
LINE
  5
675E
  8
0
 10
284.75
 20
381.0
 30
0.0
 11
284.75
 21
398.0
 31
0.0
  0
LINE
  5
675F
  8
0
 10
285.75
 20
382.0
 30
0.0
 11
285.75
 21
397.0
 31
0.0
  0
LINE
  5
6760
  8
0
 10
286.75
 20
381.0
 30
0.0
 11
286.75
 21
398.0
 31
0.0
  0
LINE
  5
6761
  8
0
 10
287.75
 20
382.0
 30
0.0
 11
287.75
 21
397.0
 31
0.0
  0
LINE
  5
6762
  8
0
 10
288.75
 20
381.0
 30
0.0
 11
288.75
 21
398.0
 31
0.0
  0
LINE
  5
6763
  8
0
 10
289.75
 20
382.0
 30
0.0
 11
289.75
 21
397.0
 31
0.0
  0
LINE
  5
6764
  8
0
 10
290.75
 20
381.0
 30
0.0
 11
290.75
 21
398.0
 31
0.0
  0
LINE
  5
6765
  8
0
 10
291.75
 20
382.0
 30
0.0
 11
291.75
 21
397.0
 31
0.0
  0
LINE
  5
6766
  8
0
 10
292.75
 20
381.0
 30
0.0
 11
292.75
 21
398.0
 31
0.0
  0
LINE
  5
6767
  8
0
 10
293.75
 20
382.0
 30
0.0
 11
293.75
 21
397.0
 31
0.0
  0
LINE
  5
6768
  8
0
 10
294.75
 20
381.0
 30
0.0
 11
294.75
 21
398.0
 31
0.0
  0
LINE
  5
6769
  8
0
 10
295.75
 20
382.0
 30
0.0
 11
295.75
 21
397.0
 31
0.0
  0
LINE
  5
676A
  8
0
 10
296.75
 20
381.0
 30
0.0
 11
296.75
 21
398.0
 31
0.0
  0
LINE
  5
676B
  8
0
 10
297.75
 20
382.0
 30
0.0
 11
297.75
 21
397.0
 31
0.0
  0
LINE
  5
676C
  8
0
 10
298.75
 20
381.0
 30
0.0
 11
298.75
 21
398.0
 31
0.0
  0
LINE
  5
676D
  8
0
 10
230.75
 20
381.0
 30
0.0
 11
230.75
 21
398.0
 31
0.0
  0
LINE
  5
676E
  8
0
 10
231.75
 20
382.0
 30
0.0
 11
231.75
 21
397.0
 31
0.0
  0
LINE
  5
676F
  8
0
 10
301.75
 20
382.0
 30
0.0
 11
301.75
 21
397.0
 31
0.0
  0
LINE
  5
6770
  8
0
 10
302.75
 20
381.0
 30
0.0
 11
302.75
 21
398.0
 31
0.0
  0
LINE
  5
6771
  8
0
 10
303.75
 20
382.0
 30
0.0
 11
303.75
 21
397.0
 31
0.0
  0
LINE
  5
6772
  8
0
 10
304.75
 20
381.0
 30
0.0
 11
304.75
 21
398.0
 31
0.0
  0
LINE
  5
6773
  8
0
 10
305.75
 20
382.0
 30
0.0
 11
305.75
 21
397.0
 31
0.0
  0
LINE
  5
6774
  8
0
 10
306.75
 20
381.0
 30
0.0
 11
306.75
 21
398.0
 31
0.0
  0
LINE
  5
6775
  8
0
 10
307.75
 20
382.0
 30
0.0
 11
307.75
 21
397.0
 31
0.0
  0
LINE
  5
6776
  8
0
 10
308.75
 20
381.0
 30
0.0
 11
308.75
 21
398.0
 31
0.0
  0
LINE
  5
6777
  8
0
 10
309.75
 20
382.0
 30
0.0
 11
309.75
 21
397.0
 31
0.0
  0
LINE
  5
6778
  8
0
 10
310.75
 20
381.0
 30
0.0
 11
310.75
 21
398.0
 31
0.0
  0
LINE
  5
6779
  8
0
 10
311.75
 20
382.0
 30
0.0
 11
311.75
 21
397.0
 31
0.0
  0
LINE
  5
677A
  8
0
 10
312.75
 20
381.0
 30
0.0
 11
312.75
 21
398.0
 31
0.0
  0
LINE
  5
677B
  8
0
 10
313.75
 20
382.0
 30
0.0
 11
313.75
 21
397.0
 31
0.0
  0
LINE
  5
677C
  8
0
 10
314.75
 20
381.0
 30
0.0
 11
314.75
 21
398.0
 31
0.0
  0
LINE
  5
677D
  8
0
 10
315.75
 20
382.0
 30
0.0
 11
315.75
 21
397.0
 31
0.0
  0
LINE
  5
677E
  8
0
 10
316.75
 20
381.0
 30
0.0
 11
316.75
 21
398.0
 31
0.0
  0
LINE
  5
677F
  8
0
 10
317.75
 20
382.0
 30
0.0
 11
317.75
 21
397.0
 31
0.0
  0
LINE
  5
6780
  8
0
 10
318.75
 20
381.0
 30
0.0
 11
318.75
 21
398.0
 31
0.0
  0
LINE
  5
6781
  8
0
 10
319.75
 20
382.0
 30
0.0
 11
319.75
 21
397.0
 31
0.0
  0
LINE
  5
6782
  8
0
 10
320.75
 20
381.0
 30
0.0
 11
320.75
 21
398.0
 31
0.0
  0
LINE
  5
6783
  8
0
 10
321.75
 20
382.0
 30
0.0
 11
321.75
 21
397.0
 31
0.0
  0
LINE
  5
6784
  8
0
 10
322.75
 20
381.0
 30
0.0
 11
322.75
 21
398.0
 31
0.0
  0
LINE
  5
6785
  8
0
 10
323.75
 20
382.0
 30
0.0
 11
323.75
 21
397.0
 31
0.0
  0
LINE
  5
6786
  8
0
 10
324.75
 20
381.0
 30
0.0
 11
324.75
 21
398.0
 31
0.0
  0
LINE
  5
6787
  8
0
 10
325.75
 20
382.0
 30
0.0
 11
325.75
 21
397.0
 31
0.0
  0
LINE
  5
6788
  8
0
 10
326.75
 20
381.0
 30
0.0
 11
326.75
 21
398.0
 31
0.0
  0
LINE
  5
6789
  8
0
 10
327.75
 20
382.0
 30
0.0
 11
327.75
 21
397.0
 31
0.0
  0
LINE
  5
678A
  8
0
 10
328.75
 20
381.0
 30
0.0
 11
328.75
 21
398.0
 31
0.0
  0
LINE
  5
678B
  8
0
 10
329.75
 20
382.0
 30
0.0
 11
329.75
 21
397.0
 31
0.0
  0
LINE
  5
678C
  8
0
 10
330.75
 20
381.0
 30
0.0
 11
330.75
 21
398.0
 31
0.0
  0
LINE
  5
678D
  8
0
 10
331.75
 20
382.0
 30
0.0
 11
331.75
 21
397.0
 31
0.0
  0
LINE
  5
678E
  8
0
 10
332.75
 20
381.0
 30
0.0
 11
332.75
 21
398.0
 31
0.0
  0
LINE
  5
678F
  8
0
 10
333.75
 20
382.0
 30
0.0
 11
333.75
 21
397.0
 31
0.0
  0
LINE
  5
6790
  8
0
 10
334.75
 20
381.0
 30
0.0
 11
334.75
 21
398.0
 31
0.0
  0
LINE
  5
6791
  8
0
 10
335.75
 20
382.0
 30
0.0
 11
335.75
 21
397.0
 31
0.0
  0
LINE
  5
6792
  8
0
 10
336.75
 20
381.0
 30
0.0
 11
336.75
 21
398.0
 31
0.0
  0
LINE
  5
6793
  8
0
 10
337.75
 20
382.0
 30
0.0
 11
337.75
 21
397.0
 31
0.0
  0
LINE
  5
6794
  8
0
 10
338.75
 20
381.0
 30
0.0
 11
338.75
 21
398.0
 31
0.0
  0
LINE
  5
6795
  8
0
 10
339.75
 20
382.0
 30
0.0
 11
339.75
 21
397.0
 31
0.0
  0
LINE
  5
6796
  8
0
 10
340.75
 20
381.0
 30
0.0
 11
340.75
 21
398.0
 31
0.0
  0
LINE
  5
6797
  8
0
 10
341.75
 20
382.0
 30
0.0
 11
341.75
 21
397.0
 31
0.0
  0
LINE
  5
6798
  8
0
 10
342.75
 20
381.0
 30
0.0
 11
342.75
 21
398.0
 31
0.0
  0
LINE
  5
6799
  8
0
 10
343.75
 20
382.0
 30
0.0
 11
343.75
 21
397.0
 31
0.0
  0
LINE
  5
679A
  8
0
 10
344.75
 20
381.0
 30
0.0
 11
344.75
 21
398.0
 31
0.0
  0
LINE
  5
679B
  8
0
 10
345.75
 20
382.0
 30
0.0
 11
345.75
 21
397.0
 31
0.0
  0
LINE
  5
679C
  8
0
 10
346.75
 20
381.0
 30
0.0
 11
346.75
 21
398.0
 31
0.0
  0
LINE
  5
679D
  8
0
 10
347.75
 20
382.0
 30
0.0
 11
347.75
 21
397.0
 31
0.0
  0
LINE
  5
679E
  8
0
 10
348.75
 20
381.0
 30
0.0
 11
348.75
 21
398.0
 31
0.0
  0
LINE
  5
679F
  8
0
 10
349.75
 20
382.0
 30
0.0
 11
349.75
 21
397.0
 31
0.0
  0
LINE
  5
67A0
  8
0
 10
350.75
 20
381.0
 30
0.0
 11
350.75
 21
398.0
 31
0.0
  0
LINE
  5
67A1
  8
0
 10
351.75
 20
382.0
 30
0.0
 11
351.75
 21
397.0
 31
0.0
  0
LINE
  5
67A2
  8
0
 10
352.75
 20
381.0
 30
0.0
 11
352.75
 21
398.0
 31
0.0
  0
LINE
  5
67A3
  8
0
 10
353.75
 20
382.0
 30
0.0
 11
353.75
 21
397.0
 31
0.0
  0
LINE
  5
67A4
  8
0
 10
354.75
 20
381.0
 30
0.0
 11
354.75
 21
398.0
 31
0.0
  0
LINE
  5
67A5
  8
0
 10
355.75
 20
382.0
 30
0.0
 11
355.75
 21
397.0
 31
0.0
  0
LINE
  5
67A6
  8
0
 10
356.75
 20
381.0
 30
0.0
 11
356.75
 21
398.0
 31
0.0
  0
LINE
  5
67A7
  8
0
 10
357.75
 20
382.0
 30
0.0
 11
357.75
 21
397.0
 31
0.0
  0
LINE
  5
67A8
  8
0
 10
358.75
 20
381.0
 30
0.0
 11
358.75
 21
398.0
 31
0.0
  0
LINE
  5
67A9
  8
0
 10
359.75
 20
382.0
 30
0.0
 11
359.75
 21
397.0
 31
0.0
  0
LINE
  5
67AA
  8
0
 10
360.75
 20
381.0
 30
0.0
 11
360.75
 21
398.0
 31
0.0
  0
LINE
  5
67AB
  8
0
 10
361.75
 20
382.0
 30
0.0
 11
361.75
 21
397.0
 31
0.0
  0
LINE
  5
67AC
  8
0
 10
362.75
 20
381.0
 30
0.0
 11
362.75
 21
398.0
 31
0.0
  0
LINE
  5
67AD
  8
0
 10
363.75
 20
382.0
 30
0.0
 11
363.75
 21
397.0
 31
0.0
  0
LINE
  5
67AE
  8
0
 10
364.75
 20
381.0
 30
0.0
 11
364.75
 21
398.0
 31
0.0
  0
LINE
  5
67AF
  8
0
 10
365.75
 20
382.0
 30
0.0
 11
365.75
 21
397.0
 31
0.0
  0
LINE
  5
67B0
  8
0
 10
366.75
 20
381.0
 30
0.0
 11
366.75
 21
398.0
 31
0.0
  0
LINE
  5
67B1
  8
0
 10
367.75
 20
382.0
 30
0.0
 11
367.75
 21
397.0
 31
0.0
  0
LINE
  5
67B2
  8
0
 10
368.75
 20
381.0
 30
0.0
 11
368.75
 21
398.0
 31
0.0
  0
LINE
  5
67B3
  8
0
 10
369.75
 20
382.0
 30
0.0
 11
369.75
 21
397.0
 31
0.0
  0
LINE
  5
67B4
  8
0
 10
370.75
 20
381.0
 30
0.0
 11
370.75
 21
398.0
 31
0.0
  0
LINE
  5
67B5
  8
0
 10
371.75
 20
382.0
 30
0.0
 11
371.75
 21
397.0
 31
0.0
  0
LINE
  5
67B6
  8
0
 10
372.75
 20
381.0
 30
0.0
 11
372.75
 21
398.0
 31
0.0
  0
LINE
  5
67B7
  8
0
 10
373.75
 20
382.0
 30
0.0
 11
373.75
 21
397.0
 31
0.0
  0
LINE
  5
67B8
  8
0
 10
374.75
 20
381.0
 30
0.0
 11
374.75
 21
398.0
 31
0.0
  0
LINE
  5
67B9
  8
0
 10
375.75
 20
382.0
 30
0.0
 11
375.75
 21
397.0
 31
0.0
  0
LINE
  5
67BA
  8
0
 10
376.75
 20
381.0
 30
0.0
 11
376.75
 21
398.0
 31
0.0
  0
LINE
  5
67BB
  8
0
 10
377.75
 20
382.0
 30
0.0
 11
377.75
 21
397.0
 31
0.0
  0
LINE
  5
67BC
  8
0
 10
378.75
 20
381.0
 30
0.0
 11
378.75
 21
398.0
 31
0.0
  0
LINE
  5
67BD
  8
0
 10
239.75
 20
382.0
 30
0.0
 11
239.75
 21
397.0
 31
0.0
  0
LINE
  5
67BE
  8
0
 10
240.75
 20
381.0
 30
0.0
 11
240.75
 21
398.0
 31
0.0
  0
LINE
  5
67BF
  8
0
 10
100.75
 20
381.0
 30
0.0
 11
100.75
 21
398.0
 31
0.0
  0
LINE
  5
67C0
  8
0
 10
101.75
 20
382.0
 30
0.0
 11
101.75
 21
397.0
 31
0.0
  0
LINE
  5
67C1
  8
0
 10
102.75
 20
381.0
 30
0.0
 11
102.75
 21
398.0
 31
0.0
  0
LINE
  5
67C2
  8
0
 10
103.75
 20
382.0
 30
0.0
 11
103.75
 21
397.0
 31
0.0
  0
LINE
  5
67C3
  8
0
 10
104.75
 20
381.0
 30
0.0
 11
104.75
 21
398.0
 31
0.0
  0
LINE
  5
67C4
  8
0
 10
105.75
 20
382.0
 30
0.0
 11
105.75
 21
397.0
 31
0.0
  0
LINE
  5
67C5
  8
0
 10
268.87126537785588
 20
398.0
 30
0.0
 11
269.75
 21
397.0
 31
0.0
  0
LINE
  5
67C6
  8
0
 10
269.75
 20
397.0
 30
0.0
 11
270.62873462214429
 21
398.0
 31
0.0
  0
LINE
  5
67C7
  8
0
 10
270.87126537785588
 20
398.0
 30
0.0
 11
271.75
 21
397.0
 31
0.0
  0
LINE
  5
67C8
  8
0
 10
271.75
 20
397.0
 30
0.0
 11
272.62873462214429
 21
398.0
 31
0.0
  0
LINE
  5
67C9
  8
0
 10
272.87126537785588
 20
398.0
 30
0.0
 11
273.75
 21
397.0
 31
0.0
  0
LINE
  5
67CA
  8
0
 10
273.75
 20
397.0
 30
0.0
 11
274.62873462214429
 21
398.0
 31
0.0
  0
LINE
  5
67CB
  8
0
 10
108.75
 20
381.0
 30
0.0
 11
108.75
 21
398.0
 31
0.0
  0
LINE
  5
67CC
  8
0
 10
109.75
 20
381.99999999999989
 30
0.0
 11
108.87126537785591
 21
381.0
 31
0.0
  0
LINE
  5
67CD
  8
0
 10
109.75
 20
381.99999999999989
 30
0.0
 11
109.75
 21
397.0
 31
0.0
  0
LINE
  5
67CE
  8
0
 10
110.62873462214429
 20
381.0
 30
0.0
 11
109.75
 21
381.99999999999989
 31
0.0
  0
LINE
  5
67CF
  8
0
 10
110.75
 20
381.0
 30
0.0
 11
110.75
 21
398.0
 31
0.0
  0
LINE
  5
67D0
  8
0
 10
111.75
 20
382.0
 30
0.0
 11
110.87126537785591
 21
381.0
 31
0.0
  0
LINE
  5
67D1
  8
0
 10
111.75
 20
382.0
 30
0.0
 11
111.75
 21
397.0
 31
0.0
  0
LINE
  5
67D2
  8
0
 10
112.62873462214429
 20
381.0
 30
0.0
 11
111.75
 21
382.0
 31
0.0
  0
LINE
  5
67D3
  8
0
 10
112.75
 20
381.0
 30
0.0
 11
112.75
 21
398.0
 31
0.0
  0
LINE
  5
67D4
  8
0
 10
113.75
 20
381.99999999999989
 30
0.0
 11
112.87126537785591
 21
381.0
 31
0.0
  0
LINE
  5
67D5
  8
0
 10
113.75
 20
381.99999999999989
 30
0.0
 11
113.75
 21
397.0
 31
0.0
  0
LINE
  5
67D6
  8
0
 10
114.62873462214429
 20
381.0
 30
0.0
 11
113.75
 21
381.99999999999989
 31
0.0
  0
LINE
  5
67D7
  8
0
 10
114.75
 20
381.0
 30
0.0
 11
114.75
 21
398.0
 31
0.0
  0
LINE
  5
67D8
  8
0
 10
115.75
 20
382.0
 30
0.0
 11
114.87126537785591
 21
381.0
 31
0.0
  0
LINE
  5
67D9
  8
0
 10
115.75
 20
382.0
 30
0.0
 11
115.75
 21
397.0
 31
0.0
  0
LINE
  5
67DA
  8
0
 10
116.62873462214429
 20
381.0
 30
0.0
 11
115.75
 21
382.0
 31
0.0
  0
LINE
  5
67DB
  8
0
 10
116.75
 20
381.0
 30
0.0
 11
116.75
 21
398.0
 31
0.0
  0
LINE
  5
67DC
  8
0
 10
117.75
 20
382.0
 30
0.0
 11
116.87126537785591
 21
381.0
 31
0.0
  0
LINE
  5
67DD
  8
0
 10
117.75
 20
382.0
 30
0.0
 11
117.75
 21
397.0
 31
0.0
  0
LINE
  5
67DE
  8
0
 10
118.62873462214429
 20
381.0
 30
0.0
 11
117.75
 21
382.0
 31
0.0
  0
LINE
  5
67DF
  8
0
 10
118.75
 20
381.0
 30
0.0
 11
118.75
 21
398.0
 31
0.0
  0
LINE
  5
67E0
  8
0
 10
119.75
 20
382.0
 30
0.0
 11
119.75
 21
397.0
 31
0.0
  0
LINE
  5
67E1
  8
0
 10
120.75
 20
381.0
 30
0.0
 11
120.75
 21
398.0
 31
0.0
  0
LINE
  5
67E2
  8
0
 10
121.75
 20
382.0
 30
0.0
 11
121.75
 21
397.0
 31
0.0
  0
LINE
  5
67E3
  8
0
 10
300.87126537785588
 20
398.0
 30
0.0
 11
301.75
 21
397.0
 31
0.0
  0
LINE
  5
67E4
  8
0
 10
301.75
 20
397.0
 30
0.0
 11
302.62873462214429
 21
398.0
 31
0.0
  0
LINE
  5
67E5
  8
0
 10
122.75
 20
381.0
 30
0.0
 11
122.75
 21
398.0
 31
0.0
  0
LINE
  5
67E6
  8
0
 10
123.75
 20
382.0
 30
0.0
 11
123.75
 21
397.0
 31
0.0
  0
LINE
  5
67E7
  8
0
 10
304.87126537785588
 20
398.0
 30
0.0
 11
305.75
 21
397.0
 31
0.0
  0
LINE
  5
67E8
  8
0
 10
305.75
 20
397.0
 30
0.0
 11
306.62873462214429
 21
398.0
 31
0.0
  0
LINE
  5
67E9
  8
0
 10
306.87126537785588
 20
398.0
 30
0.0
 11
307.75
 21
397.0
 31
0.0
  0
LINE
  5
67EA
  8
0
 10
307.75
 20
397.0
 30
0.0
 11
308.62873462214429
 21
398.0
 31
0.0
  0
LINE
  5
67EB
  8
0
 10
125.75
 20
382.0
 30
0.0
 11
125.75
 21
397.0
 31
0.0
  0
LINE
  5
67EC
  8
0
 10
126.75
 20
381.0
 30
0.0
 11
126.75
 21
398.0
 31
0.0
  0
LINE
  5
67ED
  8
0
 10
127.75
 20
382.0
 30
0.0
 11
127.75
 21
397.0
 31
0.0
  0
LINE
  5
67EE
  8
0
 10
128.75
 20
381.0
 30
0.0
 11
128.75
 21
398.0
 31
0.0
  0
LINE
  5
67EF
  8
0
 10
129.75
 20
382.0
 30
0.0
 11
129.75
 21
397.0
 31
0.0
  0
LINE
  5
67F0
  8
0
 10
130.75
 20
381.0
 30
0.0
 11
130.75
 21
398.0
 31
0.0
  0
LINE
  5
67F1
  8
0
 10
131.75
 20
382.0
 30
0.0
 11
130.87126537785591
 21
381.0
 31
0.0
  0
LINE
  5
67F2
  8
0
 10
131.75
 20
382.0
 30
0.0
 11
131.75
 21
397.0
 31
0.0
  0
LINE
  5
67F3
  8
0
 10
132.62873462214429
 20
381.0
 30
0.0
 11
131.75
 21
382.0
 31
0.0
  0
LINE
  5
67F4
  8
0
 10
132.75
 20
381.0
 30
0.0
 11
132.75
 21
398.0
 31
0.0
  0
LINE
  5
67F5
  8
0
 10
133.75
 20
382.0
 30
0.0
 11
132.87126537785591
 21
381.0
 31
0.0
  0
LINE
  5
67F6
  8
0
 10
133.75
 20
382.0
 30
0.0
 11
133.75
 21
397.0
 31
0.0
  0
LINE
  5
67F7
  8
0
 10
134.62873462214429
 20
381.0
 30
0.0
 11
133.75
 21
382.0
 31
0.0
  0
LINE
  5
67F8
  8
0
 10
134.75
 20
381.0
 30
0.0
 11
134.75
 21
398.0
 31
0.0
  0
LINE
  5
67F9
  8
0
 10
135.75
 20
382.0
 30
0.0
 11
134.87126537785591
 21
381.0
 31
0.0
  0
LINE
  5
67FA
  8
0
 10
135.75
 20
382.0
 30
0.0
 11
135.75
 21
397.0
 31
0.0
  0
LINE
  5
67FB
  8
0
 10
136.62873462214429
 20
381.0
 30
0.0
 11
135.75
 21
382.0
 31
0.0
  0
LINE
  5
67FC
  8
0
 10
136.75
 20
381.0
 30
0.0
 11
136.75
 21
398.0
 31
0.0
  0
LINE
  5
67FD
  8
0
 10
330.87126537785599
 20
398.0
 30
0.0
 11
331.75
 21
397.0
 31
0.0
  0
LINE
  5
67FE
  8
0
 10
331.75
 20
397.0
 30
0.0
 11
332.62873462214429
 21
398.0
 31
0.0
  0
LINE
  5
67FF
  8
0
 10
332.87126537785599
 20
398.0
 30
0.0
 11
333.75
 21
397.0
 31
0.0
  0
LINE
  5
6800
  8
0
 10
333.75
 20
397.0
 30
0.0
 11
334.62873462214429
 21
398.0
 31
0.0
  0
LINE
  5
6801
  8
0
 10
334.87126537785588
 20
398.0
 30
0.0
 11
335.75
 21
397.0
 31
0.0
  0
LINE
  5
6802
  8
0
 10
335.75
 20
397.0
 30
0.0
 11
336.62873462214429
 21
398.0
 31
0.0
  0
LINE
  5
6803
  8
0
 10
336.87126537785588
 20
398.0
 30
0.0
 11
337.75
 21
397.0
 31
0.0
  0
LINE
  5
6804
  8
0
 10
337.75
 20
397.0
 30
0.0
 11
338.62873462214429
 21
398.0
 31
0.0
  0
LINE
  5
6805
  8
0
 10
140.75
 20
381.0
 30
0.0
 11
140.75
 21
398.0
 31
0.0
  0
LINE
  5
6806
  8
0
 10
141.75
 20
382.0
 30
0.0
 11
140.87126537785591
 21
381.0
 31
0.0
  0
LINE
  5
6807
  8
0
 10
141.75
 20
382.0
 30
0.0
 11
141.75
 21
397.0
 31
0.0
  0
LINE
  5
6808
  8
0
 10
142.62873462214429
 20
381.0
 30
0.0
 11
141.75
 21
382.0
 31
0.0
  0
LINE
  5
6809
  8
0
 10
142.75
 20
381.0
 30
0.0
 11
142.75
 21
398.0
 31
0.0
  0
LINE
  5
680A
  8
0
 10
143.75
 20
382.0
 30
0.0
 11
143.75
 21
397.0
 31
0.0
  0
LINE
  5
680B
  8
0
 10
144.75
 20
381.0
 30
0.0
 11
144.75
 21
398.0
 31
0.0
  0
LINE
  5
680C
  8
0
 10
145.75
 20
382.0
 30
0.0
 11
144.87126537785591
 21
381.0
 31
0.0
  0
LINE
  5
680D
  8
0
 10
145.75
 20
382.0
 30
0.0
 11
145.75
 21
397.0
 31
0.0
  0
LINE
  5
680E
  8
0
 10
146.62873462214429
 20
381.0
 30
0.0
 11
145.75
 21
382.0
 31
0.0
  0
LINE
  5
680F
  8
0
 10
146.75
 20
381.0
 30
0.0
 11
146.75
 21
398.0
 31
0.0
  0
LINE
  5
6810
  8
0
 10
147.75
 20
382.0
 30
0.0
 11
147.75
 21
397.0
 31
0.0
  0
LINE
  5
6811
  8
0
 10
148.75
 20
381.0
 30
0.0
 11
148.75
 21
398.0
 31
0.0
  0
LINE
  5
6812
  8
0
 10
149.75
 20
382.0
 30
0.0
 11
149.75
 21
397.0
 31
0.0
  0
LINE
  5
6813
  8
0
 10
150.75
 20
381.0
 30
0.0
 11
150.75
 21
398.0
 31
0.0
  0
LINE
  5
6814
  8
0
 10
151.75
 20
382.0
 30
0.0
 11
150.87126537785591
 21
381.0
 31
0.0
  0
LINE
  5
6815
  8
0
 10
151.75
 20
382.0
 30
0.0
 11
151.75
 21
397.0
 31
0.0
  0
LINE
  5
6816
  8
0
 10
152.62873462214429
 20
381.0
 30
0.0
 11
151.75
 21
382.0
 31
0.0
  0
LINE
  5
6817
  8
0
 10
152.75
 20
381.0
 30
0.0
 11
152.75
 21
398.0
 31
0.0
  0
LINE
  5
6818
  8
0
 10
153.75
 20
382.0
 30
0.0
 11
153.75
 21
397.0
 31
0.0
  0
LINE
  5
6819
  8
0
 10
154.75
 20
381.0
 30
0.0
 11
154.75
 21
398.0
 31
0.0
  0
LINE
  5
681A
  8
0
 10
155.75
 20
382.0
 30
0.0
 11
155.75
 21
397.0
 31
0.0
  0
LINE
  5
681B
  8
0
 10
156.75
 20
381.0
 30
0.0
 11
156.75
 21
398.0
 31
0.0
  0
LINE
  5
681C
  8
0
 10
157.75
 20
382.0
 30
0.0
 11
157.75
 21
397.0
 31
0.0
  0
LINE
  5
681D
  8
0
 10
158.75
 20
381.0
 30
0.0
 11
158.75
 21
398.0
 31
0.0
  0
LINE
  5
681E
  8
0
 10
374.87126537785622
 20
398.0
 30
0.0
 11
375.75
 21
397.0
 31
0.0
  0
LINE
  5
681F
  8
0
 10
375.75
 20
397.0
 30
0.0
 11
376.62873462214429
 21
398.0
 31
0.0
  0
LINE
  5
6820
  8
0
 10
376.87126537785622
 20
398.0
 30
0.0
 11
377.75
 21
397.0
 31
0.0
  0
LINE
  5
6821
  8
0
 10
377.75
 20
397.0
 30
0.0
 11
378.62873462214429
 21
398.0
 31
0.0
  0
LINE
  5
6822
  8
0
 10
102.62873462214429
 20
381.0
 30
0.0
 11
101.75
 21
382.0
 31
0.0
  0
LINE
  5
6823
  8
0
 10
101.75
 20
382.0
 30
0.0
 11
100.87126537785591
 21
381.0
 31
0.0
  0
LINE
  5
6824
  8
0
 10
104.62873462214429
 20
381.0
 30
0.0
 11
103.75
 21
382.0
 31
0.0
  0
LINE
  5
6825
  8
0
 10
103.75
 20
382.0
 30
0.0
 11
102.87126537785591
 21
381.0
 31
0.0
  0
LINE
  5
6826
  8
0
 10
106.62873462214429
 20
381.0
 30
0.0
 11
105.75
 21
382.0
 31
0.0
  0
LINE
  5
6827
  8
0
 10
105.75
 20
382.0
 30
0.0
 11
104.87126537785591
 21
381.0
 31
0.0
  0
LINE
  5
6828
  8
0
 10
163.75
 20
382.0
 30
0.0
 11
163.75
 21
397.0
 31
0.0
  0
LINE
  5
6829
  8
0
 10
106.87126537785591
 20
398.0
 30
0.0
 11
107.75
 21
397.0
 31
0.0
  0
LINE
  5
682A
  8
0
 10
107.75
 20
397.0
 30
0.0
 11
108.62873462214429
 21
398.0
 31
0.0
  0
LINE
  5
682B
  8
0
 10
108.87126537785591
 20
398.0
 30
0.0
 11
109.75
 21
397.0
 31
0.0
  0
LINE
  5
682C
  8
0
 10
109.75
 20
397.0
 30
0.0
 11
110.62873462214429
 21
398.0
 31
0.0
  0
LINE
  5
682D
  8
0
 10
110.87126537785591
 20
398.0
 30
0.0
 11
111.75
 21
397.0
 31
0.0
  0
LINE
  5
682E
  8
0
 10
111.75
 20
397.0
 30
0.0
 11
112.62873462214429
 21
398.0
 31
0.0
  0
LINE
  5
682F
  8
0
 10
112.87126537785591
 20
398.0
 30
0.0
 11
113.75
 21
397.0
 31
0.0
  0
LINE
  5
6830
  8
0
 10
113.75
 20
397.0
 30
0.0
 11
114.62873462214429
 21
398.0
 31
0.0
  0
LINE
  5
6831
  8
0
 10
114.87126537785591
 20
398.0
 30
0.0
 11
115.75
 21
397.0
 31
0.0
  0
LINE
  5
6832
  8
0
 10
115.75
 20
397.0
 30
0.0
 11
116.62873462214429
 21
398.0
 31
0.0
  0
LINE
  5
6833
  8
0
 10
120.62873462214429
 20
381.0
 30
0.0
 11
119.75
 21
382.0
 31
0.0
  0
LINE
  5
6834
  8
0
 10
119.75
 20
382.0
 30
0.0
 11
118.8712653778561
 21
381.0
 31
0.0
  0
LINE
  5
6835
  8
0
 10
122.62873462214429
 20
381.0
 30
0.0
 11
121.75
 21
382.0
 31
0.0
  0
LINE
  5
6836
  8
0
 10
121.75
 20
382.0
 30
0.0
 11
120.87126537785591
 21
381.0
 31
0.0
  0
LINE
  5
6837
  8
0
 10
124.62873462214429
 20
381.0
 30
0.0
 11
123.75
 21
382.0
 31
0.0
  0
LINE
  5
6838
  8
0
 10
123.75
 20
382.0
 30
0.0
 11
122.87126537785591
 21
381.0
 31
0.0
  0
LINE
  5
6839
  8
0
 10
126.62873462214429
 20
381.0
 30
0.0
 11
125.75
 21
382.0
 31
0.0
  0
LINE
  5
683A
  8
0
 10
125.75
 20
382.0
 30
0.0
 11
124.8712653778561
 21
381.0
 31
0.0
  0
LINE
  5
683B
  8
0
 10
128.62873462214429
 20
381.0
 30
0.0
 11
127.75
 21
382.0
 31
0.0
  0
LINE
  5
683C
  8
0
 10
127.75
 20
382.0
 30
0.0
 11
126.8712653778561
 21
381.0
 31
0.0
  0
LINE
  5
683D
  8
0
 10
130.62873462214429
 20
381.0
 30
0.0
 11
129.75
 21
382.0
 31
0.0
  0
LINE
  5
683E
  8
0
 10
129.75
 20
382.0
 30
0.0
 11
128.87126537785591
 21
381.0
 31
0.0
  0
LINE
  5
683F
  8
0
 10
128.87126537785591
 20
398.0
 30
0.0
 11
129.75
 21
397.0
 31
0.0
  0
LINE
  5
6840
  8
0
 10
129.75
 20
397.0
 30
0.0
 11
130.62873462214429
 21
398.0
 31
0.0
  0
LINE
  5
6841
  8
0
 10
130.87126537785591
 20
398.0
 30
0.0
 11
131.75
 21
397.0
 31
0.0
  0
LINE
  5
6842
  8
0
 10
131.75
 20
397.0
 30
0.0
 11
132.62873462214429
 21
398.0
 31
0.0
  0
LINE
  5
6843
  8
0
 10
132.87126537785591
 20
398.0
 30
0.0
 11
133.75
 21
397.0
 31
0.0
  0
LINE
  5
6844
  8
0
 10
133.75
 20
397.0
 30
0.0
 11
134.62873462214429
 21
398.0
 31
0.0
  0
LINE
  5
6845
  8
0
 10
134.87126537785591
 20
398.0
 30
0.0
 11
135.75
 21
397.0
 31
0.0
  0
LINE
  5
6846
  8
0
 10
135.75
 20
397.0
 30
0.0
 11
136.62873462214429
 21
398.0
 31
0.0
  0
LINE
  5
6847
  8
0
 10
136.87126537785591
 20
398.0
 30
0.0
 11
137.75
 21
397.0
 31
0.0
  0
LINE
  5
6848
  8
0
 10
137.75
 20
397.0
 30
0.0
 11
138.62873462214429
 21
398.0
 31
0.0
  0
LINE
  5
6849
  8
0
 10
138.87126537785591
 20
398.0
 30
0.0
 11
139.75
 21
397.0
 31
0.0
  0
LINE
  5
684A
  8
0
 10
139.75
 20
397.0
 30
0.0
 11
140.62873462214429
 21
398.0
 31
0.0
  0
LINE
  5
684B
  8
0
 10
144.62873462214429
 20
381.0
 30
0.0
 11
143.75
 21
382.0
 31
0.0
  0
LINE
  5
684C
  8
0
 10
143.75
 20
382.0
 30
0.0
 11
142.87126537785591
 21
381.0
 31
0.0
  0
LINE
  5
684D
  8
0
 10
182.75
 20
381.0
 30
0.0
 11
182.75
 21
398.0
 31
0.0
  0
LINE
  5
684E
  8
0
 10
183.75
 20
382.0
 30
0.0
 11
183.75
 21
397.0
 31
0.0
  0
LINE
  5
684F
  8
0
 10
148.62873462214429
 20
381.0
 30
0.0
 11
147.75
 21
382.0
 31
0.0
  0
LINE
  5
6850
  8
0
 10
147.75
 20
382.0
 30
0.0
 11
146.87126537785591
 21
381.0
 31
0.0
  0
LINE
  5
6851
  8
0
 10
150.62873462214429
 20
381.0
 30
0.0
 11
149.75
 21
382.0
 31
0.0
  0
LINE
  5
6852
  8
0
 10
149.75
 20
382.0
 30
0.0
 11
148.87126537785591
 21
381.0
 31
0.0
  0
LINE
  5
6853
  8
0
 10
185.75
 20
382.0
 30
0.0
 11
185.75
 21
397.0
 31
0.0
  0
LINE
  5
6854
  8
0
 10
186.7500000000002
 20
381.0
 30
0.0
 11
186.7500000000002
 21
398.0
 31
0.0
  0
LINE
  5
6855
  8
0
 10
154.62873462214429
 20
381.0
 30
0.0
 11
153.75
 21
382.0
 31
0.0
  0
LINE
  5
6856
  8
0
 10
153.75
 20
382.0
 30
0.0
 11
152.87126537785591
 21
381.0
 31
0.0
  0
LINE
  5
6857
  8
0
 10
156.62873462214429
 20
381.0
 30
0.0
 11
155.75
 21
382.0
 31
0.0
  0
LINE
  5
6858
  8
0
 10
155.75
 20
382.0
 30
0.0
 11
154.87126537785591
 21
381.0
 31
0.0
  0
LINE
  5
6859
  8
0
 10
158.62873462214429
 20
381.0
 30
0.0
 11
157.75
 21
382.0
 31
0.0
  0
LINE
  5
685A
  8
0
 10
157.75
 20
382.0
 30
0.0
 11
156.87126537785591
 21
381.0
 31
0.0
  0
LINE
  5
685B
  8
0
 10
159.75
 20
382.0
 30
0.0
 11
158.87126537785591
 21
381.0
 31
0.0
  0
LINE
  5
685C
  8
0
 10
164.62873462214429
 20
381.0
 30
0.0
 11
163.75
 21
382.0
 31
0.0
  0
LINE
  5
685D
  8
0
 10
163.75
 20
382.0
 30
0.0
 11
162.87126537785591
 21
381.0
 31
0.0
  0
LINE
  5
685E
  8
0
 10
166.62873462214429
 20
381.0
 30
0.0
 11
165.75
 21
382.0
 31
0.0
  0
LINE
  5
685F
  8
0
 10
165.75
 20
382.0
 30
0.0
 11
164.87126537785591
 21
381.0
 31
0.0
  0
LINE
  5
6860
  8
0
 10
168.62873462214429
 20
381.0
 30
0.0
 11
167.75
 21
382.0
 31
0.0
  0
LINE
  5
6861
  8
0
 10
167.75
 20
382.0
 30
0.0
 11
166.87126537785591
 21
381.0
 31
0.0
  0
LINE
  5
6862
  8
0
 10
170.62873462214429
 20
381.0
 30
0.0
 11
169.75
 21
382.0
 31
0.0
  0
LINE
  5
6863
  8
0
 10
169.75
 20
382.0
 30
0.0
 11
168.87126537785591
 21
381.0
 31
0.0
  0
LINE
  5
6864
  8
0
 10
172.62873462214429
 20
381.0
 30
0.0
 11
171.75
 21
382.0
 31
0.0
  0
LINE
  5
6865
  8
0
 10
171.75
 20
382.0
 30
0.0
 11
170.87126537785591
 21
381.0
 31
0.0
  0
LINE
  5
6866
  8
0
 10
174.62873462214429
 20
381.0
 30
0.0
 11
173.75
 21
382.0
 31
0.0
  0
LINE
  5
6867
  8
0
 10
173.75
 20
382.0
 30
0.0
 11
172.87126537785591
 21
381.0
 31
0.0
  0
LINE
  5
6868
  8
0
 10
176.62873462214429
 20
381.0
 30
0.0
 11
175.75
 21
382.0
 31
0.0
  0
LINE
  5
6869
  8
0
 10
175.75
 20
382.0
 30
0.0
 11
174.87126537785591
 21
381.0
 31
0.0
  0
LINE
  5
686A
  8
0
 10
178.62873462214429
 20
381.0
 30
0.0
 11
177.75
 21
382.0
 31
0.0
  0
LINE
  5
686B
  8
0
 10
177.75
 20
382.0
 30
0.0
 11
176.87126537785591
 21
381.0
 31
0.0
  0
LINE
  5
686C
  8
0
 10
180.62873462214429
 20
381.0
 30
0.0
 11
179.75
 21
382.0
 31
0.0
  0
LINE
  5
686D
  8
0
 10
179.75
 20
382.0
 30
0.0
 11
178.87126537785591
 21
381.0
 31
0.0
  0
LINE
  5
686E
  8
0
 10
182.62873462214429
 20
381.0
 30
0.0
 11
181.75
 21
382.0
 31
0.0
  0
LINE
  5
686F
  8
0
 10
181.75
 20
382.0
 30
0.0
 11
180.87126537785591
 21
381.0
 31
0.0
  0
LINE
  5
6870
  8
0
 10
184.62873462214429
 20
381.0
 30
0.0
 11
183.75
 21
382.0
 31
0.0
  0
LINE
  5
6871
  8
0
 10
183.75
 20
382.0
 30
0.0
 11
182.87126537785591
 21
381.0
 31
0.0
  0
LINE
  5
6872
  8
0
 10
186.62873462214429
 20
381.0
 30
0.0
 11
185.75
 21
382.0
 31
0.0
  0
LINE
  5
6873
  8
0
 10
185.75
 20
382.0
 30
0.0
 11
184.87126537785591
 21
381.0
 31
0.0
  0
LINE
  5
6874
  8
0
 10
188.62873462214429
 20
381.0
 30
0.0
 11
187.75
 21
382.0
 31
0.0
  0
LINE
  5
6875
  8
0
 10
187.75
 20
382.0
 30
0.0
 11
186.87126537785591
 21
381.0
 31
0.0
  0
LINE
  5
6876
  8
0
 10
190.62873462214429
 20
381.0
 30
0.0
 11
189.75
 21
382.0
 31
0.0
  0
LINE
  5
6877
  8
0
 10
189.75
 20
382.0
 30
0.0
 11
188.87126537785591
 21
381.0
 31
0.0
  0
LINE
  5
6878
  8
0
 10
192.62873462214429
 20
381.0
 30
0.0
 11
191.75
 21
382.0
 31
0.0
  0
LINE
  5
6879
  8
0
 10
191.75
 20
382.0
 30
0.0
 11
190.87126537785591
 21
381.0
 31
0.0
  0
LINE
  5
687A
  8
0
 10
194.62873462214429
 20
381.0
 30
0.0
 11
193.75
 21
382.0
 31
0.0
  0
LINE
  5
687B
  8
0
 10
193.75
 20
382.0
 30
0.0
 11
192.87126537785591
 21
381.0
 31
0.0
  0
LINE
  5
687C
  8
0
 10
196.62873462214429
 20
381.0
 30
0.0
 11
195.75
 21
382.0
 31
0.0
  0
LINE
  5
687D
  8
0
 10
195.75
 20
382.0
 30
0.0
 11
194.87126537785591
 21
381.0
 31
0.0
  0
LINE
  5
687E
  8
0
 10
198.62873462214429
 20
381.0
 30
0.0
 11
197.75
 21
382.0
 31
0.0
  0
LINE
  5
687F
  8
0
 10
197.75
 20
382.0
 30
0.0
 11
196.87126537785591
 21
381.0
 31
0.0
  0
LINE
  5
6880
  8
0
 10
200.62873462214429
 20
381.0
 30
0.0
 11
199.75
 21
382.0
 31
0.0
  0
LINE
  5
6881
  8
0
 10
199.75
 20
382.0
 30
0.0
 11
198.87126537785591
 21
381.0
 31
0.0
  0
LINE
  5
6882
  8
0
 10
202.62873462214429
 20
381.0
 30
0.0
 11
201.75
 21
382.0
 31
0.0
  0
LINE
  5
6883
  8
0
 10
201.75
 20
382.0
 30
0.0
 11
200.87126537785591
 21
381.0
 31
0.0
  0
LINE
  5
6884
  8
0
 10
204.62873462214429
 20
381.0
 30
0.0
 11
203.75
 21
382.0
 31
0.0
  0
LINE
  5
6885
  8
0
 10
203.75
 20
382.0
 30
0.0
 11
202.87126537785591
 21
381.0
 31
0.0
  0
LINE
  5
6886
  8
0
 10
206.62873462214429
 20
381.0
 30
0.0
 11
205.75
 21
382.0
 31
0.0
  0
LINE
  5
6887
  8
0
 10
205.75
 20
382.0
 30
0.0
 11
204.87126537785591
 21
381.0
 31
0.0
  0
LINE
  5
6888
  8
0
 10
208.62873462214429
 20
381.0
 30
0.0
 11
207.75
 21
382.0
 31
0.0
  0
LINE
  5
6889
  8
0
 10
207.75
 20
382.0
 30
0.0
 11
206.87126537785591
 21
381.0
 31
0.0
  0
LINE
  5
688A
  8
0
 10
210.62873462214429
 20
381.0
 30
0.0
 11
209.75
 21
382.0
 31
0.0
  0
LINE
  5
688B
  8
0
 10
209.75
 20
382.0
 30
0.0
 11
208.87126537785591
 21
381.0
 31
0.0
  0
LINE
  5
688C
  8
0
 10
212.62873462214429
 20
381.0
 30
0.0
 11
211.75
 21
382.0
 31
0.0
  0
LINE
  5
688D
  8
0
 10
211.75
 20
382.0
 30
0.0
 11
210.87126537785591
 21
381.0
 31
0.0
  0
LINE
  5
688E
  8
0
 10
214.62873462214429
 20
381.0
 30
0.0
 11
213.75
 21
382.0
 31
0.0
  0
LINE
  5
688F
  8
0
 10
213.75
 20
382.0
 30
0.0
 11
212.87126537785591
 21
381.0
 31
0.0
  0
LINE
  5
6890
  8
0
 10
216.62873462214429
 20
381.0
 30
0.0
 11
215.75
 21
382.0
 31
0.0
  0
LINE
  5
6891
  8
0
 10
215.75
 20
382.0
 30
0.0
 11
214.87126537785591
 21
381.0
 31
0.0
  0
LINE
  5
6892
  8
0
 10
218.62873462214429
 20
381.0
 30
0.0
 11
217.75
 21
382.0
 31
0.0
  0
LINE
  5
6893
  8
0
 10
217.75
 20
382.0
 30
0.0
 11
216.87126537785591
 21
381.0
 31
0.0
  0
LINE
  5
6894
  8
0
 10
220.62873462214429
 20
381.0
 30
0.0
 11
219.75
 21
382.0
 31
0.0
  0
LINE
  5
6895
  8
0
 10
219.75
 20
382.0
 30
0.0
 11
218.87126537785591
 21
381.0
 31
0.0
  0
LINE
  5
6896
  8
0
 10
222.62873462214429
 20
381.0
 30
0.0
 11
221.75
 21
382.0
 31
0.0
  0
LINE
  5
6897
  8
0
 10
221.75
 20
382.0
 30
0.0
 11
220.87126537785591
 21
381.0
 31
0.0
  0
LINE
  5
6898
  8
0
 10
224.62873462214429
 20
381.0
 30
0.0
 11
223.75
 21
382.0
 31
0.0
  0
LINE
  5
6899
  8
0
 10
223.75
 20
382.0
 30
0.0
 11
222.87126537785591
 21
381.0
 31
0.0
  0
LINE
  5
689A
  8
0
 10
226.62873462214429
 20
381.0
 30
0.0
 11
225.75
 21
382.0
 31
0.0
  0
LINE
  5
689B
  8
0
 10
225.75
 20
382.0
 30
0.0
 11
224.87126537785599
 21
381.0
 31
0.0
  0
LINE
  5
689C
  8
0
 10
228.62873462214429
 20
381.0
 30
0.0
 11
227.75
 21
382.0
 31
0.0
  0
LINE
  5
689D
  8
0
 10
227.75
 20
382.0
 30
0.0
 11
226.87126537785599
 21
381.0
 31
0.0
  0
LINE
  5
689E
  8
0
 10
230.62873462214429
 20
381.0
 30
0.0
 11
229.75
 21
382.0
 31
0.0
  0
LINE
  5
689F
  8
0
 10
229.75
 20
382.0
 30
0.0
 11
228.87126537785599
 21
381.0
 31
0.0
  0
LINE
  5
68A0
  8
0
 10
232.62873462214429
 20
381.0
 30
0.0
 11
231.75
 21
382.0
 31
0.0
  0
LINE
  5
68A1
  8
0
 10
231.75
 20
382.0
 30
0.0
 11
230.87126537785599
 21
381.0
 31
0.0
  0
LINE
  5
68A2
  8
0
 10
234.62873462214429
 20
381.0
 30
0.0
 11
233.75
 21
382.0
 31
0.0
  0
LINE
  5
68A3
  8
0
 10
233.75
 20
382.0
 30
0.0
 11
232.87126537785591
 21
381.0
 31
0.0
  0
LINE
  5
68A4
  8
0
 10
236.62873462214429
 20
381.0
 30
0.0
 11
235.75
 21
382.0
 31
0.0
  0
LINE
  5
68A5
  8
0
 10
235.75
 20
382.0
 30
0.0
 11
234.87126537785591
 21
381.0
 31
0.0
  0
LINE
  5
68A6
  8
0
 10
238.62873462214429
 20
381.0
 30
0.0
 11
237.75
 21
382.0
 31
0.0
  0
LINE
  5
68A7
  8
0
 10
237.75
 20
382.0
 30
0.0
 11
236.87126537785591
 21
381.0
 31
0.0
  0
LINE
  5
68A8
  8
0
 10
240.62873462214429
 20
381.0
 30
0.0
 11
239.75
 21
382.0
 31
0.0
  0
LINE
  5
68A9
  8
0
 10
239.75
 20
382.0
 30
0.0
 11
238.87126537785591
 21
381.0
 31
0.0
  0
LINE
  5
68AA
  8
0
 10
242.62873462214429
 20
381.0
 30
0.0
 11
241.75
 21
382.0
 31
0.0
  0
LINE
  5
68AB
  8
0
 10
241.75
 20
382.0
 30
0.0
 11
240.87126537785591
 21
381.0
 31
0.0
  0
LINE
  5
68AC
  8
0
 10
244.62873462214429
 20
381.0
 30
0.0
 11
243.75
 21
382.0
 31
0.0
  0
LINE
  5
68AD
  8
0
 10
243.75
 20
382.0
 30
0.0
 11
242.87126537785591
 21
381.0
 31
0.0
  0
LINE
  5
68AE
  8
0
 10
246.62873462214429
 20
381.0
 30
0.0
 11
245.75
 21
382.0
 31
0.0
  0
LINE
  5
68AF
  8
0
 10
245.75
 20
382.0
 30
0.0
 11
244.87126537785591
 21
381.0
 31
0.0
  0
LINE
  5
68B0
  8
0
 10
248.62873462214429
 20
381.0
 30
0.0
 11
247.75
 21
382.0
 31
0.0
  0
LINE
  5
68B1
  8
0
 10
247.75
 20
382.0
 30
0.0
 11
246.87126537785591
 21
381.0
 31
0.0
  0
LINE
  5
68B2
  8
0
 10
250.62873462214429
 20
381.0
 30
0.0
 11
249.75
 21
382.0
 31
0.0
  0
LINE
  5
68B3
  8
0
 10
249.75
 20
382.0
 30
0.0
 11
248.87126537785591
 21
381.0
 31
0.0
  0
LINE
  5
68B4
  8
0
 10
252.62873462214429
 20
381.0
 30
0.0
 11
251.75
 21
382.0
 31
0.0
  0
LINE
  5
68B5
  8
0
 10
251.75
 20
382.0
 30
0.0
 11
250.87126537785591
 21
381.0
 31
0.0
  0
LINE
  5
68B6
  8
0
 10
254.62873462214429
 20
381.0
 30
0.0
 11
253.75
 21
382.0
 31
0.0
  0
LINE
  5
68B7
  8
0
 10
253.75
 20
382.0
 30
0.0
 11
252.87126537785591
 21
381.0
 31
0.0
  0
LINE
  5
68B8
  8
0
 10
256.62873462214429
 20
381.0
 30
0.0
 11
255.75
 21
382.0
 31
0.0
  0
LINE
  5
68B9
  8
0
 10
255.75
 20
382.0
 30
0.0
 11
254.87126537785591
 21
381.0
 31
0.0
  0
LINE
  5
68BA
  8
0
 10
258.62873462214429
 20
381.0
 30
0.0
 11
257.75
 21
382.0
 31
0.0
  0
LINE
  5
68BB
  8
0
 10
257.75
 20
382.0
 30
0.0
 11
256.87126537785588
 21
381.0
 31
0.0
  0
LINE
  5
68BC
  8
0
 10
260.62873462214429
 20
381.0
 30
0.0
 11
259.75
 21
382.0
 31
0.0
  0
LINE
  5
68BD
  8
0
 10
259.75
 20
382.0
 30
0.0
 11
258.87126537785588
 21
381.0
 31
0.0
  0
LINE
  5
68BE
  8
0
 10
262.62873462214429
 20
381.0
 30
0.0
 11
261.75
 21
382.0
 31
0.0
  0
LINE
  5
68BF
  8
0
 10
261.75
 20
382.0
 30
0.0
 11
260.87126537785588
 21
381.0
 31
0.0
  0
LINE
  5
68C0
  8
0
 10
264.62873462214429
 20
381.0
 30
0.0
 11
263.75
 21
382.0
 31
0.0
  0
LINE
  5
68C1
  8
0
 10
263.75
 20
382.0
 30
0.0
 11
262.87126537785588
 21
381.0
 31
0.0
  0
LINE
  5
68C2
  8
0
 10
266.62873462214429
 20
381.0
 30
0.0
 11
265.75
 21
382.0
 31
0.0
  0
LINE
  5
68C3
  8
0
 10
265.75
 20
382.0
 30
0.0
 11
264.87126537785588
 21
381.0
 31
0.0
  0
LINE
  5
68C4
  8
0
 10
268.62873462214429
 20
381.0
 30
0.0
 11
267.75
 21
382.0
 31
0.0
  0
LINE
  5
68C5
  8
0
 10
267.75
 20
382.0
 30
0.0
 11
266.87126537785588
 21
381.0
 31
0.0
  0
LINE
  5
68C6
  8
0
 10
270.62873462214429
 20
381.0
 30
0.0
 11
269.75
 21
382.0
 31
0.0
  0
LINE
  5
68C7
  8
0
 10
269.75
 20
382.0
 30
0.0
 11
268.87126537785588
 21
381.0
 31
0.0
  0
LINE
  5
68C8
  8
0
 10
272.62873462214429
 20
381.0
 30
0.0
 11
271.75
 21
382.0
 31
0.0
  0
LINE
  5
68C9
  8
0
 10
271.75
 20
382.0
 30
0.0
 11
270.87126537785588
 21
381.0
 31
0.0
  0
LINE
  5
68CA
  8
0
 10
274.62873462214429
 20
381.0
 30
0.0
 11
273.75
 21
382.0
 31
0.0
  0
LINE
  5
68CB
  8
0
 10
273.75
 20
382.0
 30
0.0
 11
272.87126537785588
 21
381.0
 31
0.0
  0
LINE
  5
68CC
  8
0
 10
276.62873462214429
 20
381.0
 30
0.0
 11
275.75
 21
382.0
 31
0.0
  0
LINE
  5
68CD
  8
0
 10
275.75
 20
382.0
 30
0.0
 11
274.87126537785599
 21
381.0
 31
0.0
  0
LINE
  5
68CE
  8
0
 10
278.62873462214429
 20
381.0
 30
0.0
 11
277.75
 21
382.0
 31
0.0
  0
LINE
  5
68CF
  8
0
 10
277.75
 20
382.0
 30
0.0
 11
276.87126537785599
 21
381.0
 31
0.0
  0
LINE
  5
68D0
  8
0
 10
280.62873462214429
 20
381.0
 30
0.0
 11
279.75
 21
382.0
 31
0.0
  0
LINE
  5
68D1
  8
0
 10
279.75
 20
382.0
 30
0.0
 11
278.87126537785599
 21
381.0
 31
0.0
  0
LINE
  5
68D2
  8
0
 10
282.62873462214429
 20
381.0
 30
0.0
 11
281.75
 21
382.0
 31
0.0
  0
LINE
  5
68D3
  8
0
 10
281.75
 20
382.0
 30
0.0
 11
280.87126537785599
 21
381.0
 31
0.0
  0
LINE
  5
68D4
  8
0
 10
284.62873462214429
 20
381.0
 30
0.0
 11
283.75
 21
382.0
 31
0.0
  0
LINE
  5
68D5
  8
0
 10
283.75
 20
382.0
 30
0.0
 11
282.87126537785588
 21
381.0
 31
0.0
  0
LINE
  5
68D6
  8
0
 10
286.62873462214429
 20
381.0
 30
0.0
 11
285.75
 21
382.0
 31
0.0
  0
LINE
  5
68D7
  8
0
 10
285.75
 20
382.0
 30
0.0
 11
284.87126537785588
 21
381.0
 31
0.0
  0
LINE
  5
68D8
  8
0
 10
288.62873462214429
 20
381.0
 30
0.0
 11
287.75
 21
382.0
 31
0.0
  0
LINE
  5
68D9
  8
0
 10
287.75
 20
382.0
 30
0.0
 11
286.87126537785588
 21
381.0
 31
0.0
  0
LINE
  5
68DA
  8
0
 10
290.62873462214429
 20
381.0
 30
0.0
 11
289.75
 21
382.0
 31
0.0
  0
LINE
  5
68DB
  8
0
 10
289.75
 20
382.0
 30
0.0
 11
288.87126537785588
 21
381.0
 31
0.0
  0
LINE
  5
68DC
  8
0
 10
292.62873462214429
 20
381.0
 30
0.0
 11
291.75
 21
382.0
 31
0.0
  0
LINE
  5
68DD
  8
0
 10
291.75
 20
382.0
 30
0.0
 11
290.87126537785588
 21
381.0
 31
0.0
  0
LINE
  5
68DE
  8
0
 10
294.62873462214429
 20
381.0
 30
0.0
 11
293.75
 21
382.0
 31
0.0
  0
LINE
  5
68DF
  8
0
 10
293.75
 20
382.0
 30
0.0
 11
292.87126537785588
 21
381.0
 31
0.0
  0
LINE
  5
68E0
  8
0
 10
296.62873462214429
 20
381.0
 30
0.0
 11
295.75
 21
382.0
 31
0.0
  0
LINE
  5
68E1
  8
0
 10
295.75
 20
382.0
 30
0.0
 11
294.87126537785588
 21
381.0
 31
0.0
  0
LINE
  5
68E2
  8
0
 10
298.62873462214429
 20
381.0
 30
0.0
 11
297.75
 21
382.0
 31
0.0
  0
LINE
  5
68E3
  8
0
 10
297.75
 20
382.0
 30
0.0
 11
296.87126537785588
 21
381.0
 31
0.0
  0
LINE
  5
68E4
  8
0
 10
299.75
 20
382.0
 30
0.0
 11
298.87126537785588
 21
381.0
 31
0.0
  0
LINE
  5
68E5
  8
0
 10
302.62873462214429
 20
381.0
 30
0.0
 11
301.75
 21
382.0
 31
0.0
  0
LINE
  5
68E6
  8
0
 10
301.75
 20
382.0
 30
0.0
 11
300.87126537785588
 21
381.0
 31
0.0
  0
LINE
  5
68E7
  8
0
 10
304.62873462214429
 20
381.0
 30
0.0
 11
303.75
 21
382.0
 31
0.0
  0
LINE
  5
68E8
  8
0
 10
303.75
 20
382.0
 30
0.0
 11
302.87126537785588
 21
381.0
 31
0.0
  0
LINE
  5
68E9
  8
0
 10
306.62873462214429
 20
381.0
 30
0.0
 11
305.75
 21
382.0
 31
0.0
  0
LINE
  5
68EA
  8
0
 10
305.75
 20
382.0
 30
0.0
 11
304.87126537785588
 21
381.0
 31
0.0
  0
LINE
  5
68EB
  8
0
 10
308.62873462214429
 20
381.0
 30
0.0
 11
307.75
 21
382.0
 31
0.0
  0
LINE
  5
68EC
  8
0
 10
307.75
 20
382.0
 30
0.0
 11
306.87126537785588
 21
381.0
 31
0.0
  0
LINE
  5
68ED
  8
0
 10
310.62873462214429
 20
381.0
 30
0.0
 11
309.75
 21
382.0
 31
0.0
  0
LINE
  5
68EE
  8
0
 10
309.75
 20
382.0
 30
0.0
 11
308.87126537785588
 21
381.0
 31
0.0
  0
LINE
  5
68EF
  8
0
 10
312.62873462214429
 20
381.0
 30
0.0
 11
311.75
 21
382.0
 31
0.0
  0
LINE
  5
68F0
  8
0
 10
311.75
 20
382.0
 30
0.0
 11
310.87126537785588
 21
381.0
 31
0.0
  0
LINE
  5
68F1
  8
0
 10
314.62873462214429
 20
381.0
 30
0.0
 11
313.75
 21
382.0
 31
0.0
  0
LINE
  5
68F2
  8
0
 10
313.75
 20
382.0
 30
0.0
 11
312.87126537785588
 21
381.0
 31
0.0
  0
LINE
  5
68F3
  8
0
 10
316.62873462214429
 20
381.0
 30
0.0
 11
315.75
 21
382.0
 31
0.0
  0
LINE
  5
68F4
  8
0
 10
315.75
 20
382.0
 30
0.0
 11
314.87126537785588
 21
381.0
 31
0.0
  0
LINE
  5
68F5
  8
0
 10
318.62873462214429
 20
381.0
 30
0.0
 11
317.75
 21
382.0
 31
0.0
  0
LINE
  5
68F6
  8
0
 10
317.75
 20
382.0
 30
0.0
 11
316.87126537785588
 21
381.0
 31
0.0
  0
LINE
  5
68F7
  8
0
 10
320.62873462214429
 20
381.0
 30
0.0
 11
319.75
 21
382.0
 31
0.0
  0
LINE
  5
68F8
  8
0
 10
319.75
 20
382.0
 30
0.0
 11
318.87126537785588
 21
381.0
 31
0.0
  0
LINE
  5
68F9
  8
0
 10
322.62873462214429
 20
381.0
 30
0.0
 11
321.75
 21
382.0
 31
0.0
  0
LINE
  5
68FA
  8
0
 10
321.75
 20
382.0
 30
0.0
 11
320.87126537785588
 21
381.0
 31
0.0
  0
LINE
  5
68FB
  8
0
 10
324.62873462214429
 20
381.0
 30
0.0
 11
323.75
 21
382.0
 31
0.0
  0
LINE
  5
68FC
  8
0
 10
323.75
 20
382.0
 30
0.0
 11
322.87126537785588
 21
381.0
 31
0.0
  0
LINE
  5
68FD
  8
0
 10
326.62873462214429
 20
381.0
 30
0.0
 11
325.75
 21
382.0
 31
0.0
  0
LINE
  5
68FE
  8
0
 10
325.75
 20
382.0
 30
0.0
 11
324.87126537785599
 21
381.0
 31
0.0
  0
LINE
  5
68FF
  8
0
 10
328.62873462214429
 20
381.0
 30
0.0
 11
327.75
 21
382.0
 31
0.0
  0
LINE
  5
6900
  8
0
 10
327.75
 20
382.0
 30
0.0
 11
326.87126537785599
 21
381.0
 31
0.0
  0
LINE
  5
6901
  8
0
 10
330.62873462214429
 20
381.0
 30
0.0
 11
329.75
 21
382.0
 31
0.0
  0
LINE
  5
6902
  8
0
 10
329.75
 20
382.0
 30
0.0
 11
328.87126537785599
 21
381.0
 31
0.0
  0
LINE
  5
6903
  8
0
 10
332.62873462214429
 20
381.0
 30
0.0
 11
331.75
 21
382.0
 31
0.0
  0
LINE
  5
6904
  8
0
 10
331.75
 20
382.0
 30
0.0
 11
330.87126537785599
 21
381.0
 31
0.0
  0
LINE
  5
6905
  8
0
 10
334.62873462214429
 20
381.0
 30
0.0
 11
333.75
 21
382.0
 31
0.0
  0
LINE
  5
6906
  8
0
 10
333.75
 20
382.0
 30
0.0
 11
332.87126537785599
 21
381.0
 31
0.0
  0
LINE
  5
6907
  8
0
 10
336.62873462214429
 20
381.0
 30
0.0
 11
335.75
 21
382.0
 31
0.0
  0
LINE
  5
6908
  8
0
 10
335.75
 20
382.0
 30
0.0
 11
334.87126537785588
 21
381.0
 31
0.0
  0
LINE
  5
6909
  8
0
 10
338.62873462214429
 20
381.0
 30
0.0
 11
337.75
 21
382.0
 31
0.0
  0
LINE
  5
690A
  8
0
 10
337.75
 20
382.0
 30
0.0
 11
336.87126537785588
 21
381.0
 31
0.0
  0
LINE
  5
690B
  8
0
 10
340.62873462214429
 20
381.0
 30
0.0
 11
339.75
 21
382.0
 31
0.0
  0
LINE
  5
690C
  8
0
 10
339.75
 20
382.0
 30
0.0
 11
338.87126537785588
 21
381.0
 31
0.0
  0
LINE
  5
690D
  8
0
 10
342.62873462214429
 20
381.0
 30
0.0
 11
341.75
 21
382.0
 31
0.0
  0
LINE
  5
690E
  8
0
 10
341.75
 20
382.0
 30
0.0
 11
340.87126537785588
 21
381.0
 31
0.0
  0
LINE
  5
690F
  8
0
 10
344.62873462214429
 20
381.0
 30
0.0
 11
343.75
 21
382.0
 31
0.0
  0
LINE
  5
6910
  8
0
 10
343.75
 20
382.0
 30
0.0
 11
342.87126537785588
 21
381.0
 31
0.0
  0
LINE
  5
6911
  8
0
 10
346.62873462214429
 20
381.0
 30
0.0
 11
345.75
 21
382.0
 31
0.0
  0
LINE
  5
6912
  8
0
 10
345.75
 20
382.0
 30
0.0
 11
344.87126537785588
 21
381.0
 31
0.0
  0
LINE
  5
6913
  8
0
 10
348.62873462214429
 20
381.0
 30
0.0
 11
347.75
 21
382.0
 31
0.0
  0
LINE
  5
6914
  8
0
 10
347.75
 20
382.0
 30
0.0
 11
346.87126537785588
 21
381.0
 31
0.0
  0
LINE
  5
6915
  8
0
 10
350.62873462214429
 20
381.0
 30
0.0
 11
349.75
 21
382.0
 31
0.0
  0
LINE
  5
6916
  8
0
 10
349.75
 20
382.0
 30
0.0
 11
348.87126537785588
 21
381.0
 31
0.0
  0
LINE
  5
6917
  8
0
 10
352.62873462214429
 20
381.0
 30
0.0
 11
351.75
 21
382.0
 31
0.0
  0
LINE
  5
6918
  8
0
 10
351.75
 20
382.0
 30
0.0
 11
350.87126537785588
 21
381.0
 31
0.0
  0
LINE
  5
6919
  8
0
 10
354.62873462214429
 20
381.0
 30
0.0
 11
353.75
 21
382.0
 31
0.0
  0
LINE
  5
691A
  8
0
 10
353.75
 20
382.0
 30
0.0
 11
352.87126537785588
 21
381.0
 31
0.0
  0
LINE
  5
691B
  8
0
 10
356.62873462214429
 20
381.0
 30
0.0
 11
355.75
 21
382.0
 31
0.0
  0
LINE
  5
691C
  8
0
 10
355.75
 20
382.0
 30
0.0
 11
354.87126537785588
 21
381.0
 31
0.0
  0
LINE
  5
691D
  8
0
 10
358.62873462214429
 20
381.0
 30
0.0
 11
357.75
 21
382.0
 31
0.0
  0
LINE
  5
691E
  8
0
 10
357.75
 20
382.0
 30
0.0
 11
356.87126537785622
 21
381.0
 31
0.0
  0
LINE
  5
691F
  8
0
 10
360.62873462214429
 20
381.0
 30
0.0
 11
359.75
 21
382.0
 31
0.0
  0
LINE
  5
6920
  8
0
 10
359.75
 20
382.0
 30
0.0
 11
358.87126537785622
 21
381.0
 31
0.0
  0
LINE
  5
6921
  8
0
 10
362.62873462214429
 20
381.0
 30
0.0
 11
361.75
 21
382.0
 31
0.0
  0
LINE
  5
6922
  8
0
 10
361.75
 20
382.0
 30
0.0
 11
360.87126537785622
 21
381.0
 31
0.0
  0
LINE
  5
6923
  8
0
 10
364.62873462214429
 20
381.0
 30
0.0
 11
363.75
 21
382.0
 31
0.0
  0
LINE
  5
6924
  8
0
 10
363.75
 20
382.0
 30
0.0
 11
362.87126537785622
 21
381.0
 31
0.0
  0
LINE
  5
6925
  8
0
 10
366.62873462214429
 20
381.0
 30
0.0
 11
365.75
 21
382.0
 31
0.0
  0
LINE
  5
6926
  8
0
 10
365.75
 20
382.0
 30
0.0
 11
364.87126537785622
 21
381.0
 31
0.0
  0
LINE
  5
6927
  8
0
 10
368.62873462214429
 20
381.0
 30
0.0
 11
367.75
 21
382.0
 31
0.0
  0
LINE
  5
6928
  8
0
 10
367.75
 20
382.0
 30
0.0
 11
366.87126537785622
 21
381.0
 31
0.0
  0
LINE
  5
6929
  8
0
 10
370.62873462214429
 20
381.0
 30
0.0
 11
369.75
 21
382.0
 31
0.0
  0
LINE
  5
692A
  8
0
 10
369.75
 20
382.0
 30
0.0
 11
368.87126537785622
 21
381.0
 31
0.0
  0
LINE
  5
692B
  8
0
 10
372.62873462214429
 20
381.0
 30
0.0
 11
371.75
 21
382.0
 31
0.0
  0
LINE
  5
692C
  8
0
 10
371.75
 20
382.0
 30
0.0
 11
370.87126537785622
 21
381.0
 31
0.0
  0
LINE
  5
692D
  8
0
 10
374.62873462214429
 20
381.0
 30
0.0
 11
373.75
 21
382.0
 31
0.0
  0
LINE
  5
692E
  8
0
 10
373.75
 20
382.0
 30
0.0
 11
372.87126537785622
 21
381.0
 31
0.0
  0
LINE
  5
692F
  8
0
 10
376.62873462214429
 20
381.0
 30
0.0
 11
375.75
 21
382.0
 31
0.0
  0
LINE
  5
6930
  8
0
 10
375.75
 20
382.0
 30
0.0
 11
374.87126537785622
 21
381.0
 31
0.0
  0
LINE
  5
6931
  8
0
 10
378.62873462214429
 20
381.0
 30
0.0
 11
377.75
 21
382.0
 31
0.0
  0
LINE
  5
6932
  8
0
 10
377.75
 20
382.0
 30
0.0
 11
376.87126537785599
 21
381.0
 31
0.0
  0
LINE
  5
6933
  8
0
 10
299.75
 20
382.0
 30
0.0
 11
299.75
 21
397.0
 31
0.0
  0
LINE
  5
6934
  8
0
 10
300.62873462214429
 20
381.0
 30
0.0
 11
299.75
 21
382.0
 31
0.0
  0
LINE
  5
6935
  8
0
 10
300.75
 20
381.0
 30
0.0
 11
300.75
 21
398.0
 31
0.0
  0
LINE
  5
6936
  8
0
 10
100.87126537785591
 20
398.0
 30
0.0
 11
101.75
 21
397.0
 31
0.0
  0
LINE
  5
6937
  8
0
 10
101.75
 20
397.0
 30
0.0
 11
102.62873462214429
 21
398.0
 31
0.0
  0
LINE
  5
6938
  8
0
 10
102.87126537785591
 20
398.0
 30
0.0
 11
103.75
 21
397.0
 31
0.0
  0
LINE
  5
6939
  8
0
 10
103.75
 20
397.0
 30
0.0
 11
104.62873462214429
 21
398.0
 31
0.0
  0
LINE
  5
693A
  8
0
 10
104.87126537785591
 20
398.0
 30
0.0
 11
105.75
 21
397.0
 31
0.0
  0
LINE
  5
693B
  8
0
 10
105.75
 20
397.0
 30
0.0
 11
106.62873462214429
 21
398.0
 31
0.0
  0
LINE
  5
693C
  8
0
 10
244.87126537785591
 20
398.0
 30
0.0
 11
245.75
 21
397.0
 31
0.0
  0
LINE
  5
693D
  8
0
 10
245.75
 20
397.0
 30
0.0
 11
246.62873462214429
 21
398.0
 31
0.0
  0
LINE
  5
693E
  8
0
 10
246.87126537785591
 20
398.0
 30
0.0
 11
247.75
 21
397.0
 31
0.0
  0
LINE
  5
693F
  8
0
 10
247.75
 20
397.0
 30
0.0
 11
248.62873462214429
 21
398.0
 31
0.0
  0
LINE
  5
6940
  8
0
 10
248.87126537785591
 20
398.0
 30
0.0
 11
249.75
 21
397.0
 31
0.0
  0
LINE
  5
6941
  8
0
 10
249.75
 20
397.0
 30
0.0
 11
250.62873462214429
 21
398.0
 31
0.0
  0
LINE
  5
6942
  8
0
 10
250.87126537785591
 20
398.0
 30
0.0
 11
251.75
 21
397.0
 31
0.0
  0
LINE
  5
6943
  8
0
 10
251.75
 20
397.0
 30
0.0
 11
252.62873462214429
 21
398.0
 31
0.0
  0
LINE
  5
6944
  8
0
 10
252.87126537785591
 20
398.0
 30
0.0
 11
253.75
 21
397.0
 31
0.0
  0
LINE
  5
6945
  8
0
 10
253.75
 20
397.0
 30
0.0
 11
254.62873462214429
 21
398.0
 31
0.0
  0
LINE
  5
6946
  8
0
 10
116.87126537785591
 20
398.0
 30
0.0
 11
117.75
 21
397.0
 31
0.0
  0
LINE
  5
6947
  8
0
 10
117.75
 20
397.0
 30
0.0
 11
118.62873462214429
 21
398.0
 31
0.0
  0
LINE
  5
6948
  8
0
 10
118.87126537785591
 20
398.0
 30
0.0
 11
119.75
 21
397.0
 31
0.0
  0
LINE
  5
6949
  8
0
 10
119.75
 20
397.0
 30
0.0
 11
120.62873462214429
 21
398.0
 31
0.0
  0
LINE
  5
694A
  8
0
 10
120.87126537785591
 20
398.0
 30
0.0
 11
121.75
 21
397.0
 31
0.0
  0
LINE
  5
694B
  8
0
 10
121.75
 20
397.0
 30
0.0
 11
122.62873462214429
 21
398.0
 31
0.0
  0
LINE
  5
694C
  8
0
 10
122.87126537785591
 20
398.0
 30
0.0
 11
123.75
 21
397.0
 31
0.0
  0
LINE
  5
694D
  8
0
 10
123.75
 20
397.0
 30
0.0
 11
124.62873462214429
 21
398.0
 31
0.0
  0
LINE
  5
694E
  8
0
 10
124.87126537785591
 20
398.0
 30
0.0
 11
125.75
 21
397.0
 31
0.0
  0
LINE
  5
694F
  8
0
 10
125.75
 20
397.0
 30
0.0
 11
126.62873462214429
 21
398.0
 31
0.0
  0
LINE
  5
6950
  8
0
 10
126.87126537785591
 20
398.0
 30
0.0
 11
127.75
 21
397.0
 31
0.0
  0
LINE
  5
6951
  8
0
 10
127.75
 20
397.0
 30
0.0
 11
128.62873462214429
 21
398.0
 31
0.0
  0
LINE
  5
6952
  8
0
 10
266.87126537785588
 20
398.0
 30
0.0
 11
267.75
 21
397.0
 31
0.0
  0
LINE
  5
6953
  8
0
 10
267.75
 20
397.0
 30
0.0
 11
268.62873462214429
 21
398.0
 31
0.0
  0
LINE
  5
6954
  8
0
 10
198.87126537785591
 20
398.0
 30
0.0
 11
199.75
 21
397.0
 31
0.0
  0
LINE
  5
6955
  8
0
 10
199.75
 20
397.0
 30
0.0
 11
200.62873462214429
 21
398.0
 31
0.0
  0
LINE
  5
6956
  8
0
 10
200.87126537785591
 20
398.0
 30
0.0
 11
201.75
 21
397.0
 31
0.0
  0
LINE
  5
6957
  8
0
 10
201.75
 20
397.0
 30
0.0
 11
202.62873462214429
 21
398.0
 31
0.0
  0
LINE
  5
6958
  8
0
 10
202.87126537785591
 20
398.0
 30
0.0
 11
203.75
 21
397.0
 31
0.0
  0
LINE
  5
6959
  8
0
 10
203.75
 20
397.0
 30
0.0
 11
204.62873462214429
 21
398.0
 31
0.0
  0
LINE
  5
695A
  8
0
 10
274.87126537785599
 20
398.0
 30
0.0
 11
275.75
 21
397.0
 31
0.0
  0
LINE
  5
695B
  8
0
 10
275.75
 20
397.0
 30
0.0
 11
276.62873462214429
 21
398.0
 31
0.0
  0
LINE
  5
695C
  8
0
 10
276.87126537785599
 20
398.0
 30
0.0
 11
277.75
 21
397.0
 31
0.0
  0
LINE
  5
695D
  8
0
 10
277.75
 20
397.0
 30
0.0
 11
278.62873462214429
 21
398.0
 31
0.0
  0
LINE
  5
695E
  8
0
 10
140.87126537785591
 20
398.0
 30
0.0
 11
141.75
 21
397.0
 31
0.0
  0
LINE
  5
695F
  8
0
 10
141.75
 20
397.0
 30
0.0
 11
142.62873462214429
 21
398.0
 31
0.0
  0
LINE
  5
6960
  8
0
 10
142.87126537785591
 20
398.0
 30
0.0
 11
143.75
 21
397.0
 31
0.0
  0
LINE
  5
6961
  8
0
 10
143.75
 20
397.0
 30
0.0
 11
144.62873462214429
 21
398.0
 31
0.0
  0
LINE
  5
6962
  8
0
 10
144.87126537785591
 20
398.0
 30
0.0
 11
145.75
 21
397.0
 31
0.0
  0
LINE
  5
6963
  8
0
 10
145.75
 20
397.0
 30
0.0
 11
146.62873462214429
 21
398.0
 31
0.0
  0
LINE
  5
6964
  8
0
 10
146.87126537785591
 20
398.0
 30
0.0
 11
147.75
 21
397.0
 31
0.0
  0
LINE
  5
6965
  8
0
 10
147.75
 20
397.0
 30
0.0
 11
148.62873462214429
 21
398.0
 31
0.0
  0
LINE
  5
6966
  8
0
 10
148.87126537785591
 20
398.0
 30
0.0
 11
149.75
 21
397.0
 31
0.0
  0
LINE
  5
6967
  8
0
 10
149.75
 20
397.0
 30
0.0
 11
150.62873462214429
 21
398.0
 31
0.0
  0
LINE
  5
6968
  8
0
 10
150.87126537785591
 20
398.0
 30
0.0
 11
151.75
 21
397.0
 31
0.0
  0
LINE
  5
6969
  8
0
 10
151.75
 20
397.0
 30
0.0
 11
152.62873462214429
 21
398.0
 31
0.0
  0
LINE
  5
696A
  8
0
 10
152.87126537785591
 20
398.0
 30
0.0
 11
153.75
 21
397.0
 31
0.0
  0
LINE
  5
696B
  8
0
 10
153.75
 20
397.0
 30
0.0
 11
154.62873462214429
 21
398.0
 31
0.0
  0
LINE
  5
696C
  8
0
 10
154.87126537785591
 20
398.0
 30
0.0
 11
155.75
 21
397.0
 31
0.0
  0
LINE
  5
696D
  8
0
 10
155.75
 20
397.0
 30
0.0
 11
156.62873462214429
 21
398.0
 31
0.0
  0
LINE
  5
696E
  8
0
 10
156.87126537785591
 20
398.0
 30
0.0
 11
157.75
 21
397.0
 31
0.0
  0
LINE
  5
696F
  8
0
 10
157.75
 20
397.0
 30
0.0
 11
158.62873462214429
 21
398.0
 31
0.0
  0
LINE
  5
6970
  8
0
 10
158.87126537785591
 20
398.0
 30
0.0
 11
159.75
 21
397.0
 31
0.0
  0
LINE
  5
6971
  8
0
 10
162.87126537785591
 20
398.0
 30
0.0
 11
163.75
 21
397.0
 31
0.0
  0
LINE
  5
6972
  8
0
 10
163.75
 20
397.0
 30
0.0
 11
164.62873462214429
 21
398.0
 31
0.0
  0
LINE
  5
6973
  8
0
 10
164.87126537785591
 20
398.0
 30
0.0
 11
165.75
 21
397.0
 31
0.0
  0
LINE
  5
6974
  8
0
 10
165.75
 20
397.0
 30
0.0
 11
166.62873462214429
 21
398.0
 31
0.0
  0
LINE
  5
6975
  8
0
 10
166.87126537785591
 20
398.0
 30
0.0
 11
167.75
 21
397.0
 31
0.0
  0
LINE
  5
6976
  8
0
 10
167.75
 20
397.0
 30
0.0
 11
168.62873462214429
 21
398.0
 31
0.0
  0
LINE
  5
6977
  8
0
 10
168.87126537785591
 20
398.0
 30
0.0
 11
169.75
 21
397.0
 31
0.0
  0
LINE
  5
6978
  8
0
 10
169.75
 20
397.0
 30
0.0
 11
170.62873462214429
 21
398.0
 31
0.0
  0
LINE
  5
6979
  8
0
 10
170.87126537785591
 20
398.0
 30
0.0
 11
171.75
 21
397.0
 31
0.0
  0
LINE
  5
697A
  8
0
 10
171.75
 20
397.0
 30
0.0
 11
172.62873462214429
 21
398.0
 31
0.0
  0
LINE
  5
697B
  8
0
 10
172.87126537785591
 20
398.0
 30
0.0
 11
173.75
 21
397.0
 31
0.0
  0
LINE
  5
697C
  8
0
 10
173.75
 20
397.0
 30
0.0
 11
174.62873462214429
 21
398.0
 31
0.0
  0
LINE
  5
697D
  8
0
 10
174.87126537785591
 20
398.0
 30
0.0
 11
175.75
 21
397.0
 31
0.0
  0
LINE
  5
697E
  8
0
 10
175.75
 20
397.0
 30
0.0
 11
176.62873462214429
 21
398.0
 31
0.0
  0
LINE
  5
697F
  8
0
 10
176.87126537785591
 20
398.0
 30
0.0
 11
177.75
 21
397.0
 31
0.0
  0
LINE
  5
6980
  8
0
 10
177.75
 20
397.0
 30
0.0
 11
178.62873462214429
 21
398.0
 31
0.0
  0
LINE
  5
6981
  8
0
 10
178.87126537785591
 20
398.0
 30
0.0
 11
179.75
 21
397.0
 31
0.0
  0
LINE
  5
6982
  8
0
 10
179.75
 20
397.0
 30
0.0
 11
180.62873462214429
 21
398.0
 31
0.0
  0
LINE
  5
6983
  8
0
 10
180.87126537785591
 20
398.0
 30
0.0
 11
181.75
 21
397.0
 31
0.0
  0
LINE
  5
6984
  8
0
 10
181.75
 20
397.0
 30
0.0
 11
182.62873462214429
 21
398.0
 31
0.0
  0
LINE
  5
6985
  8
0
 10
182.87126537785591
 20
398.0
 30
0.0
 11
183.75
 21
397.0
 31
0.0
  0
LINE
  5
6986
  8
0
 10
183.75
 20
397.0
 30
0.0
 11
184.62873462214429
 21
398.0
 31
0.0
  0
LINE
  5
6987
  8
0
 10
184.87126537785591
 20
398.0
 30
0.0
 11
185.75
 21
397.0
 31
0.0
  0
LINE
  5
6988
  8
0
 10
185.75
 20
397.0
 30
0.0
 11
186.62873462214429
 21
398.0
 31
0.0
  0
LINE
  5
6989
  8
0
 10
186.87126537785591
 20
398.0
 30
0.0
 11
187.7500000000002
 21
397.0
 31
0.0
  0
LINE
  5
698A
  8
0
 10
187.7500000000002
 20
397.0
 30
0.0
 11
188.62873462214429
 21
398.0
 31
0.0
  0
LINE
  5
698B
  8
0
 10
188.87126537785591
 20
398.0
 30
0.0
 11
189.75
 21
397.0
 31
0.0
  0
LINE
  5
698C
  8
0
 10
189.75
 20
397.0
 30
0.0
 11
190.62873462214429
 21
398.0
 31
0.0
  0
LINE
  5
698D
  8
0
 10
190.87126537785591
 20
398.0
 30
0.0
 11
191.75
 21
397.0
 31
0.0
  0
LINE
  5
698E
  8
0
 10
191.75
 20
397.0
 30
0.0
 11
192.62873462214429
 21
398.0
 31
0.0
  0
LINE
  5
698F
  8
0
 10
192.87126537785591
 20
398.0
 30
0.0
 11
193.75
 21
397.0
 31
0.0
  0
LINE
  5
6990
  8
0
 10
193.75
 20
397.0
 30
0.0
 11
194.62873462214429
 21
398.0
 31
0.0
  0
LINE
  5
6991
  8
0
 10
194.87126537785591
 20
398.0
 30
0.0
 11
195.75
 21
397.0
 31
0.0
  0
LINE
  5
6992
  8
0
 10
195.75
 20
397.0
 30
0.0
 11
196.62873462214429
 21
398.0
 31
0.0
  0
LINE
  5
6993
  8
0
 10
196.87126537785591
 20
398.0
 30
0.0
 11
197.75
 21
397.0
 31
0.0
  0
LINE
  5
6994
  8
0
 10
197.75
 20
397.0
 30
0.0
 11
198.62873462214429
 21
398.0
 31
0.0
  0
LINE
  5
6995
  8
0
 10
232.87126537785591
 20
398.0
 30
0.0
 11
233.75
 21
397.0
 31
0.0
  0
LINE
  5
6996
  8
0
 10
233.75
 20
397.0
 30
0.0
 11
234.62873462214429
 21
398.0
 31
0.0
  0
LINE
  5
6997
  8
0
 10
234.87126537785591
 20
398.0
 30
0.0
 11
235.75
 21
397.0
 31
0.0
  0
LINE
  5
6998
  8
0
 10
235.75
 20
397.0
 30
0.0
 11
236.62873462214429
 21
398.0
 31
0.0
  0
LINE
  5
6999
  8
0
 10
338.87126537785588
 20
398.0
 30
0.0
 11
339.75
 21
397.0
 31
0.0
  0
LINE
  5
699A
  8
0
 10
339.75
 20
397.0
 30
0.0
 11
340.62873462214429
 21
398.0
 31
0.0
  0
LINE
  5
699B
  8
0
 10
204.87126537785591
 20
398.0
 30
0.0
 11
205.75
 21
397.0
 31
0.0
  0
LINE
  5
699C
  8
0
 10
205.75
 20
397.0
 30
0.0
 11
206.62873462214429
 21
398.0
 31
0.0
  0
LINE
  5
699D
  8
0
 10
206.87126537785591
 20
398.0
 30
0.0
 11
207.75
 21
397.0
 31
0.0
  0
LINE
  5
699E
  8
0
 10
207.75
 20
397.0
 30
0.0
 11
208.62873462214429
 21
398.0
 31
0.0
  0
LINE
  5
699F
  8
0
 10
208.87126537785591
 20
398.0
 30
0.0
 11
209.75
 21
397.0
 31
0.0
  0
LINE
  5
69A0
  8
0
 10
209.75
 20
397.0
 30
0.0
 11
210.62873462214429
 21
398.0
 31
0.0
  0
LINE
  5
69A1
  8
0
 10
210.87126537785591
 20
398.0
 30
0.0
 11
211.75
 21
397.0
 31
0.0
  0
LINE
  5
69A2
  8
0
 10
211.75
 20
397.0
 30
0.0
 11
212.62873462214429
 21
398.0
 31
0.0
  0
LINE
  5
69A3
  8
0
 10
212.87126537785591
 20
398.0
 30
0.0
 11
213.75
 21
397.0
 31
0.0
  0
LINE
  5
69A4
  8
0
 10
213.75
 20
397.0
 30
0.0
 11
214.62873462214429
 21
398.0
 31
0.0
  0
LINE
  5
69A5
  8
0
 10
214.87126537785591
 20
398.0
 30
0.0
 11
215.75
 21
397.0
 31
0.0
  0
LINE
  5
69A6
  8
0
 10
215.75
 20
397.0
 30
0.0
 11
216.62873462214429
 21
398.0
 31
0.0
  0
LINE
  5
69A7
  8
0
 10
216.87126537785591
 20
398.0
 30
0.0
 11
217.75
 21
397.0
 31
0.0
  0
LINE
  5
69A8
  8
0
 10
217.75
 20
397.0
 30
0.0
 11
218.62873462214429
 21
398.0
 31
0.0
  0
LINE
  5
69A9
  8
0
 10
218.87126537785591
 20
398.0
 30
0.0
 11
219.75
 21
397.0
 31
0.0
  0
LINE
  5
69AA
  8
0
 10
219.75
 20
397.0
 30
0.0
 11
220.62873462214429
 21
398.0
 31
0.0
  0
LINE
  5
69AB
  8
0
 10
220.87126537785591
 20
398.0
 30
0.0
 11
221.75
 21
397.0
 31
0.0
  0
LINE
  5
69AC
  8
0
 10
221.75
 20
397.0
 30
0.0
 11
222.62873462214429
 21
398.0
 31
0.0
  0
LINE
  5
69AD
  8
0
 10
222.87126537785591
 20
398.0
 30
0.0
 11
223.75
 21
397.0
 31
0.0
  0
LINE
  5
69AE
  8
0
 10
223.75
 20
397.0
 30
0.0
 11
224.62873462214429
 21
398.0
 31
0.0
  0
LINE
  5
69AF
  8
0
 10
224.87126537785599
 20
398.0
 30
0.0
 11
225.75
 21
397.0
 31
0.0
  0
LINE
  5
69B0
  8
0
 10
225.75
 20
397.0
 30
0.0
 11
226.62873462214429
 21
398.0
 31
0.0
  0
LINE
  5
69B1
  8
0
 10
226.87126537785599
 20
398.0
 30
0.0
 11
227.75
 21
397.0
 31
0.0
  0
LINE
  5
69B2
  8
0
 10
227.75
 20
397.0
 30
0.0
 11
228.62873462214429
 21
398.0
 31
0.0
  0
LINE
  5
69B3
  8
0
 10
228.87126537785599
 20
398.0
 30
0.0
 11
229.75
 21
397.0
 31
0.0
  0
LINE
  5
69B4
  8
0
 10
229.75
 20
397.0
 30
0.0
 11
230.62873462214429
 21
398.0
 31
0.0
  0
LINE
  5
69B5
  8
0
 10
230.87126537785599
 20
398.0
 30
0.0
 11
231.75
 21
397.0
 31
0.0
  0
LINE
  5
69B6
  8
0
 10
231.75
 20
397.0
 30
0.0
 11
232.62873462214429
 21
398.0
 31
0.0
  0
LINE
  5
69B7
  8
0
 10
368.87126537785622
 20
398.0
 30
0.0
 11
369.75
 21
397.0
 31
0.0
  0
LINE
  5
69B8
  8
0
 10
369.75
 20
397.0
 30
0.0
 11
370.62873462214429
 21
398.0
 31
0.0
  0
LINE
  5
69B9
  8
0
 10
302.87126537785588
 20
398.0
 30
0.0
 11
303.75
 21
397.0
 31
0.0
  0
LINE
  5
69BA
  8
0
 10
303.75
 20
397.0
 30
0.0
 11
304.62873462214429
 21
398.0
 31
0.0
  0
LINE
  5
69BB
  8
0
 10
236.87126537785591
 20
398.0
 30
0.0
 11
237.75
 21
397.0
 31
0.0
  0
LINE
  5
69BC
  8
0
 10
237.75
 20
397.0
 30
0.0
 11
238.62873462214429
 21
398.0
 31
0.0
  0
LINE
  5
69BF
  8
0
 10
238.87126537785591
 20
398.0
 30
0.0
 11
239.75
 21
397.0
 31
0.0
  0
LINE
  5
69C0
  8
0
 10
239.75
 20
397.0
 30
0.0
 11
240.62873462214429
 21
398.0
 31
0.0
  0
LINE
  5
69C2
  8
0
 10
240.87126537785591
 20
398.0
 30
0.0
 11
241.75
 21
397.0
 31
0.0
  0
LINE
  5
69C3
  8
0
 10
241.75
 20
397.0
 30
0.0
 11
242.62873462214429
 21
398.0
 31
0.0
  0
LINE
  5
69C4
  8
0
 10
242.87126537785591
 20
398.0
 30
0.0
 11
243.75
 21
397.0
 31
0.0
  0
LINE
  5
69C5
  8
0
 10
243.75
 20
397.0
 30
0.0
 11
244.62873462214429
 21
398.0
 31
0.0
  0
LINE
  5
69C6
  8
0
 10
162.62873462214429
 20
381.0
 30
0.0
 11
161.75
 21
382.0
 31
0.0
  0
LINE
  5
69C7
  8
0
 10
162.75
 20
381.0
 30
0.0
 11
162.75
 21
398.0
 31
0.0
  0
LINE
  5
69C8
  8
0
 10
161.75
 20
397.0
 30
0.0
 11
162.62873462214429
 21
398.0
 31
0.0
  0
LINE
  5
69C9
  8
0
 10
314.87126537785588
 20
398.0
 30
0.0
 11
315.75
 21
397.0
 31
0.0
  0
LINE
  5
69CA
  8
0
 10
315.75
 20
397.0
 30
0.0
 11
316.62873462214429
 21
398.0
 31
0.0
  0
LINE
  5
69CB
  8
0
 10
316.87126537785588
 20
398.0
 30
0.0
 11
317.75
 21
397.0
 31
0.0
  0
LINE
  5
69CC
  8
0
 10
317.75
 20
397.0
 30
0.0
 11
318.62873462214429
 21
398.0
 31
0.0
  0
LINE
  5
69CD
  8
0
 10
318.87126537785588
 20
398.0
 30
0.0
 11
319.75
 21
397.0
 31
0.0
  0
LINE
  5
69CE
  8
0
 10
319.75
 20
397.0
 30
0.0
 11
320.62873462214429
 21
398.0
 31
0.0
  0
LINE
  5
69CF
  8
0
 10
320.87126537785588
 20
398.0
 30
0.0
 11
321.75
 21
397.0
 31
0.0
  0
LINE
  5
69D0
  8
0
 10
321.75
 20
397.0
 30
0.0
 11
322.62873462214429
 21
398.0
 31
0.0
  0
LINE
  5
69D1
  8
0
 10
254.87126537785591
 20
398.0
 30
0.0
 11
255.75
 21
397.0
 31
0.0
  0
LINE
  5
69D2
  8
0
 10
255.75
 20
397.0
 30
0.0
 11
256.62873462214429
 21
398.0
 31
0.0
  0
LINE
  5
69D3
  8
0
 10
256.87126537785588
 20
398.0
 30
0.0
 11
257.75
 21
397.0
 31
0.0
  0
LINE
  5
69D4
  8
0
 10
257.75
 20
397.0
 30
0.0
 11
258.62873462214429
 21
398.0
 31
0.0
  0
LINE
  5
69D5
  8
0
 10
258.87126537785588
 20
398.0
 30
0.0
 11
259.75
 21
397.0
 31
0.0
  0
LINE
  5
69D6
  8
0
 10
259.75
 20
397.0
 30
0.0
 11
260.62873462214429
 21
398.0
 31
0.0
  0
LINE
  5
69D7
  8
0
 10
260.87126537785588
 20
398.0
 30
0.0
 11
261.75
 21
397.0
 31
0.0
  0
LINE
  5
69D8
  8
0
 10
261.75
 20
397.0
 30
0.0
 11
262.62873462214429
 21
398.0
 31
0.0
  0
LINE
  5
69D9
  8
0
 10
262.87126537785588
 20
398.0
 30
0.0
 11
263.75
 21
397.0
 31
0.0
  0
LINE
  5
69DA
  8
0
 10
263.75
 20
397.0
 30
0.0
 11
264.62873462214429
 21
398.0
 31
0.0
  0
LINE
  5
69DB
  8
0
 10
264.87126537785588
 20
398.0
 30
0.0
 11
265.75
 21
397.0
 31
0.0
  0
LINE
  5
69DC
  8
0
 10
265.75
 20
397.0
 30
0.0
 11
266.62873462214429
 21
398.0
 31
0.0
  0
LINE
  5
69DD
  8
0
 10
282.87126537785588
 20
398.0
 30
0.0
 11
283.75
 21
397.0
 31
0.0
  0
LINE
  5
69DE
  8
0
 10
283.75
 20
397.0
 30
0.0
 11
284.62873462214429
 21
398.0
 31
0.0
  0
LINE
  5
69DF
  8
0
 10
370.87126537785622
 20
398.0
 30
0.0
 11
371.75
 21
397.0
 31
0.0
  0
LINE
  5
69E0
  8
0
 10
371.75
 20
397.0
 30
0.0
 11
372.62873462214429
 21
398.0
 31
0.0
  0
LINE
  5
69E1
  8
0
 10
372.87126537785622
 20
398.0
 30
0.0
 11
373.75
 21
397.0
 31
0.0
  0
LINE
  5
69E2
  8
0
 10
373.75
 20
397.0
 30
0.0
 11
374.62873462214429
 21
398.0
 31
0.0
  0
LINE
  5
69E3
  8
0
 10
340.87126537785588
 20
398.0
 30
0.0
 11
341.75
 21
397.0
 31
0.0
  0
LINE
  5
69E4
  8
0
 10
341.75
 20
397.0
 30
0.0
 11
342.62873462214429
 21
398.0
 31
0.0
  0
LINE
  5
69E5
  8
0
 10
342.87126537785588
 20
398.0
 30
0.0
 11
343.75
 21
397.0
 31
0.0
  0
LINE
  5
69E6
  8
0
 10
343.75
 20
397.0
 30
0.0
 11
344.62873462214429
 21
398.0
 31
0.0
  0
LINE
  5
69E7
  8
0
 10
344.87126537785588
 20
398.0
 30
0.0
 11
345.75
 21
397.0
 31
0.0
  0
LINE
  5
69E8
  8
0
 10
345.75
 20
397.0
 30
0.0
 11
346.62873462214429
 21
398.0
 31
0.0
  0
LINE
  5
69E9
  8
0
 10
278.87126537785599
 20
398.0
 30
0.0
 11
279.75
 21
397.0
 31
0.0
  0
LINE
  5
69EA
  8
0
 10
279.75
 20
397.0
 30
0.0
 11
280.62873462214429
 21
398.0
 31
0.0
  0
LINE
  5
69EB
  8
0
 10
280.87126537785599
 20
398.0
 30
0.0
 11
281.75
 21
397.0
 31
0.0
  0
LINE
  5
69EC
  8
0
 10
281.75
 20
397.0
 30
0.0
 11
282.62873462214429
 21
398.0
 31
0.0
  0
LINE
  5
69ED
  8
0
 10
298.87126537785588
 20
398.0
 30
0.0
 11
299.75
 21
397.0
 31
0.0
  0
LINE
  5
69EE
  8
0
 10
299.75
 20
397.0
 30
0.0
 11
300.62873462214429
 21
398.0
 31
0.0
  0
LINE
  5
69EF
  8
0
 10
284.87126537785588
 20
398.0
 30
0.0
 11
285.75
 21
397.0
 31
0.0
  0
LINE
  5
69F0
  8
0
 10
285.75
 20
397.0
 30
0.0
 11
286.62873462214429
 21
398.0
 31
0.0
  0
LINE
  5
69F1
  8
0
 10
286.87126537785588
 20
398.0
 30
0.0
 11
287.75
 21
397.0
 31
0.0
  0
LINE
  5
69F2
  8
0
 10
287.75
 20
397.0
 30
0.0
 11
288.62873462214429
 21
398.0
 31
0.0
  0
LINE
  5
69F3
  8
0
 10
288.87126537785588
 20
398.0
 30
0.0
 11
289.75
 21
397.0
 31
0.0
  0
LINE
  5
69F4
  8
0
 10
289.75
 20
397.0
 30
0.0
 11
290.62873462214429
 21
398.0
 31
0.0
  0
LINE
  5
69F5
  8
0
 10
290.87126537785588
 20
398.0
 30
0.0
 11
291.75
 21
397.0
 31
0.0
  0
LINE
  5
69F6
  8
0
 10
291.75
 20
397.0
 30
0.0
 11
292.62873462214429
 21
398.0
 31
0.0
  0
LINE
  5
69F7
  8
0
 10
292.87126537785588
 20
398.0
 30
0.0
 11
293.75
 21
397.0
 31
0.0
  0
LINE
  5
69F8
  8
0
 10
293.75
 20
397.0
 30
0.0
 11
294.62873462214429
 21
398.0
 31
0.0
  0
LINE
  5
69F9
  8
0
 10
294.87126537785588
 20
398.0
 30
0.0
 11
295.75
 21
397.0
 31
0.0
  0
LINE
  5
69FA
  8
0
 10
295.75
 20
397.0
 30
0.0
 11
296.62873462214429
 21
398.0
 31
0.0
  0
LINE
  5
69FB
  8
0
 10
296.87126537785588
 20
398.0
 30
0.0
 11
297.75
 21
397.0
 31
0.0
  0
LINE
  5
69FC
  8
0
 10
297.75
 20
397.0
 30
0.0
 11
298.62873462214429
 21
398.0
 31
0.0
  0
LINE
  5
69FD
  8
0
 10
348.87126537785588
 20
398.0
 30
0.0
 11
349.75
 21
397.0
 31
0.0
  0
LINE
  5
69FE
  8
0
 10
349.75
 20
397.0
 30
0.0
 11
350.62873462214429
 21
398.0
 31
0.0
  0
LINE
  5
69FF
  8
0
 10
350.87126537785588
 20
398.0
 30
0.0
 11
351.75
 21
397.0
 31
0.0
  0
LINE
  5
6A00
  8
0
 10
351.75
 20
397.0
 30
0.0
 11
352.62873462214429
 21
398.0
 31
0.0
  0
LINE
  5
6A01
  8
0
 10
352.87126537785588
 20
398.0
 30
0.0
 11
353.75
 21
397.0
 31
0.0
  0
LINE
  5
6A02
  8
0
 10
353.75
 20
397.0
 30
0.0
 11
354.62873462214429
 21
398.0
 31
0.0
  0
LINE
  5
6A03
  8
0
 10
354.87126537785588
 20
398.0
 30
0.0
 11
355.75
 21
397.0
 31
0.0
  0
LINE
  5
6A04
  8
0
 10
355.75
 20
397.0
 30
0.0
 11
356.62873462214429
 21
398.0
 31
0.0
  0
LINE
  5
6A05
  8
0
 10
322.87126537785588
 20
398.0
 30
0.0
 11
323.75
 21
397.0
 31
0.0
  0
LINE
  5
6A06
  8
0
 10
323.75
 20
397.0
 30
0.0
 11
324.62873462214429
 21
398.0
 31
0.0
  0
LINE
  5
6A07
  8
0
 10
308.87126537785588
 20
398.0
 30
0.0
 11
309.75
 21
397.0
 31
0.0
  0
LINE
  5
6A08
  8
0
 10
309.75
 20
397.0
 30
0.0
 11
310.62873462214429
 21
398.0
 31
0.0
  0
LINE
  5
6A09
  8
0
 10
310.87126537785588
 20
398.0
 30
0.0
 11
311.75
 21
397.0
 31
0.0
  0
LINE
  5
6A0A
  8
0
 10
311.75
 20
397.0
 30
0.0
 11
312.62873462214429
 21
398.0
 31
0.0
  0
LINE
  5
6A0B
  8
0
 10
312.87126537785588
 20
398.0
 30
0.0
 11
313.75
 21
397.0
 31
0.0
  0
LINE
  5
6A0C
  8
0
 10
313.75
 20
397.0
 30
0.0
 11
314.62873462214429
 21
398.0
 31
0.0
  0
LINE
  5
6A0D
  8
0
 10
364.87126537785622
 20
398.0
 30
0.0
 11
365.75
 21
397.0
 31
0.0
  0
LINE
  5
6A0E
  8
0
 10
365.75
 20
397.0
 30
0.0
 11
366.62873462214429
 21
398.0
 31
0.0
  0
LINE
  5
6A0F
  8
0
 10
366.87126537785622
 20
398.0
 30
0.0
 11
367.75
 21
397.0
 31
0.0
  0
LINE
  5
6A10
  8
0
 10
367.75
 20
397.0
 30
0.0
 11
368.62873462214429
 21
398.0
 31
0.0
  0
LINE
  5
6A11
  8
0
 10
326.87126537785599
 20
398.0
 30
0.0
 11
327.75
 21
397.0
 31
0.0
  0
LINE
  5
6A12
  8
0
 10
327.75
 20
397.0
 30
0.0
 11
328.62873462214429
 21
398.0
 31
0.0
  0
LINE
  5
6A13
  8
0
 10
328.87126537785599
 20
398.0
 30
0.0
 11
329.75
 21
397.0
 31
0.0
  0
LINE
  5
6A14
  8
0
 10
329.75
 20
397.0
 30
0.0
 11
330.62873462214429
 21
398.0
 31
0.0
  0
LINE
  5
6A15
  8
0
 10
346.87126537785588
 20
398.0
 30
0.0
 11
347.75
 21
397.0
 31
0.0
  0
LINE
  5
6A16
  8
0
 10
347.75
 20
397.0
 30
0.0
 11
348.62873462214429
 21
398.0
 31
0.0
  0
LINE
  5
6A17
  8
0
 10
324.87126537785599
 20
398.0
 30
0.0
 11
325.75
 21
397.0
 31
0.0
  0
LINE
  5
6A18
  8
0
 10
325.75
 20
397.0
 30
0.0
 11
326.62873462214429
 21
398.0
 31
0.0
  0
LINE
  5
6A19
  8
0
 10
358.87126537785622
 20
398.0
 30
0.0
 11
359.75
 21
397.0
 31
0.0
  0
LINE
  5
6A1A
  8
0
 10
359.75
 20
397.0
 30
0.0
 11
360.62873462214429
 21
398.0
 31
0.0
  0
LINE
  5
6A1B
  8
0
 10
159.75
 20
382.0
 30
0.0
 11
159.75
 21
397.0
 31
0.0
  0
LINE
  5
6A1C
  8
0
 10
160.62873462214429
 20
381.0
 30
0.0
 11
159.75
 21
382.0
 31
0.0
  0
LINE
  5
6A1D
  8
0
 10
379.5
 20
381.0
 30
0.0
 11
100.0
 21
381.0
 31
0.0
  0
LINE
  5
6A1E
  8
0
 10
379.5
 20
398.0
 30
0.0
 11
100.0
 21
398.0
 31
0.0
  0
LINE
  5
6A1F
  8
0
 10
159.75
 20
397.0
 30
0.0
 11
160.62873462214429
 21
398.0
 31
0.0
  0
LINE
  5
6A20
  8
0
 10
362.87126537785622
 20
398.0
 30
0.0
 11
363.75
 21
397.0
 31
0.0
  0
LINE
  5
6A21
  8
0
 10
363.75
 20
397.0
 30
0.0
 11
364.62873462214429
 21
398.0
 31
0.0
  0
LINE
  5
6A22
  8
0
 10
160.75
 20
381.0
 30
0.0
 11
160.75
 21
398.0
 31
0.0
  0
LINE
  5
6A23
  8
0
 10
161.75
 20
382.0
 30
0.0
 11
160.87126537785591
 21
381.0
 31
0.0
  0
LINE
  5
6A24
  8
0
 10
161.75
 20
382.0
 30
0.0
 11
161.75
 21
397.0
 31
0.0
  0
LINE
  5
6A25
  8
0
 10
160.87126537785591
 20
398.0
 30
0.0
 11
161.75
 21
397.0
 31
0.0
  0
LINE
  5
6A26
  8
0
 10
360.87126537785622
 20
398.0
 30
0.0
 11
361.75
 21
397.0
 31
0.0
  0
LINE
  5
6A27
  8
0
 10
361.75
 20
397.0
 30
0.0
 11
362.62873462214429
 21
398.0
 31
0.0
  0
LINE
  5
6A28
  8
0
 10
356.87126537785622
 20
398.0
 30
0.0
 11
357.75
 21
397.0
 31
0.0
  0
LINE
  5
6A29
  8
0
 10
357.75
 20
397.0
 30
0.0
 11
358.62873462214429
 21
398.0
 31
0.0
  0
LINE
  5
6A4E
  8
0
 10
379.5
 20
368.0
 30
0.0
 11
100.0
 21
368.0
 31
0.0
  0
LINE
  5
6A4F
  8
0
 10
379.5
 20
345.0
 30
0.0
 11
100.0
 21
345.0
 31
0.0
  0
LINE
  5
6A50
  8
0
 10
229.75
 20
351.30000000000001
 30
0.0
 11
229.7500000000002
 21
345.0
 31
0.0
  0
LINE
  5
6A51
  8
0
 10
379.5
 20
398.0
 30
0.0
 11
379.5
 21
345.0
 31
0.0
  0
LINE
  5
6A52
  8
0
 10
100.0
 20
398.0
 30
0.0
 11
100.0
 21
345.0
 31
0.0
  0
LINE
  5
6A53
  8
0
 10
229.75
 20
351.30000000000001
 30
0.0
 11
249.75
 21
351.30000000000001
 31
0.0
  0
LINE
  5
6A54
  8
0
 10
249.75
 20
351.30000000000001
 30
0.0
 11
249.75
 21
345.0
 31
0.0
  0
LINE
  5
6A55
  8
0
 10
379.5
 20
355.0
 30
0.0
 11
100.0
 21
355.0
 31
0.0
  0
LINE
  5
6A72
  8
1
 10
239.7499999999998
 20
408.0
 30
0.0
 11
239.75
 21
335.0
 31
0.0
  0
CIRCLE
  5
7482
  8
0
 10
239.75
 20
162.5
 30
0.0
 40
12.5
  0
CIRCLE
  5
7483
  8
0
 10
288.0
 20
114.5
 30
0.0
 40
8.0
  0
CIRCLE
  5
7484
  8
0
 10
192.0
 20
114.5
 30
0.0
 40
8.0
  0
CIRCLE
  5
7487
  8
0
 10
288.0
 20
210.5
 30
0.0
 40
8.0
  0
CIRCLE
  5
7488
  8
0
 10
192.0
 20
210.5
 30
0.0
 40
8.0
  0
LINE
  5
748B
  8
0
 10
229.75
 20
132.5
 30
0.0
 11
229.75
 21
100.0
 31
0.0
  0
LINE
  5
748C
  8
0
 10
249.75
 20
100.0
 30
0.0
 11
249.75
 21
132.5
 31
0.0
  0
LINE
  5
748D
  8
0
 10
100.0
 20
152.5
 30
0.0
 11
152.75
 21
152.5
 31
0.0
  0
ARC
  5
748E
  8
0
 10
239.75
 20
132.5
 30
0.0
 40
9.9999999999999734
 50
0.0
 51
180.0
  0
LINE
  5
748F
  8
0
 10
326.75
 20
152.5
 30
0.0
 11
379.5
 21
152.5
 31
0.0
  0
CIRCLE
  5
7490
  8
0
 10
239.75
 20
116.25
 30
0.0
 40
3.0000000000000031
  0
ARC
  5
7491
  8
0
 10
275.0
 20
162.5
 30
0.0
 40
6.0
 50
90.0
 51
270.0
  0
LINE
  5
7492
  8
0
 10
275.0
 20
168.5
 30
0.0
 11
318.75
 21
168.5
 31
0.0
  0
LINE
  5
7493
  8
0
 10
318.75
 20
156.5
 30
0.0
 11
275.0
 21
156.5
 31
0.0
  0
ARC
  5
7494
  8
0
 10
326.75
 20
162.4999999999998
 30
0.0
 40
9.9999999999998082
 50
216.86989764584661
 51
270.0
  0
LINE
  5
7495
  8
0
 10
379.5
 20
172.5
 30
0.0
 11
326.75
 21
172.5
 31
0.0
  0
LINE
  5
7497
  8
0
 10
152.75
 20
172.5
 30
0.0
 11
100.0
 21
172.5
 31
0.0
  0
ARC
  5
7498
  8
0
 10
152.75
 20
162.5
 30
0.0
 40
10.0
 50
270.0
 51
90.0
  0
ARC
  5
749A
  8
0
 10
326.75
 20
162.5000000000002
 30
0.0
 40
9.9999999999998206
 50
90.0
 51
143.13010235415331
  0
ARC
  5
749B
  8
0
 10
239.75
 20
192.5
 30
0.0
 40
10.0
 50
180.0
 51
0.0
  0
LINE
  5
749D
  8
0
 10
229.75
 20
225.0
 30
0.0
 11
229.75
 21
192.5
 31
0.0
  0
LINE
  5
749E
  8
0
 10
249.75
 20
192.5
 30
0.0
 11
249.75
 21
225.0
 31
0.0
  0
LINE
  5
749F
  8
0
 10
379.5
 20
100.0
 30
0.0
 11
100.0
 21
100.0
 31
0.0
  0
LINE
  5
74A0
  8
0
 10
379.5
 20
225.0
 30
0.0
 11
100.0
 21
225.0
 31
0.0
  0
CIRCLE
  5
74A1
  8
0
 10
178.0
 20
162.5
 30
0.0
 40
5.0000000000000044
  0
CIRCLE
  5
74A2
  8
0
 10
239.75
 20
162.5
 30
0.0
 40
5.052999999999999
  0
CIRCLE
  5
74A3
  8
0
 10
288.0
 20
114.5
 30
0.0
 40
4.1880000000000042
  0
CIRCLE
  5
74A4
  8
0
 10
192.0
 20
114.5
 30
0.0
 40
4.1880000000000042
  0
CIRCLE
  5
74A5
  8
0
 10
288.0
 20
210.5
 30
0.0
 40
4.1880000000000042
  0
CIRCLE
  5
74A6
  8
0
 10
192.0
 20
210.5
 30
0.0
 40
4.1880000000000042
  0
CIRCLE
  5
74A7
  8
0
 10
364.75
 20
162.5
 30
0.0
 40
6.0000000000000044
  0
CIRCLE
  5
74A8
  8
0
 10
114.75
 20
162.5
 30
0.0
 40
6.0
  0
CIRCLE
  5
74A9
  8
0
 10
342.75
 20
162.5
 30
0.0
 40
2.458500000000003
  0
CIRCLE
  5
74AA
  8
0
 10
239.75
 20
116.25
 30
0.0
 40
2.458500000000003
  0
CIRCLE
  5
74AB
  8
0
 10
136.75
 20
162.5
 30
0.0
 40
2.458500000000003
  0
CIRCLE
  5
74AC
  8
0
 10
239.75
 20
208.75
 30
0.0
 40
2.458500000000003
  0
LINE
  5
7617
  8
0
 10
379.5
 20
100.0
 30
0.0
 11
379.5
 21
225.0
 31
0.0
  0
LINE
  5
7618
  8
0
 10
100.0
 20
100.0
 30
0.0
 11
100.0
 21
225.0
 31
0.0
  0
LINE
  5
7A20
  8
0
 10
330.75
 20
625.36199999999997
 30
0.0
 11
331.75
 21
626.5
 31
0.0
  0
LINE
  5
7A21
  8
0
 10
331.75
 20
626.5
 30
0.0
 11
332.75
 21
625.36199999999997
 31
0.0
  0
LINE
  5
7A22
  8
0
 10
332.75
 20
625.36199999999997
 30
0.0
 11
333.75
 21
626.5
 31
0.0
  0
LINE
  5
7A23
  8
0
 10
333.75
 20
626.5
 30
0.0
 11
334.75
 21
625.36199999999997
 31
0.0
  0
LINE
  5
7A24
  8
0
 10
100.0
 20
626.21549999999991
 30
0.0
 11
100.75
 21
625.36199999999997
 31
0.0
  0
LINE
  5
7A25
  8
0
 10
300.75
 20
625.36199999999997
 30
0.0
 11
299.75
 21
626.5
 31
0.0
  0
LINE
  5
7A26
  8
0
 10
295.75
 20
626.5
 30
0.0
 11
294.75
 21
625.36199999999997
 31
0.0
  0
LINE
  5
7A27
  8
0
 10
286.75
 20
625.36199999999997
 30
0.0
 11
285.75
 21
626.5
 31
0.0
  0
LINE
  5
7A28
  8
0
 10
271.75
 20
626.5
 30
0.0
 11
270.75
 21
625.36199999999997
 31
0.0
  0
LINE
  5
7A29
  8
0
 10
261.75
 20
626.5
 30
0.0
 11
260.75
 21
625.36199999999997
 31
0.0
  0
LINE
  5
7A2A
  8
0
 10
251.75
 20
626.5
 30
0.0
 11
250.75
 21
625.36199999999997
 31
0.0
  0
LINE
  5
7A2B
  8
0
 10
241.75
 20
626.5
 30
0.0
 11
240.75
 21
625.36199999999997
 31
0.0
  0
LINE
  5
7A2C
  8
0
 10
303.75
 20
626.5
 30
0.0
 11
302.75
 21
625.36199999999997
 31
0.0
  0
LINE
  5
7A2D
  8
0
 10
240.75
 20
625.36199999999997
 30
0.0
 11
239.75
 21
626.5
 31
0.0
  0
LINE
  5
7A2E
  8
0
 10
242.75
 20
625.36199999999997
 30
0.0
 11
241.75
 21
626.5
 31
0.0
  0
LINE
  5
7A2F
  8
0
 10
243.75
 20
626.5
 30
0.0
 11
242.75
 21
625.36199999999997
 31
0.0
  0
LINE
  5
7A30
  8
0
 10
244.75
 20
625.36199999999997
 30
0.0
 11
243.75
 21
626.5
 31
0.0
  0
LINE
  5
7A31
  8
0
 10
245.75
 20
626.5
 30
0.0
 11
244.75
 21
625.36199999999997
 31
0.0
  0
LINE
  5
7A32
  8
0
 10
246.75
 20
625.36199999999997
 30
0.0
 11
245.75
 21
626.5
 31
0.0
  0
LINE
  5
7A33
  8
0
 10
247.75
 20
626.5
 30
0.0
 11
246.75
 21
625.36199999999997
 31
0.0
  0
LINE
  5
7A34
  8
0
 10
248.75
 20
625.36199999999997
 30
0.0
 11
247.75
 21
626.5
 31
0.0
  0
LINE
  5
7A35
  8
0
 10
249.75
 20
626.5
 30
0.0
 11
248.75
 21
625.36199999999997
 31
0.0
  0
LINE
  5
7A36
  8
0
 10
250.75
 20
625.36199999999997
 30
0.0
 11
249.75
 21
626.5
 31
0.0
  0
LINE
  5
7A37
  8
0
 10
252.75
 20
625.36199999999997
 30
0.0
 11
251.75
 21
626.5
 31
0.0
  0
LINE
  5
7A38
  8
0
 10
253.75
 20
626.5
 30
0.0
 11
252.75
 21
625.36199999999997
 31
0.0
  0
LINE
  5
7A39
  8
0
 10
254.75
 20
625.36199999999997
 30
0.0
 11
253.75
 21
626.5
 31
0.0
  0
LINE
  5
7A3A
  8
0
 10
255.75
 20
626.5
 30
0.0
 11
254.75
 21
625.36199999999997
 31
0.0
  0
LINE
  5
7A3B
  8
0
 10
256.75
 20
625.36199999999997
 30
0.0
 11
255.75
 21
626.5
 31
0.0
  0
LINE
  5
7A3C
  8
0
 10
257.75
 20
626.5
 30
0.0
 11
256.75
 21
625.36199999999997
 31
0.0
  0
LINE
  5
7A3D
  8
0
 10
258.75
 20
625.36199999999997
 30
0.0
 11
257.75
 21
626.5
 31
0.0
  0
LINE
  5
7A3E
  8
0
 10
259.75
 20
626.5
 30
0.0
 11
258.75
 21
625.36199999999997
 31
0.0
  0
LINE
  5
7A3F
  8
0
 10
260.75
 20
625.36199999999997
 30
0.0
 11
259.75
 21
626.5
 31
0.0
  0
LINE
  5
7A40
  8
0
 10
262.75
 20
625.36199999999997
 30
0.0
 11
261.75
 21
626.5
 31
0.0
  0
LINE
  5
7A41
  8
0
 10
263.75
 20
626.5
 30
0.0
 11
262.75
 21
625.36199999999997
 31
0.0
  0
LINE
  5
7A42
  8
0
 10
264.75
 20
625.36199999999997
 30
0.0
 11
263.75
 21
626.5
 31
0.0
  0
LINE
  5
7A43
  8
0
 10
265.75
 20
626.5
 30
0.0
 11
264.75
 21
625.36199999999997
 31
0.0
  0
LINE
  5
7A44
  8
0
 10
266.75
 20
625.36199999999997
 30
0.0
 11
265.75
 21
626.5
 31
0.0
  0
LINE
  5
7A45
  8
0
 10
267.75
 20
626.5
 30
0.0
 11
266.75
 21
625.36199999999997
 31
0.0
  0
LINE
  5
7A46
  8
0
 10
268.75
 20
625.36199999999997
 30
0.0
 11
267.75
 21
626.5
 31
0.0
  0
LINE
  5
7A47
  8
0
 10
269.75
 20
626.5
 30
0.0
 11
268.75
 21
625.36199999999997
 31
0.0
  0
LINE
  5
7A48
  8
0
 10
270.75
 20
625.36199999999997
 30
0.0
 11
269.75
 21
626.5
 31
0.0
  0
LINE
  5
7A49
  8
0
 10
272.75
 20
625.36199999999997
 30
0.0
 11
271.75
 21
626.5
 31
0.0
  0
LINE
  5
7A4A
  8
0
 10
273.75
 20
626.5
 30
0.0
 11
272.75
 21
625.36199999999997
 31
0.0
  0
LINE
  5
7A4B
  8
0
 10
274.75
 20
625.36199999999997
 30
0.0
 11
273.75
 21
626.5
 31
0.0
  0
LINE
  5
7A4C
  8
0
 10
275.75
 20
626.5
 30
0.0
 11
274.75
 21
625.36199999999997
 31
0.0
  0
LINE
  5
7A4D
  8
0
 10
276.75
 20
625.36199999999997
 30
0.0
 11
275.75
 21
626.5
 31
0.0
  0
LINE
  5
7A4E
  8
0
 10
277.75
 20
626.5
 30
0.0
 11
276.75
 21
625.36199999999997
 31
0.0
  0
LINE
  5
7A4F
  8
0
 10
278.75
 20
625.36199999999997
 30
0.0
 11
277.75
 21
626.5
 31
0.0
  0
LINE
  5
7A50
  8
0
 10
279.75
 20
626.5
 30
0.0
 11
278.75
 21
625.36199999999997
 31
0.0
  0
LINE
  5
7A51
  8
0
 10
280.75
 20
625.36199999999997
 30
0.0
 11
279.75
 21
626.5
 31
0.0
  0
LINE
  5
7A52
  8
0
 10
281.75
 20
626.5
 30
0.0
 11
280.75
 21
625.36199999999997
 31
0.0
  0
LINE
  5
7A53
  8
0
 10
282.75
 20
625.36199999999997
 30
0.0
 11
281.75
 21
626.5
 31
0.0
  0
LINE
  5
7A54
  8
0
 10
283.75
 20
626.5
 30
0.0
 11
282.75
 21
625.36199999999997
 31
0.0
  0
LINE
  5
7A55
  8
0
 10
284.75
 20
625.36199999999997
 30
0.0
 11
283.75
 21
626.5
 31
0.0
  0
LINE
  5
7A56
  8
0
 10
285.75
 20
626.5
 30
0.0
 11
284.75
 21
625.36199999999997
 31
0.0
  0
LINE
  5
7A57
  8
0
 10
287.75
 20
626.5
 30
0.0
 11
286.75
 21
625.36199999999997
 31
0.0
  0
LINE
  5
7A58
  8
0
 10
288.75
 20
625.36199999999997
 30
0.0
 11
287.75
 21
626.5
 31
0.0
  0
LINE
  5
7A59
  8
0
 10
289.75
 20
626.5
 30
0.0
 11
288.75
 21
625.36199999999997
 31
0.0
  0
LINE
  5
7A5A
  8
0
 10
290.75
 20
625.36199999999997
 30
0.0
 11
289.75
 21
626.5
 31
0.0
  0
LINE
  5
7A5B
  8
0
 10
291.75
 20
626.5
 30
0.0
 11
290.75
 21
625.36199999999997
 31
0.0
  0
LINE
  5
7A5C
  8
0
 10
292.75
 20
625.36199999999997
 30
0.0
 11
291.75
 21
626.5
 31
0.0
  0
LINE
  5
7A5D
  8
0
 10
293.75
 20
626.5
 30
0.0
 11
292.75
 21
625.36199999999997
 31
0.0
  0
LINE
  5
7A5E
  8
0
 10
294.75
 20
625.36199999999997
 30
0.0
 11
293.75
 21
626.5
 31
0.0
  0
LINE
  5
7A5F
  8
0
 10
296.75
 20
625.36199999999997
 30
0.0
 11
295.75
 21
626.5
 31
0.0
  0
LINE
  5
7A60
  8
0
 10
297.75
 20
626.5
 30
0.0
 11
296.75
 21
625.36199999999997
 31
0.0
  0
LINE
  5
7A61
  8
0
 10
298.75
 20
625.36199999999997
 30
0.0
 11
297.75
 21
626.5
 31
0.0
  0
LINE
  5
7A62
  8
0
 10
299.75
 20
626.5
 30
0.0
 11
298.75
 21
625.36199999999997
 31
0.0
  0
LINE
  5
7A63
  8
0
 10
301.75
 20
626.5
 30
0.0
 11
300.75
 21
625.36199999999997
 31
0.0
  0
LINE
  5
7A64
  8
0
 10
302.75
 20
625.36199999999997
 30
0.0
 11
301.75
 21
626.5
 31
0.0
  0
LINE
  5
7A65
  8
0
 10
304.75
 20
625.36199999999997
 30
0.0
 11
303.75
 21
626.5
 31
0.0
  0
LINE
  5
7A66
  8
0
 10
305.75
 20
626.5
 30
0.0
 11
304.75
 21
625.36199999999997
 31
0.0
  0
LINE
  5
7A67
  8
0
 10
306.75
 20
625.36199999999997
 30
0.0
 11
305.75
 21
626.5
 31
0.0
  0
LINE
  5
7A68
  8
0
 10
307.75
 20
626.5
 30
0.0
 11
306.75
 21
625.36199999999997
 31
0.0
  0
LINE
  5
7A69
  8
0
 10
308.75
 20
625.36199999999997
 30
0.0
 11
307.75
 21
626.5
 31
0.0
  0
LINE
  5
7A6A
  8
0
 10
309.75
 20
626.5
 30
0.0
 11
308.75
 21
625.36199999999997
 31
0.0
  0
LINE
  5
7A6B
  8
0
 10
310.75
 20
625.36199999999997
 30
0.0
 11
309.75
 21
626.5
 31
0.0
  0
LINE
  5
7A6C
  8
0
 10
311.75
 20
626.5
 30
0.0
 11
310.75
 21
625.36199999999997
 31
0.0
  0
LINE
  5
7A6D
  8
0
 10
312.75
 20
625.36199999999997
 30
0.0
 11
311.75
 21
626.5
 31
0.0
  0
LINE
  5
7A6E
  8
0
 10
313.75
 20
626.5
 30
0.0
 11
312.75
 21
625.36199999999997
 31
0.0
  0
LINE
  5
7A6F
  8
0
 10
314.75
 20
625.36199999999997
 30
0.0
 11
313.75
 21
626.5
 31
0.0
  0
LINE
  5
7A70
  8
0
 10
315.75
 20
626.5
 30
0.0
 11
314.75
 21
625.36199999999997
 31
0.0
  0
LINE
  5
7A71
  8
0
 10
316.75
 20
625.36199999999997
 30
0.0
 11
315.75
 21
626.5
 31
0.0
  0
LINE
  5
7A72
  8
0
 10
317.75
 20
626.5
 30
0.0
 11
316.75
 21
625.36199999999997
 31
0.0
  0
LINE
  5
7A73
  8
0
 10
318.75
 20
625.36199999999997
 30
0.0
 11
317.75
 21
626.5
 31
0.0
  0
LINE
  5
7A74
  8
0
 10
319.75
 20
626.5
 30
0.0
 11
318.75
 21
625.36199999999997
 31
0.0
  0
LINE
  5
7A75
  8
0
 10
320.75
 20
625.36199999999997
 30
0.0
 11
319.75
 21
626.5
 31
0.0
  0
LINE
  5
7A76
  8
0
 10
321.75
 20
626.5
 30
0.0
 11
320.75
 21
625.36199999999997
 31
0.0
  0
LINE
  5
7A77
  8
0
 10
322.75
 20
625.36199999999997
 30
0.0
 11
321.75
 21
626.5
 31
0.0
  0
LINE
  5
7A78
  8
0
 10
323.75
 20
626.5
 30
0.0
 11
322.75
 21
625.36199999999997
 31
0.0
  0
LINE
  5
7A79
  8
0
 10
324.75
 20
625.36199999999997
 30
0.0
 11
323.75
 21
626.5
 31
0.0
  0
LINE
  5
7A7A
  8
0
 10
325.75
 20
626.5
 30
0.0
 11
324.75
 21
625.36199999999997
 31
0.0
  0
LINE
  5
7A7B
  8
0
 10
326.75
 20
625.36199999999997
 30
0.0
 11
325.75
 21
626.5
 31
0.0
  0
LINE
  5
7A7C
  8
0
 10
327.75
 20
626.5
 30
0.0
 11
326.75
 21
625.36199999999997
 31
0.0
  0
LINE
  5
7A7D
  8
0
 10
328.75
 20
625.36199999999997
 30
0.0
 11
327.75
 21
626.5
 31
0.0
  0
LINE
  5
7A7E
  8
0
 10
329.75
 20
626.5
 30
0.0
 11
328.75
 21
625.36199999999997
 31
0.0
  0
LINE
  5
7A7F
  8
0
 10
330.75
 20
625.36199999999997
 30
0.0
 11
329.75
 21
626.5
 31
0.0
  0
LINE
  5
7A80
  8
0
 10
332.62873462214412
 20
625.49999999999989
 30
0.0
 11
330.87126537785599
 21
625.49999999999989
 31
0.0
  0
LINE
  5
7A81
  8
0
 10
334.62873462214412
 20
625.49999999999989
 30
0.0
 11
332.87126537785599
 21
625.49999999999989
 31
0.0
  0
LINE
  5
7A82
  8
0
 10
335.75
 20
626.5
 30
0.0
 11
334.75
 21
625.36199999999997
 31
0.0
  0
LINE
  5
7A83
  8
0
 10
336.75
 20
625.36199999999997
 30
0.0
 11
335.75
 21
626.5
 31
0.0
  0
LINE
  5
7A84
  8
0
 10
337.75
 20
626.5
 30
0.0
 11
336.75
 21
625.36199999999997
 31
0.0
  0
LINE
  5
7A85
  8
0
 10
338.75
 20
625.36199999999997
 30
0.0
 11
337.75
 21
626.5
 31
0.0
  0
LINE
  5
7A86
  8
0
 10
339.75
 20
626.5
 30
0.0
 11
338.75
 21
625.36199999999997
 31
0.0
  0
LINE
  5
7A87
  8
0
 10
340.75
 20
625.36199999999997
 30
0.0
 11
339.75
 21
626.5
 31
0.0
  0
LINE
  5
7A88
  8
0
 10
341.75
 20
626.5
 30
0.0
 11
340.75
 21
625.36199999999997
 31
0.0
  0
LINE
  5
7A89
  8
0
 10
342.75
 20
625.36199999999997
 30
0.0
 11
341.75
 21
626.5
 31
0.0
  0
LINE
  5
7A8A
  8
0
 10
343.75
 20
626.5
 30
0.0
 11
342.75
 21
625.36199999999997
 31
0.0
  0
LINE
  5
7A8B
  8
0
 10
344.75
 20
625.36199999999997
 30
0.0
 11
343.75
 21
626.5
 31
0.0
  0
LINE
  5
7A8C
  8
0
 10
345.75
 20
626.5
 30
0.0
 11
344.75
 21
625.36199999999997
 31
0.0
  0
LINE
  5
7A8D
  8
0
 10
346.75
 20
625.36199999999997
 30
0.0
 11
345.75
 21
626.5
 31
0.0
  0
LINE
  5
7A8E
  8
0
 10
347.75
 20
626.5
 30
0.0
 11
346.75
 21
625.36199999999997
 31
0.0
  0
LINE
  5
7A8F
  8
0
 10
348.75
 20
625.36199999999997
 30
0.0
 11
347.75
 21
626.5
 31
0.0
  0
LINE
  5
7A90
  8
0
 10
349.75
 20
626.5
 30
0.0
 11
348.75
 21
625.36199999999997
 31
0.0
  0
LINE
  5
7A91
  8
0
 10
350.75
 20
625.36199999999997
 30
0.0
 11
349.75
 21
626.5
 31
0.0
  0
LINE
  5
7A92
  8
0
 10
351.75
 20
626.5
 30
0.0
 11
350.75
 21
625.36199999999997
 31
0.0
  0
LINE
  5
7A93
  8
0
 10
352.75
 20
625.36199999999997
 30
0.0
 11
351.75
 21
626.5
 31
0.0
  0
LINE
  5
7A94
  8
0
 10
353.75
 20
626.5
 30
0.0
 11
352.75
 21
625.36199999999997
 31
0.0
  0
LINE
  5
7A95
  8
0
 10
354.75
 20
625.36199999999997
 30
0.0
 11
353.75
 21
626.5
 31
0.0
  0
LINE
  5
7A96
  8
0
 10
355.75
 20
626.5
 30
0.0
 11
354.75
 21
625.36199999999997
 31
0.0
  0
LINE
  5
7A97
  8
0
 10
356.75
 20
625.36199999999997
 30
0.0
 11
355.75
 21
626.5
 31
0.0
  0
LINE
  5
7A98
  8
0
 10
357.75
 20
626.5
 30
0.0
 11
356.75
 21
625.36199999999997
 31
0.0
  0
LINE
  5
7A99
  8
0
 10
358.75
 20
625.36199999999997
 30
0.0
 11
357.75
 21
626.5
 31
0.0
  0
LINE
  5
7A9A
  8
0
 10
359.75
 20
626.5
 30
0.0
 11
358.75
 21
625.36199999999997
 31
0.0
  0
LINE
  5
7A9B
  8
0
 10
360.75
 20
625.36199999999997
 30
0.0
 11
359.75
 21
626.5
 31
0.0
  0
LINE
  5
7A9C
  8
0
 10
361.75
 20
626.5
 30
0.0
 11
360.75
 21
625.36199999999997
 31
0.0
  0
LINE
  5
7A9D
  8
0
 10
362.75
 20
625.36199999999997
 30
0.0
 11
361.75
 21
626.5
 31
0.0
  0
LINE
  5
7A9E
  8
0
 10
363.75
 20
626.5
 30
0.0
 11
362.75
 21
625.36199999999997
 31
0.0
  0
LINE
  5
7A9F
  8
0
 10
364.75
 20
625.36199999999997
 30
0.0
 11
363.75
 21
626.5
 31
0.0
  0
LINE
  5
7AA0
  8
0
 10
365.75
 20
626.5
 30
0.0
 11
364.75
 21
625.36199999999997
 31
0.0
  0
LINE
  5
7AA1
  8
0
 10
366.75
 20
625.36199999999997
 30
0.0
 11
365.75
 21
626.5
 31
0.0
  0
LINE
  5
7AA2
  8
0
 10
367.75
 20
626.5
 30
0.0
 11
366.75
 21
625.36199999999997
 31
0.0
  0
LINE
  5
7AA3
  8
0
 10
368.75
 20
625.36199999999997
 30
0.0
 11
367.75
 21
626.5
 31
0.0
  0
LINE
  5
7AA4
  8
0
 10
369.75
 20
626.5
 30
0.0
 11
368.75
 21
625.36199999999997
 31
0.0
  0
LINE
  5
7AA5
  8
0
 10
370.75
 20
625.36199999999997
 30
0.0
 11
369.75
 21
626.5
 31
0.0
  0
LINE
  5
7AA6
  8
0
 10
371.75
 20
626.5
 30
0.0
 11
370.75
 21
625.36199999999997
 31
0.0
  0
LINE
  5
7AA7
  8
0
 10
372.75
 20
625.36199999999997
 30
0.0
 11
371.75
 21
626.5
 31
0.0
  0
LINE
  5
7AA8
  8
0
 10
373.75
 20
626.5
 30
0.0
 11
372.75
 21
625.36199999999997
 31
0.0
  0
LINE
  5
7AA9
  8
0
 10
374.75
 20
625.36199999999997
 30
0.0
 11
373.75
 21
626.5
 31
0.0
  0
LINE
  5
7AAA
  8
0
 10
375.75
 20
626.5
 30
0.0
 11
374.75
 21
625.36199999999997
 31
0.0
  0
LINE
  5
7AAB
  8
0
 10
376.75
 20
625.36199999999997
 30
0.0
 11
375.75
 21
626.5
 31
0.0
  0
LINE
  5
7AAC
  8
0
 10
377.75
 20
626.5
 30
0.0
 11
376.75
 21
625.36199999999997
 31
0.0
  0
LINE
  5
7AAD
  8
0
 10
378.75
 20
625.36199999999997
 30
0.0
 11
377.75
 21
626.5
 31
0.0
  0
LINE
  5
7AAE
  8
0
 10
379.5
 20
626.21549999999991
 30
0.0
 11
378.75
 21
625.36199999999997
 31
0.0
  0
LINE
  5
7AAF
  8
0
 10
100.75
 20
625.36199999999997
 30
0.0
 11
101.75
 21
626.5
 31
0.0
  0
LINE
  5
7AB0
  8
0
 10
101.75
 20
626.5
 30
0.0
 11
102.75
 21
625.36199999999997
 31
0.0
  0
LINE
  5
7AB1
  8
0
 10
102.75
 20
625.36199999999997
 30
0.0
 11
103.75
 21
626.5
 31
0.0
  0
LINE
  5
7AB2
  8
0
 10
103.75
 20
626.5
 30
0.0
 11
104.75
 21
625.36199999999997
 31
0.0
  0
LINE
  5
7AB3
  8
0
 10
104.75
 20
625.36199999999997
 30
0.0
 11
105.75
 21
626.5
 31
0.0
  0
LINE
  5
7AB4
  8
0
 10
105.75
 20
626.5
 30
0.0
 11
106.75
 21
625.36199999999997
 31
0.0
  0
LINE
  5
7AB5
  8
0
 10
106.75
 20
625.36199999999997
 30
0.0
 11
107.75
 21
626.5
 31
0.0
  0
LINE
  5
7AB6
  8
0
 10
107.75
 20
626.5
 30
0.0
 11
108.75
 21
625.36199999999997
 31
0.0
  0
LINE
  5
7AB7
  8
0
 10
108.75
 20
625.36199999999997
 30
0.0
 11
109.75
 21
626.5
 31
0.0
  0
LINE
  5
7AB8
  8
0
 10
109.75
 20
626.5
 30
0.0
 11
110.75
 21
625.36199999999997
 31
0.0
  0
LINE
  5
7AB9
  8
0
 10
110.75
 20
625.36199999999997
 30
0.0
 11
111.75
 21
626.5
 31
0.0
  0
LINE
  5
7ABA
  8
0
 10
111.75
 20
626.5
 30
0.0
 11
112.75
 21
625.36199999999997
 31
0.0
  0
LINE
  5
7ABB
  8
0
 10
112.75
 20
625.36199999999997
 30
0.0
 11
113.75
 21
626.5
 31
0.0
  0
LINE
  5
7ABC
  8
0
 10
113.75
 20
626.5
 30
0.0
 11
114.75
 21
625.36199999999997
 31
0.0
  0
LINE
  5
7ABD
  8
0
 10
114.75
 20
625.36199999999997
 30
0.0
 11
115.75
 21
626.5
 31
0.0
  0
LINE
  5
7ABE
  8
0
 10
115.75
 20
626.5
 30
0.0
 11
116.75
 21
625.36199999999997
 31
0.0
  0
LINE
  5
7ABF
  8
0
 10
116.75
 20
625.36199999999997
 30
0.0
 11
117.75
 21
626.5
 31
0.0
  0
LINE
  5
7AC0
  8
0
 10
117.75
 20
626.5
 30
0.0
 11
118.75
 21
625.36199999999997
 31
0.0
  0
LINE
  5
7AC1
  8
0
 10
118.75
 20
625.36199999999997
 30
0.0
 11
119.75
 21
626.5
 31
0.0
  0
LINE
  5
7AC2
  8
0
 10
119.75
 20
626.5
 30
0.0
 11
120.75
 21
625.36199999999997
 31
0.0
  0
LINE
  5
7AC3
  8
0
 10
120.75
 20
625.36199999999997
 30
0.0
 11
121.75
 21
626.5
 31
0.0
  0
LINE
  5
7AC4
  8
0
 10
121.75
 20
626.5
 30
0.0
 11
122.75
 21
625.36199999999997
 31
0.0
  0
LINE
  5
7AC5
  8
0
 10
122.75
 20
625.36199999999997
 30
0.0
 11
123.75
 21
626.5
 31
0.0
  0
LINE
  5
7AC6
  8
0
 10
123.75
 20
626.5
 30
0.0
 11
124.75
 21
625.36199999999997
 31
0.0
  0
LINE
  5
7AC7
  8
0
 10
124.75
 20
625.36199999999997
 30
0.0
 11
125.75
 21
626.5
 31
0.0
  0
LINE
  5
7AC8
  8
0
 10
125.75
 20
626.5
 30
0.0
 11
126.75
 21
625.36199999999997
 31
0.0
  0
LINE
  5
7AC9
  8
0
 10
126.75
 20
625.36199999999997
 30
0.0
 11
127.75
 21
626.5
 31
0.0
  0
LINE
  5
7ACA
  8
0
 10
127.75
 20
626.5
 30
0.0
 11
128.75
 21
625.36199999999997
 31
0.0
  0
LINE
  5
7ACB
  8
0
 10
128.75
 20
625.36199999999997
 30
0.0
 11
129.75
 21
626.5
 31
0.0
  0
LINE
  5
7ACC
  8
0
 10
129.75
 20
626.5
 30
0.0
 11
130.75
 21
625.36199999999997
 31
0.0
  0
LINE
  5
7ACD
  8
0
 10
130.75
 20
625.36199999999997
 30
0.0
 11
131.75
 21
626.5
 31
0.0
  0
LINE
  5
7ACE
  8
0
 10
131.75
 20
626.5
 30
0.0
 11
132.75
 21
625.36199999999997
 31
0.0
  0
LINE
  5
7ACF
  8
0
 10
132.75
 20
625.36199999999997
 30
0.0
 11
133.75
 21
626.5
 31
0.0
  0
LINE
  5
7AD0
  8
0
 10
133.75
 20
626.5
 30
0.0
 11
134.75
 21
625.36199999999997
 31
0.0
  0
LINE
  5
7AD1
  8
0
 10
134.75
 20
625.36199999999997
 30
0.0
 11
135.75
 21
626.5
 31
0.0
  0
LINE
  5
7AD2
  8
0
 10
135.75
 20
626.5
 30
0.0
 11
136.75
 21
625.36199999999997
 31
0.0
  0
LINE
  5
7AD3
  8
0
 10
136.75
 20
625.36199999999997
 30
0.0
 11
137.75
 21
626.5
 31
0.0
  0
LINE
  5
7AD4
  8
0
 10
137.75
 20
626.5
 30
0.0
 11
138.75
 21
625.36199999999997
 31
0.0
  0
LINE
  5
7AD5
  8
0
 10
138.75
 20
625.36199999999997
 30
0.0
 11
139.75
 21
626.5
 31
0.0
  0
LINE
  5
7AD6
  8
0
 10
139.75
 20
626.5
 30
0.0
 11
140.75
 21
625.36199999999997
 31
0.0
  0
LINE
  5
7AD7
  8
0
 10
140.75
 20
625.36199999999997
 30
0.0
 11
141.75
 21
626.5
 31
0.0
  0
LINE
  5
7AD8
  8
0
 10
141.75
 20
626.5
 30
0.0
 11
142.75
 21
625.36199999999997
 31
0.0
  0
LINE
  5
7AD9
  8
0
 10
142.75
 20
625.36199999999997
 30
0.0
 11
143.75
 21
626.5
 31
0.0
  0
LINE
  5
7ADA
  8
0
 10
143.75
 20
626.5
 30
0.0
 11
144.75
 21
625.36199999999997
 31
0.0
  0
LINE
  5
7ADB
  8
0
 10
144.75
 20
625.36199999999997
 30
0.0
 11
145.75
 21
626.5
 31
0.0
  0
LINE
  5
7ADC
  8
0
 10
145.75
 20
626.5
 30
0.0
 11
146.75
 21
625.36199999999997
 31
0.0
  0
LINE
  5
7ADD
  8
0
 10
146.75
 20
625.36199999999997
 30
0.0
 11
147.75
 21
626.5
 31
0.0
  0
LINE
  5
7ADE
  8
0
 10
147.75
 20
626.5
 30
0.0
 11
148.75
 21
625.36199999999997
 31
0.0
  0
LINE
  5
7ADF
  8
0
 10
148.75
 20
625.36199999999997
 30
0.0
 11
149.75
 21
626.5
 31
0.0
  0
LINE
  5
7AE0
  8
0
 10
149.75
 20
626.5
 30
0.0
 11
150.75
 21
625.36199999999997
 31
0.0
  0
LINE
  5
7AE1
  8
0
 10
150.75
 20
625.36199999999997
 30
0.0
 11
151.75
 21
626.5
 31
0.0
  0
LINE
  5
7AE2
  8
0
 10
151.75
 20
626.5
 30
0.0
 11
152.75
 21
625.36199999999997
 31
0.0
  0
LINE
  5
7AE3
  8
0
 10
152.75
 20
625.36199999999997
 30
0.0
 11
153.75
 21
626.5
 31
0.0
  0
LINE
  5
7AE4
  8
0
 10
153.75
 20
626.5
 30
0.0
 11
154.75
 21
625.36199999999997
 31
0.0
  0
LINE
  5
7AE5
  8
0
 10
154.75
 20
625.36199999999997
 30
0.0
 11
155.75
 21
626.5
 31
0.0
  0
LINE
  5
7AE6
  8
0
 10
155.75
 20
626.5
 30
0.0
 11
156.75
 21
625.36199999999997
 31
0.0
  0
LINE
  5
7AE7
  8
0
 10
156.75
 20
625.36199999999997
 30
0.0
 11
157.75
 21
626.5
 31
0.0
  0
LINE
  5
7AE8
  8
0
 10
157.75
 20
626.5
 30
0.0
 11
158.75
 21
625.36199999999997
 31
0.0
  0
LINE
  5
7AE9
  8
0
 10
158.75
 20
625.36199999999997
 30
0.0
 11
159.75
 21
626.5
 31
0.0
  0
LINE
  5
7AEA
  8
0
 10
159.75
 20
626.5
 30
0.0
 11
160.75
 21
625.36199999999997
 31
0.0
  0
LINE
  5
7AEB
  8
0
 10
161.75
 20
626.5
 30
0.0
 11
162.75
 21
625.36199999999997
 31
0.0
  0
LINE
  5
7AEC
  8
0
 10
160.75
 20
625.36199999999997
 30
0.0
 11
161.75
 21
626.5
 31
0.0
  0
LINE
  5
7AED
  8
0
 10
163.75
 20
626.5
 30
0.0
 11
164.75
 21
625.36199999999997
 31
0.0
  0
LINE
  5
7AEE
  8
0
 10
162.75
 20
625.36199999999997
 30
0.0
 11
163.75
 21
626.5
 31
0.0
  0
LINE
  5
7AEF
  8
0
 10
164.75
 20
625.36199999999997
 30
0.0
 11
165.75
 21
626.5
 31
0.0
  0
LINE
  5
7AF0
  8
0
 10
165.75
 20
626.5
 30
0.0
 11
166.75
 21
625.36199999999997
 31
0.0
  0
LINE
  5
7AF1
  8
0
 10
166.75
 20
625.36199999999997
 30
0.0
 11
167.75
 21
626.5
 31
0.0
  0
LINE
  5
7AF2
  8
0
 10
167.75
 20
626.5
 30
0.0
 11
168.75
 21
625.36199999999997
 31
0.0
  0
LINE
  5
7AF3
  8
0
 10
168.75
 20
625.36199999999997
 30
0.0
 11
169.75
 21
626.5
 31
0.0
  0
LINE
  5
7AF4
  8
0
 10
169.75
 20
626.5
 30
0.0
 11
170.75
 21
625.36199999999997
 31
0.0
  0
LINE
  5
7AF5
  8
0
 10
170.75
 20
625.36199999999997
 30
0.0
 11
171.75
 21
626.5
 31
0.0
  0
LINE
  5
7AF6
  8
0
 10
171.75
 20
626.5
 30
0.0
 11
172.75
 21
625.36199999999997
 31
0.0
  0
LINE
  5
7AF7
  8
0
 10
172.75
 20
625.36199999999997
 30
0.0
 11
173.75
 21
626.5
 31
0.0
  0
LINE
  5
7AF8
  8
0
 10
173.75
 20
626.5
 30
0.0
 11
174.75
 21
625.36199999999997
 31
0.0
  0
LINE
  5
7AF9
  8
0
 10
174.75
 20
625.36199999999997
 30
0.0
 11
175.75
 21
626.5
 31
0.0
  0
LINE
  5
7AFA
  8
0
 10
175.75
 20
626.5
 30
0.0
 11
176.75
 21
625.36199999999997
 31
0.0
  0
LINE
  5
7AFB
  8
0
 10
176.75
 20
625.36199999999997
 30
0.0
 11
177.75
 21
626.5
 31
0.0
  0
LINE
  5
7AFC
  8
0
 10
177.75
 20
626.5
 30
0.0
 11
178.75
 21
625.36199999999997
 31
0.0
  0
LINE
  5
7AFD
  8
0
 10
178.75
 20
625.36199999999997
 30
0.0
 11
179.75
 21
626.5
 31
0.0
  0
LINE
  5
7AFE
  8
0
 10
179.75
 20
626.5
 30
0.0
 11
180.75
 21
625.36199999999997
 31
0.0
  0
LINE
  5
7AFF
  8
0
 10
180.75
 20
625.36199999999997
 30
0.0
 11
181.75
 21
626.5
 31
0.0
  0
LINE
  5
7B00
  8
0
 10
181.75
 20
626.5
 30
0.0
 11
182.75
 21
625.36199999999997
 31
0.0
  0
LINE
  5
7B01
  8
0
 10
182.75
 20
625.36199999999997
 30
0.0
 11
183.75
 21
626.5
 31
0.0
  0
LINE
  5
7B02
  8
0
 10
183.75
 20
626.5
 30
0.0
 11
184.75
 21
625.36199999999997
 31
0.0
  0
LINE
  5
7B03
  8
0
 10
184.75
 20
625.36199999999997
 30
0.0
 11
185.75
 21
626.5
 31
0.0
  0
LINE
  5
7B04
  8
0
 10
185.75
 20
626.5
 30
0.0
 11
186.75
 21
625.36199999999997
 31
0.0
  0
LINE
  5
7B05
  8
0
 10
186.75
 20
625.36199999999997
 30
0.0
 11
187.75
 21
626.5
 31
0.0
  0
LINE
  5
7B06
  8
0
 10
187.75
 20
626.5
 30
0.0
 11
188.75
 21
625.36199999999997
 31
0.0
  0
LINE
  5
7B07
  8
0
 10
188.75
 20
625.36199999999997
 30
0.0
 11
189.75
 21
626.5
 31
0.0
  0
LINE
  5
7B08
  8
0
 10
189.75
 20
626.5
 30
0.0
 11
190.75
 21
625.36199999999997
 31
0.0
  0
LINE
  5
7B09
  8
0
 10
190.75
 20
625.36199999999997
 30
0.0
 11
191.75
 21
626.5
 31
0.0
  0
LINE
  5
7B0A
  8
0
 10
191.75
 20
626.5
 30
0.0
 11
192.75
 21
625.36199999999997
 31
0.0
  0
LINE
  5
7B0B
  8
0
 10
192.75
 20
625.36199999999997
 30
0.0
 11
193.75
 21
626.5
 31
0.0
  0
LINE
  5
7B0C
  8
0
 10
193.75
 20
626.5
 30
0.0
 11
194.75
 21
625.36199999999997
 31
0.0
  0
LINE
  5
7B0D
  8
0
 10
194.75
 20
625.36199999999997
 30
0.0
 11
195.75
 21
626.5
 31
0.0
  0
LINE
  5
7B0E
  8
0
 10
195.75
 20
626.5
 30
0.0
 11
196.75
 21
625.36199999999997
 31
0.0
  0
LINE
  5
7B0F
  8
0
 10
196.75
 20
625.36199999999997
 30
0.0
 11
197.75
 21
626.5
 31
0.0
  0
LINE
  5
7B10
  8
0
 10
197.75
 20
626.5
 30
0.0
 11
198.75
 21
625.36199999999997
 31
0.0
  0
LINE
  5
7B11
  8
0
 10
198.75
 20
625.36199999999997
 30
0.0
 11
199.75
 21
626.5
 31
0.0
  0
LINE
  5
7B12
  8
0
 10
199.75
 20
626.5
 30
0.0
 11
200.75
 21
625.36199999999997
 31
0.0
  0
LINE
  5
7B13
  8
0
 10
200.75
 20
625.36199999999997
 30
0.0
 11
201.75
 21
626.5
 31
0.0
  0
LINE
  5
7B14
  8
0
 10
201.75
 20
626.5
 30
0.0
 11
202.75
 21
625.36199999999997
 31
0.0
  0
LINE
  5
7B15
  8
0
 10
202.75
 20
625.36199999999997
 30
0.0
 11
203.75
 21
626.5
 31
0.0
  0
LINE
  5
7B16
  8
0
 10
203.75
 20
626.5
 30
0.0
 11
204.75
 21
625.36199999999997
 31
0.0
  0
LINE
  5
7B17
  8
0
 10
204.75
 20
625.36199999999997
 30
0.0
 11
205.75
 21
626.5
 31
0.0
  0
LINE
  5
7B18
  8
0
 10
205.75
 20
626.5
 30
0.0
 11
206.75
 21
625.36199999999997
 31
0.0
  0
LINE
  5
7B19
  8
0
 10
206.75
 20
625.36199999999997
 30
0.0
 11
207.75
 21
626.5
 31
0.0
  0
LINE
  5
7B1A
  8
0
 10
207.75
 20
626.5
 30
0.0
 11
208.75
 21
625.36199999999997
 31
0.0
  0
LINE
  5
7B1B
  8
0
 10
208.75
 20
625.36199999999997
 30
0.0
 11
209.75
 21
626.5
 31
0.0
  0
LINE
  5
7B1C
  8
0
 10
209.75
 20
626.5
 30
0.0
 11
210.75
 21
625.36199999999997
 31
0.0
  0
LINE
  5
7B1D
  8
0
 10
210.75
 20
625.36199999999997
 30
0.0
 11
211.75
 21
626.5
 31
0.0
  0
LINE
  5
7B1E
  8
0
 10
211.75
 20
626.5
 30
0.0
 11
212.75
 21
625.36199999999997
 31
0.0
  0
LINE
  5
7B1F
  8
0
 10
212.75
 20
625.36199999999997
 30
0.0
 11
213.75
 21
626.5
 31
0.0
  0
LINE
  5
7B20
  8
0
 10
213.75
 20
626.5
 30
0.0
 11
214.75
 21
625.36199999999997
 31
0.0
  0
LINE
  5
7B21
  8
0
 10
214.75
 20
625.36199999999997
 30
0.0
 11
215.75
 21
626.5
 31
0.0
  0
LINE
  5
7B22
  8
0
 10
215.75
 20
626.5
 30
0.0
 11
216.75
 21
625.36199999999997
 31
0.0
  0
LINE
  5
7B23
  8
0
 10
216.75
 20
625.36199999999997
 30
0.0
 11
217.75
 21
626.5
 31
0.0
  0
LINE
  5
7B24
  8
0
 10
217.75
 20
626.5
 30
0.0
 11
218.75
 21
625.36199999999997
 31
0.0
  0
LINE
  5
7B25
  8
0
 10
218.75
 20
625.36199999999997
 30
0.0
 11
219.75
 21
626.5
 31
0.0
  0
LINE
  5
7B26
  8
0
 10
219.75
 20
626.5
 30
0.0
 11
220.75
 21
625.36199999999997
 31
0.0
  0
LINE
  5
7B27
  8
0
 10
220.75
 20
625.36199999999997
 30
0.0
 11
221.75
 21
626.5
 31
0.0
  0
LINE
  5
7B28
  8
0
 10
221.75
 20
626.5
 30
0.0
 11
222.75
 21
625.36199999999997
 31
0.0
  0
LINE
  5
7B29
  8
0
 10
222.75
 20
625.36199999999997
 30
0.0
 11
223.75
 21
626.5
 31
0.0
  0
LINE
  5
7B2A
  8
0
 10
223.75
 20
626.5
 30
0.0
 11
224.75
 21
625.36199999999997
 31
0.0
  0
LINE
  5
7B2B
  8
0
 10
224.75
 20
625.36199999999997
 30
0.0
 11
225.75
 21
626.5
 31
0.0
  0
LINE
  5
7B2C
  8
0
 10
225.75
 20
626.5
 30
0.0
 11
226.75
 21
625.36199999999997
 31
0.0
  0
LINE
  5
7B2D
  8
0
 10
226.75
 20
625.36199999999997
 30
0.0
 11
227.75
 21
626.5
 31
0.0
  0
LINE
  5
7B2E
  8
0
 10
227.75
 20
626.5
 30
0.0
 11
228.75
 21
625.36199999999997
 31
0.0
  0
LINE
  5
7B2F
  8
0
 10
228.75
 20
625.36199999999997
 30
0.0
 11
229.75
 21
626.5
 31
0.0
  0
LINE
  5
7B30
  8
0
 10
229.75
 20
626.5
 30
0.0
 11
230.75
 21
625.36199999999997
 31
0.0
  0
LINE
  5
7B31
  8
0
 10
230.75
 20
625.36199999999997
 30
0.0
 11
231.75
 21
626.5
 31
0.0
  0
LINE
  5
7B32
  8
0
 10
231.75
 20
626.5
 30
0.0
 11
232.75
 21
625.36199999999997
 31
0.0
  0
LINE
  5
7B33
  8
0
 10
232.75
 20
625.36199999999997
 30
0.0
 11
233.75
 21
626.5
 31
0.0
  0
LINE
  5
7B34
  8
0
 10
233.75
 20
626.5
 30
0.0
 11
234.75
 21
625.36199999999997
 31
0.0
  0
LINE
  5
7B35
  8
0
 10
234.75
 20
625.36199999999997
 30
0.0
 11
235.75
 21
626.5
 31
0.0
  0
LINE
  5
7B36
  8
0
 10
235.75
 20
626.5
 30
0.0
 11
236.75
 21
625.36199999999997
 31
0.0
  0
LINE
  5
7B37
  8
0
 10
236.75
 20
625.36199999999997
 30
0.0
 11
237.75
 21
626.5
 31
0.0
  0
LINE
  5
7B38
  8
0
 10
237.75
 20
626.5
 30
0.0
 11
238.75
 21
625.36199999999997
 31
0.0
  0
LINE
  5
7B3A
  8
0
 10
238.75
 20
625.36199999999997
 30
0.0
 11
239.75
 21
626.5
 31
0.0
  0
LINE
  5
7B3C
  8
0
 10
242.62873462214409
 20
625.49999999999989
 30
0.0
 11
240.87126537785591
 21
625.49999999999989
 31
0.0
  0
LINE
  5
7B3D
  8
0
 10
244.62873462214409
 20
625.49999999999989
 30
0.0
 11
242.87126537785591
 21
625.49999999999989
 31
0.0
  0
LINE
  5
7B3E
  8
0
 10
246.62873462214409
 20
625.49999999999989
 30
0.0
 11
244.87126537785591
 21
625.49999999999989
 31
0.0
  0
LINE
  5
7B3F
  8
0
 10
248.62873462214409
 20
625.49999999999989
 30
0.0
 11
246.87126537785591
 21
625.49999999999989
 31
0.0
  0
LINE
  5
7B40
  8
0
 10
250.62873462214409
 20
625.49999999999989
 30
0.0
 11
248.87126537785591
 21
625.49999999999989
 31
0.0
  0
LINE
  5
7B41
  8
0
 10
252.62873462214409
 20
625.49999999999989
 30
0.0
 11
250.87126537785591
 21
625.49999999999989
 31
0.0
  0
LINE
  5
7B42
  8
0
 10
254.62873462214409
 20
625.49999999999989
 30
0.0
 11
252.87126537785591
 21
625.49999999999989
 31
0.0
  0
LINE
  5
7B43
  8
0
 10
256.62873462214412
 20
625.49999999999989
 30
0.0
 11
254.87126537785591
 21
625.49999999999989
 31
0.0
  0
LINE
  5
7B44
  8
0
 10
258.62873462214412
 20
625.49999999999989
 30
0.0
 11
256.87126537785588
 21
625.49999999999989
 31
0.0
  0
LINE
  5
7B45
  8
0
 10
260.62873462214412
 20
625.49999999999989
 30
0.0
 11
258.87126537785588
 21
625.49999999999989
 31
0.0
  0
LINE
  5
7B46
  8
0
 10
262.62873462214412
 20
625.49999999999989
 30
0.0
 11
260.87126537785588
 21
625.49999999999989
 31
0.0
  0
LINE
  5
7B47
  8
0
 10
264.62873462214412
 20
625.49999999999989
 30
0.0
 11
262.87126537785588
 21
625.49999999999989
 31
0.0
  0
LINE
  5
7B48
  8
0
 10
266.62873462214412
 20
625.49999999999989
 30
0.0
 11
264.87126537785588
 21
625.49999999999989
 31
0.0
  0
LINE
  5
7B49
  8
0
 10
268.62873462214401
 20
625.49999999999989
 30
0.0
 11
266.87126537785588
 21
625.49999999999989
 31
0.0
  0
LINE
  5
7B4A
  8
0
 10
270.62873462214401
 20
625.49999999999989
 30
0.0
 11
268.87126537785588
 21
625.49999999999989
 31
0.0
  0
LINE
  5
7B4B
  8
0
 10
272.62873462214401
 20
625.49999999999989
 30
0.0
 11
270.87126537785588
 21
625.49999999999989
 31
0.0
  0
LINE
  5
7B4C
  8
0
 10
274.62873462214401
 20
625.49999999999989
 30
0.0
 11
272.87126537785588
 21
625.49999999999989
 31
0.0
  0
LINE
  5
7B4D
  8
0
 10
276.62873462214412
 20
625.49999999999989
 30
0.0
 11
274.87126537785599
 21
625.49999999999989
 31
0.0
  0
LINE
  5
7B4E
  8
0
 10
278.62873462214412
 20
625.49999999999989
 30
0.0
 11
276.87126537785599
 21
625.49999999999989
 31
0.0
  0
LINE
  5
7B4F
  8
0
 10
280.62873462214412
 20
625.49999999999989
 30
0.0
 11
278.87126537785599
 21
625.49999999999989
 31
0.0
  0
LINE
  5
7B50
  8
0
 10
282.62873462214412
 20
625.49999999999989
 30
0.0
 11
280.87126537785599
 21
625.49999999999989
 31
0.0
  0
LINE
  5
7B51
  8
0
 10
284.62873462214412
 20
625.49999999999989
 30
0.0
 11
282.87126537785588
 21
625.49999999999989
 31
0.0
  0
LINE
  5
7B52
  8
0
 10
286.62873462214412
 20
625.49999999999989
 30
0.0
 11
284.87126537785588
 21
625.49999999999989
 31
0.0
  0
LINE
  5
7B53
  8
0
 10
288.62873462214412
 20
625.49999999999989
 30
0.0
 11
286.87126537785588
 21
625.49999999999989
 31
0.0
  0
LINE
  5
7B54
  8
0
 10
290.62873462214412
 20
625.49999999999989
 30
0.0
 11
288.87126537785588
 21
625.49999999999989
 31
0.0
  0
LINE
  5
7B55
  8
0
 10
292.62873462214412
 20
625.49999999999989
 30
0.0
 11
290.87126537785588
 21
625.49999999999989
 31
0.0
  0
LINE
  5
7B56
  8
0
 10
294.62873462214412
 20
625.49999999999989
 30
0.0
 11
292.87126537785588
 21
625.49999999999989
 31
0.0
  0
LINE
  5
7B57
  8
0
 10
296.62873462214412
 20
625.49999999999989
 30
0.0
 11
294.87126537785588
 21
625.49999999999989
 31
0.0
  0
LINE
  5
7B58
  8
0
 10
298.62873462214412
 20
625.49999999999989
 30
0.0
 11
296.87126537785588
 21
625.49999999999989
 31
0.0
  0
LINE
  5
7B59
  8
0
 10
300.62873462214412
 20
625.49999999999989
 30
0.0
 11
298.87126537785588
 21
625.49999999999989
 31
0.0
  0
LINE
  5
7B5A
  8
0
 10
302.62873462214412
 20
625.49999999999989
 30
0.0
 11
300.87126537785588
 21
625.49999999999989
 31
0.0
  0
LINE
  5
7B5B
  8
0
 10
304.62873462214412
 20
625.49999999999989
 30
0.0
 11
302.87126537785588
 21
625.49999999999989
 31
0.0
  0
LINE
  5
7B5C
  8
0
 10
306.62873462214412
 20
625.49999999999989
 30
0.0
 11
304.87126537785588
 21
625.49999999999989
 31
0.0
  0
LINE
  5
7B5D
  8
0
 10
308.62873462214412
 20
625.49999999999989
 30
0.0
 11
306.87126537785588
 21
625.49999999999989
 31
0.0
  0
LINE
  5
7B5E
  8
0
 10
310.62873462214412
 20
625.49999999999989
 30
0.0
 11
308.87126537785588
 21
625.49999999999989
 31
0.0
  0
LINE
  5
7B5F
  8
0
 10
312.62873462214412
 20
625.49999999999989
 30
0.0
 11
310.87126537785588
 21
625.49999999999989
 31
0.0
  0
LINE
  5
7B60
  8
0
 10
314.62873462214412
 20
625.49999999999989
 30
0.0
 11
312.87126537785588
 21
625.49999999999989
 31
0.0
  0
LINE
  5
7B61
  8
0
 10
316.62873462214412
 20
625.49999999999989
 30
0.0
 11
314.87126537785588
 21
625.49999999999989
 31
0.0
  0
LINE
  5
7B62
  8
0
 10
318.62873462214412
 20
625.49999999999989
 30
0.0
 11
316.87126537785588
 21
625.49999999999989
 31
0.0
  0
LINE
  5
7B63
  8
0
 10
320.62873462214401
 20
625.49999999999989
 30
0.0
 11
318.87126537785588
 21
625.49999999999989
 31
0.0
  0
LINE
  5
7B64
  8
0
 10
322.62873462214401
 20
625.49999999999989
 30
0.0
 11
320.87126537785588
 21
625.49999999999989
 31
0.0
  0
LINE
  5
7B65
  8
0
 10
324.62873462214401
 20
625.49999999999989
 30
0.0
 11
322.87126537785588
 21
625.49999999999989
 31
0.0
  0
LINE
  5
7B66
  8
0
 10
326.62873462214412
 20
625.49999999999989
 30
0.0
 11
324.87126537785599
 21
625.49999999999989
 31
0.0
  0
LINE
  5
7B67
  8
0
 10
328.62873462214412
 20
625.49999999999989
 30
0.0
 11
326.87126537785599
 21
625.49999999999989
 31
0.0
  0
LINE
  5
7B68
  8
0
 10
330.62873462214412
 20
625.49999999999989
 30
0.0
 11
328.87126537785599
 21
625.49999999999989
 31
0.0
  0
LINE
  5
7B69
  8
0
 10
366.62873462214412
 20
625.49999999999989
 30
0.0
 11
364.87126537785588
 21
625.49999999999989
 31
0.0
  0
LINE
  5
7B6A
  8
0
 10
368.62873462214412
 20
625.49999999999989
 30
0.0
 11
366.87126537785588
 21
625.49999999999989
 31
0.0
  0
LINE
  5
7B6B
  8
0
 10
336.62873462214412
 20
625.49999999999989
 30
0.0
 11
334.87126537785588
 21
625.49999999999989
 31
0.0
  0
LINE
  5
7B6C
  8
0
 10
338.62873462214412
 20
625.49999999999989
 30
0.0
 11
336.87126537785588
 21
625.49999999999989
 31
0.0
  0
LINE
  5
7B6D
  8
0
 10
340.62873462214412
 20
625.49999999999989
 30
0.0
 11
338.87126537785588
 21
625.49999999999989
 31
0.0
  0
LINE
  5
7B6E
  8
0
 10
342.62873462214412
 20
625.49999999999989
 30
0.0
 11
340.87126537785588
 21
625.49999999999989
 31
0.0
  0
LINE
  5
7B6F
  8
0
 10
344.62873462214412
 20
625.49999999999989
 30
0.0
 11
342.87126537785588
 21
625.49999999999989
 31
0.0
  0
LINE
  5
7B70
  8
0
 10
346.62873462214412
 20
625.49999999999989
 30
0.0
 11
344.87126537785588
 21
625.49999999999989
 31
0.0
  0
LINE
  5
7B71
  8
0
 10
348.62873462214412
 20
625.49999999999989
 30
0.0
 11
346.87126537785588
 21
625.49999999999989
 31
0.0
  0
LINE
  5
7B72
  8
0
 10
350.62873462214412
 20
625.49999999999989
 30
0.0
 11
348.87126537785588
 21
625.49999999999989
 31
0.0
  0
LINE
  5
7B73
  8
0
 10
352.62873462214412
 20
625.49999999999989
 30
0.0
 11
350.87126537785588
 21
625.49999999999989
 31
0.0
  0
LINE
  5
7B74
  8
0
 10
354.62873462214429
 20
625.49999999999989
 30
0.0
 11
352.87126537785588
 21
625.49999999999989
 31
0.0
  0
LINE
  5
7B75
  8
0
 10
356.62873462214412
 20
625.49999999999989
 30
0.0
 11
354.87126537785588
 21
625.49999999999989
 31
0.0
  0
LINE
  5
7B76
  8
0
 10
358.62873462214412
 20
625.49999999999989
 30
0.0
 11
356.87126537785588
 21
625.49999999999989
 31
0.0
  0
LINE
  5
7B77
  8
0
 10
360.62873462214412
 20
625.49999999999989
 30
0.0
 11
358.87126537785588
 21
625.49999999999989
 31
0.0
  0
LINE
  5
7B78
  8
0
 10
362.62873462214412
 20
625.49999999999989
 30
0.0
 11
360.87126537785588
 21
625.49999999999989
 31
0.0
  0
LINE
  5
7B79
  8
0
 10
364.62873462214412
 20
625.49999999999989
 30
0.0
 11
362.87126537785588
 21
625.49999999999989
 31
0.0
  0
LINE
  5
7B7A
  8
0
 10
240.62873462214409
 20
625.49999999999989
 30
0.0
 11
238.87126537785591
 21
625.49999999999989
 31
0.0
  0
LINE
  5
7B7B
  8
0
 10
100.62873462214429
 20
625.49999999999989
 30
0.0
 11
100.0
 21
625.49999999999989
 31
0.0
  0
LINE
  5
7B7C
  8
0
 10
102.62873462214429
 20
625.49999999999989
 30
0.0
 11
100.87126537785571
 21
625.49999999999989
 31
0.0
  0
LINE
  5
7B7D
  8
0
 10
104.62873462214429
 20
625.49999999999989
 30
0.0
 11
102.87126537785571
 21
625.49999999999989
 31
0.0
  0
LINE
  5
7B7E
  8
0
 10
106.62873462214429
 20
625.49999999999989
 30
0.0
 11
104.87126537785571
 21
625.49999999999989
 31
0.0
  0
LINE
  5
7B7F
  8
0
 10
108.62873462214429
 20
625.49999999999989
 30
0.0
 11
106.87126537785571
 21
625.49999999999989
 31
0.0
  0
LINE
  5
7B80
  8
0
 10
110.62873462214429
 20
625.49999999999989
 30
0.0
 11
108.87126537785571
 21
625.49999999999989
 31
0.0
  0
LINE
  5
7B81
  8
0
 10
112.62873462214399
 20
625.49999999999989
 30
0.0
 11
110.87126537785571
 21
625.49999999999989
 31
0.0
  0
LINE
  5
7B82
  8
0
 10
114.62873462214399
 20
625.49999999999989
 30
0.0
 11
112.87126537785571
 21
625.49999999999989
 31
0.0
  0
LINE
  5
7B83
  8
0
 10
116.62873462214399
 20
625.49999999999989
 30
0.0
 11
114.87126537785571
 21
625.49999999999989
 31
0.0
  0
LINE
  5
7B84
  8
0
 10
118.62873462214399
 20
625.49999999999989
 30
0.0
 11
116.87126537785571
 21
625.49999999999989
 31
0.0
  0
LINE
  5
7B85
  8
0
 10
120.62873462214399
 20
625.49999999999989
 30
0.0
 11
118.87126537785591
 21
625.49999999999989
 31
0.0
  0
LINE
  5
7B86
  8
0
 10
122.62873462214399
 20
625.49999999999989
 30
0.0
 11
120.87126537785591
 21
625.49999999999989
 31
0.0
  0
LINE
  5
7B87
  8
0
 10
124.62873462214399
 20
625.49999999999989
 30
0.0
 11
122.87126537785591
 21
625.49999999999989
 31
0.0
  0
LINE
  5
7B88
  8
0
 10
126.62873462214409
 20
625.49999999999989
 30
0.0
 11
124.87126537785591
 21
625.49999999999989
 31
0.0
  0
LINE
  5
7B89
  8
0
 10
128.62873462214401
 20
625.49999999999989
 30
0.0
 11
126.87126537785591
 21
625.49999999999989
 31
0.0
  0
LINE
  5
7B8A
  8
0
 10
130.62873462214401
 20
625.49999999999989
 30
0.0
 11
128.87126537785591
 21
625.49999999999989
 31
0.0
  0
LINE
  5
7B8B
  8
0
 10
132.62873462214401
 20
625.49999999999989
 30
0.0
 11
130.87126537785571
 21
625.49999999999989
 31
0.0
  0
LINE
  5
7B8C
  8
0
 10
134.62873462214401
 20
625.49999999999989
 30
0.0
 11
132.87126537785571
 21
625.49999999999989
 31
0.0
  0
LINE
  5
7B8D
  8
0
 10
136.62873462214401
 20
625.49999999999989
 30
0.0
 11
134.87126537785571
 21
625.49999999999989
 31
0.0
  0
LINE
  5
7B8E
  8
0
 10
138.62873462214401
 20
625.49999999999989
 30
0.0
 11
136.87126537785571
 21
625.49999999999989
 31
0.0
  0
LINE
  5
7B8F
  8
0
 10
140.62873462214401
 20
625.49999999999989
 30
0.0
 11
138.87126537785571
 21
625.49999999999989
 31
0.0
  0
LINE
  5
7B90
  8
0
 10
142.62873462214401
 20
625.49999999999989
 30
0.0
 11
140.87126537785591
 21
625.49999999999989
 31
0.0
  0
LINE
  5
7B91
  8
0
 10
144.62873462214401
 20
625.49999999999989
 30
0.0
 11
142.87126537785591
 21
625.49999999999989
 31
0.0
  0
LINE
  5
7B92
  8
0
 10
146.62873462214409
 20
625.49999999999989
 30
0.0
 11
144.87126537785571
 21
625.49999999999989
 31
0.0
  0
LINE
  5
7B93
  8
0
 10
148.62873462214401
 20
625.49999999999989
 30
0.0
 11
146.87126537785571
 21
625.49999999999989
 31
0.0
  0
LINE
  5
7B94
  8
0
 10
150.62873462214409
 20
625.49999999999989
 30
0.0
 11
148.87126537785571
 21
625.49999999999989
 31
0.0
  0
LINE
  5
7B95
  8
0
 10
152.62873462214401
 20
625.49999999999989
 30
0.0
 11
150.87126537785571
 21
625.49999999999989
 31
0.0
  0
LINE
  5
7B96
  8
0
 10
154.62873462214401
 20
625.49999999999989
 30
0.0
 11
152.87126537785571
 21
625.49999999999989
 31
0.0
  0
LINE
  5
7B97
  8
0
 10
156.62873462214401
 20
625.49999999999989
 30
0.0
 11
154.87126537785571
 21
625.49999999999989
 31
0.0
  0
LINE
  5
7B98
  8
0
 10
158.62873462214401
 20
625.49999999999989
 30
0.0
 11
156.87126537785571
 21
625.49999999999989
 31
0.0
  0
LINE
  5
7B99
  8
0
 10
160.62873462214401
 20
625.49999999999989
 30
0.0
 11
158.87126537785571
 21
625.49999999999989
 31
0.0
  0
LINE
  5
7B9A
  8
0
 10
162.62873462214429
 20
625.49999999999989
 30
0.0
 11
160.87126537785571
 21
625.49999999999989
 31
0.0
  0
LINE
  5
7B9B
  8
0
 10
164.62873462214429
 20
625.49999999999989
 30
0.0
 11
162.87126537785571
 21
625.49999999999989
 31
0.0
  0
LINE
  5
7B9C
  8
0
 10
166.62873462214429
 20
625.49999999999989
 30
0.0
 11
164.87126537785571
 21
625.49999999999989
 31
0.0
  0
LINE
  5
7B9D
  8
0
 10
168.62873462214429
 20
625.49999999999989
 30
0.0
 11
166.87126537785591
 21
625.49999999999989
 31
0.0
  0
LINE
  5
7B9E
  8
0
 10
170.62873462214429
 20
625.49999999999989
 30
0.0
 11
168.87126537785591
 21
625.49999999999989
 31
0.0
  0
LINE
  5
7B9F
  8
0
 10
172.62873462214401
 20
625.49999999999989
 30
0.0
 11
170.87126537785591
 21
625.49999999999989
 31
0.0
  0
LINE
  5
7BA0
  8
0
 10
174.62873462214401
 20
625.49999999999989
 30
0.0
 11
172.87126537785591
 21
625.49999999999989
 31
0.0
  0
LINE
  5
7BA1
  8
0
 10
176.62873462214409
 20
625.49999999999989
 30
0.0
 11
174.87126537785591
 21
625.49999999999989
 31
0.0
  0
LINE
  5
7BA2
  8
0
 10
178.62873462214401
 20
625.49999999999989
 30
0.0
 11
176.87126537785591
 21
625.49999999999989
 31
0.0
  0
LINE
  5
7BA3
  8
0
 10
180.62873462214401
 20
625.49999999999989
 30
0.0
 11
178.87126537785591
 21
625.49999999999989
 31
0.0
  0
LINE
  5
7BA4
  8
0
 10
182.62873462214401
 20
625.49999999999989
 30
0.0
 11
180.87126537785591
 21
625.49999999999989
 31
0.0
  0
LINE
  5
7BA5
  8
0
 10
184.62873462214401
 20
625.49999999999989
 30
0.0
 11
182.87126537785591
 21
625.49999999999989
 31
0.0
  0
LINE
  5
7BA6
  8
0
 10
186.62873462214401
 20
625.49999999999989
 30
0.0
 11
184.87126537785591
 21
625.49999999999989
 31
0.0
  0
LINE
  5
7BA7
  8
0
 10
188.62873462214401
 20
625.49999999999989
 30
0.0
 11
186.87126537785591
 21
625.49999999999989
 31
0.0
  0
LINE
  5
7BA8
  8
0
 10
190.62873462214401
 20
625.49999999999989
 30
0.0
 11
188.87126537785591
 21
625.49999999999989
 31
0.0
  0
LINE
  5
7BA9
  8
0
 10
192.62873462214401
 20
625.49999999999989
 30
0.0
 11
190.87126537785591
 21
625.49999999999989
 31
0.0
  0
LINE
  5
7BAA
  8
0
 10
194.62873462214401
 20
625.49999999999989
 30
0.0
 11
192.87126537785591
 21
625.49999999999989
 31
0.0
  0
LINE
  5
7BAB
  8
0
 10
196.62873462214409
 20
625.49999999999989
 30
0.0
 11
194.87126537785591
 21
625.49999999999989
 31
0.0
  0
LINE
  5
7BAC
  8
0
 10
198.62873462214401
 20
625.49999999999989
 30
0.0
 11
196.87126537785591
 21
625.49999999999989
 31
0.0
  0
LINE
  5
7BAD
  8
0
 10
200.62873462214409
 20
625.49999999999989
 30
0.0
 11
198.87126537785591
 21
625.49999999999989
 31
0.0
  0
LINE
  5
7BAE
  8
0
 10
202.62873462214409
 20
625.49999999999989
 30
0.0
 11
200.87126537785591
 21
625.49999999999989
 31
0.0
  0
LINE
  5
7BAF
  8
0
 10
204.62873462214409
 20
625.49999999999989
 30
0.0
 11
202.87126537785591
 21
625.49999999999989
 31
0.0
  0
LINE
  5
7BB0
  8
0
 10
206.62873462214409
 20
625.49999999999989
 30
0.0
 11
204.87126537785591
 21
625.49999999999989
 31
0.0
  0
LINE
  5
7BB1
  8
0
 10
208.62873462214409
 20
625.49999999999989
 30
0.0
 11
206.87126537785591
 21
625.49999999999989
 31
0.0
  0
LINE
  5
7BB2
  8
0
 10
210.62873462214409
 20
625.49999999999989
 30
0.0
 11
208.87126537785591
 21
625.49999999999989
 31
0.0
  0
LINE
  5
7BB3
  8
0
 10
212.62873462214409
 20
625.49999999999989
 30
0.0
 11
210.87126537785591
 21
625.49999999999989
 31
0.0
  0
LINE
  5
7BB4
  8
0
 10
214.62873462214409
 20
625.49999999999989
 30
0.0
 11
212.87126537785591
 21
625.49999999999989
 31
0.0
  0
LINE
  5
7BB5
  8
0
 10
216.62873462214409
 20
625.49999999999989
 30
0.0
 11
214.87126537785591
 21
625.49999999999989
 31
0.0
  0
LINE
  5
7BB6
  8
0
 10
218.62873462214401
 20
625.49999999999989
 30
0.0
 11
216.87126537785591
 21
625.49999999999989
 31
0.0
  0
LINE
  5
7BB7
  8
0
 10
220.62873462214401
 20
625.49999999999989
 30
0.0
 11
218.87126537785591
 21
625.49999999999989
 31
0.0
  0
LINE
  5
7BB8
  8
0
 10
222.62873462214401
 20
625.49999999999989
 30
0.0
 11
220.87126537785591
 21
625.49999999999989
 31
0.0
  0
LINE
  5
7BB9
  8
0
 10
224.62873462214401
 20
625.49999999999989
 30
0.0
 11
222.87126537785591
 21
625.49999999999989
 31
0.0
  0
LINE
  5
7BBA
  8
0
 10
226.62873462214409
 20
625.49999999999989
 30
0.0
 11
224.87126537785599
 21
625.49999999999989
 31
0.0
  0
LINE
  5
7BBB
  8
0
 10
228.62873462214409
 20
625.49999999999989
 30
0.0
 11
226.87126537785599
 21
625.49999999999989
 31
0.0
  0
LINE
  5
7BBC
  8
0
 10
230.62873462214409
 20
625.49999999999989
 30
0.0
 11
228.87126537785599
 21
625.49999999999989
 31
0.0
  0
LINE
  5
7BBD
  8
0
 10
232.62873462214409
 20
625.49999999999989
 30
0.0
 11
230.87126537785599
 21
625.49999999999989
 31
0.0
  0
LINE
  5
7BBE
  8
0
 10
234.62873462214409
 20
625.49999999999989
 30
0.0
 11
232.87126537785591
 21
625.49999999999989
 31
0.0
  0
LINE
  5
7BBF
  8
0
 10
236.62873462214409
 20
625.49999999999989
 30
0.0
 11
234.87126537785591
 21
625.49999999999989
 31
0.0
  0
LINE
  5
7BC0
  8
0
 10
238.62873462214409
 20
625.49999999999989
 30
0.0
 11
236.87126537785591
 21
625.49999999999989
 31
0.0
  0
LINE
  5
7BC1
  8
0
 10
370.62873462214401
 20
625.49999999999989
 30
0.0
 11
368.87126537785588
 21
625.49999999999989
 31
0.0
  0
LINE
  5
7BC2
  8
0
 10
372.62873462214401
 20
625.49999999999989
 30
0.0
 11
370.87126537785588
 21
625.49999999999989
 31
0.0
  0
LINE
  5
7BC3
  8
0
 10
374.62873462214401
 20
625.49999999999989
 30
0.0
 11
372.87126537785588
 21
625.49999999999989
 31
0.0
  0
LINE
  5
7BC4
  8
0
 10
376.62873462214412
 20
625.49999999999989
 30
0.0
 11
374.87126537785599
 21
625.49999999999989
 31
0.0
  0
LINE
  5
7BC5
  8
0
 10
378.62873462214412
 20
625.49999999999989
 30
0.0
 11
376.87126537785599
 21
625.49999999999989
 31
0.0
  0
LINE
  5
7BC6
  8
0
 10
379.5
 20
625.49999999999989
 30
0.0
 11
378.87126537785599
 21
625.49999999999989
 31
0.0
  0
CIRCLE
  5
7BE1
  8
3
 10
239.75
 20
580.49999999999989
 30
0.0
 40
4.0
  0
LINE
  5
7BF2
  8
1
 10
239.75
 20
653.0
 30
0.0
 11
239.75
 21
508.0
 31
0.0
  0
LINE
  5
7BF3
  8
1
 10
389.5
 20
580.49999999999989
 30
0.0
 11
90.0
 21
580.49999999999989
 31
0.0
  0
LINE
  5
7BFA
  8
1
 10
114.75
 20
595.5
 30
0.0
 11
114.75
 21
565.5
 31
0.0
  0
LINE
  5
7BFB
  8
1
 10
364.75
 20
595.5
 30
0.0
 11
364.75
 21
565.5
 31
0.0
  0
CIRCLE
  5
7C38
  8
3
 10
192.0
 20
210.5
 30
0.0
 40
5.0
  0
CIRCLE
  5
7C39
  8
3
 10
288.0
 20
210.5
 30
0.0
 40
5.0
  0
CIRCLE
  5
7C3A
  8
3
 10
288.0
 20
114.5
 30
0.0
 40
5.0
  0
CIRCLE
  5
7C3B
  8
3
 10
192.0
 20
114.5
 30
0.0
 40
5.0
  0
CIRCLE
  5
7C3C
  8
3
 10
342.75
 20
162.5
 30
0.0
 40
3.0
  0
CIRCLE
  5
7C3D
  8
3
 10
239.75
 20
208.75
 30
0.0
 40
3.0
  0
CIRCLE
  5
7C3E
  8
3
 10
239.75
 20
116.25
 30
0.0
 40
3.0
  0
CIRCLE
  5
7C3F
  8
3
 10
136.75
 20
162.5
 30
0.0
 40
3.0
  0
CIRCLE
  5
7C41
  8
3
 10
239.75
 20
162.5
 30
0.0
 40
6.0
  0
LINE
  5
7C53
  8
1
 10
342.75
 20
170.5
 30
0.0
 11
342.75
 21
154.5
 31
0.0
  0
LINE
  5
7C54
  8
1
 10
364.75
 20
173.5
 30
0.0
 11
364.75
 21
151.5
 31
0.0
  0
LINE
  5
7C55
  8
1
 10
136.75
 20
170.5
 30
0.0
 11
136.75
 21
154.5
 31
0.0
  0
LINE
  5
7C56
  8
1
 10
114.75
 20
173.5
 30
0.0
 11
114.75
 21
151.5
 31
0.0
  0
LINE
  5
7C57
  8
1
 10
247.75
 20
208.75
 30
0.0
 11
231.75
 21
208.75
 31
0.0
  0
LINE
  5
7C58
  8
1
 10
247.75
 20
116.25
 30
0.0
 11
231.75
 21
116.25
 31
0.0
  0
LINE
  5
7C7B
  8
1
 10
178.0
 20
152.5
 30
0.0
 11
178.0
 21
172.5
 31
0.0
  0
LINE
  5
7C91
  8
1
 10
192.0
 20
101.5
 30
0.0
 11
192.0
 21
127.5
 31
0.0
  0
LINE
  5
7C92
  8
1
 10
288.0
 20
101.5
 30
0.0
 11
288.0
 21
127.5
 31
0.0
  0
LINE
  5
7C93
  8
1
 10
179.0
 20
210.5
 30
0.0
 11
205.0
 21
210.5
 31
0.0
  0
LINE
  5
7C94
  8
1
 10
179.0
 20
114.5
 30
0.0
 11
205.0
 21
114.5
 31
0.0
  0
LINE
  5
7C99
  8
1
 10
288.0
 20
197.5
 30
0.0
 11
288.0
 21
223.5
 31
0.0
  0
LINE
  5
7C9A
  8
1
 10
275.0
 20
114.5
 30
0.0
 11
301.0
 21
114.5
 31
0.0
  0
LINE
  5
7C9B
  8
1
 10
192.0
 20
197.5
 30
0.0
 11
192.0
 21
223.5
 31
0.0
  0
LINE
  5
7C9C
  8
1
 10
275.0
 20
210.5
 30
0.0
 11
301.0
 21
210.5
 31
0.0
  0
LINE
  5
7CBC
  8
1
 10
239.75
 20
90.0
 30
0.0
 11
239.75
 21
235.0
 31
0.0
  0
LINE
  5
7CBD
  8
1
 10
90.0
 20
162.5
 30
0.0
 11
389.5
 21
162.5
 31
0.0
  0
ENDSEC
  0
EOF
