  0
SECTION
  2
HEADER
  9
$ACADVER
  1
AC1009
  9
$INSBASE
 10
0.0
 20
0.0
 30
0.0
  9
$EXTMIN
 10
0.0
 20
-2.960436562073669
 30
0.0
  9
$EXTMAX
 10
178.48974742614379
 20
154.4439731288295
 30
0.0
  9
$LIMMIN
 10
0.0
 20
0.0
  9
$LIMMAX
 10
187.5
 20
135.0
  9
$ORTHOMODE
 70
     1
  9
$REGENMODE
 70
     1
  9
$FILLMODE
 70
     1
  9
$QTEXTMODE
 70
     0
  9
$MIRRTEXT
 70
     0
  9
$DRAGMODE
 70
     2
  9
$LTSCALE
 40
5.0
  9
$OSMODE
 70
  3071
  9
$ATTMODE
 70
     1
  9
$TEXTSIZE
 40
0.2
  9
$TRACEWID
 40
0.05
  9
$TEXTSTYLE
  7
STANDARD
  9
$CLAYER
  8
0
  9
$CELTYPE
  6
BYLAYER
  9
$CECOLOR
 62
   256
  9
$DIMSCALE
 40
0.5
  9
$DIMASZ
 40
3.0
  9
$DIMEXO
 40
2.0
  9
$DIMDLI
 40
0.38
  9
$DIMRND
 40
0.0
  9
$DIMDLE
 40
0.0
  9
$DIMEXE
 40
2.0
  9
$DIMTP
 40
0.0
  9
$DIMTM
 40
0.0
  9
$DIMTXT
 40
3.2000000000000002
  9
$DIMCEN
 40
0.0
  9
$DIMTSZ
 40
0.0
  9
$DIMTOL
 70
     0
  9
$DIMLIM
 70
     0
  9
$DIMTIH
 70
     0
  9
$DIMTOH
 70
     0
  9
$DIMSE1
 70
     0
  9
$DIMSE2
 70
     0
  9
$DIMTAD
 70
     1
  9
$DIMZIN
 70
     0
  9
$DIMBLK
  1

  9
$DIMASO
 70
     1
  9
$DIMSHO
 70
     0
  9
$DIMPOST
  1

  9
$DIMAPOST
  1

  9
$DIMALT
 70
     0
  9
$DIMALTD
 70
     2
  9
$DIMALTF
 40
25.399999999999999
  9
$DIMLFAC
 40
1.0
  9
$DIMTOFL
 70
     0
  9
$DIMTVP
 40
1.6000000000000001
  9
$DIMTIX
 70
     1
  9
$DIMSOXD
 70
     0
  9
$DIMSAH
 70
     0
  9
$DIMBLK1
  1

  9
$DIMBLK2
  1

  9
$DIMSTYLE
  2
STANDARD
  9
$DIMCLRD
 70
     0
  9
$DIMCLRE
 70
     0
  9
$DIMCLRT
 70
     0
  9
$DIMTFAC
 40
1.0
  9
$DIMGAP
 40
0.09
  9
$LUNITS
 70
     2
  9
$LUPREC
 70
     4
  9
$SKETCHINC
 40
0.1
  9
$FILLETRAD
 40
5.0
  9
$AUNITS
 70
     0
  9
$AUPREC
 70
     0
  9
$MENU
  1
E:\r13\win\SUPPORT\ACAD
  9
$ELEVATION
 40
0.0
  9
$PELEVATION
 40
0.0
  9
$THICKNESS
 40
0.0
  9
$LIMCHECK
 70
     0
  9
$BLIPMODE
 70
     0
  9
$CHAMFERA
 40
0.0
  9
$CHAMFERB
 40
0.0
  9
$SKPOLY
 70
     0
  9
$TDCREATE
 40
2449840.613715278
  9
$TDUPDATE
 40
2456597.4740094328
  9
$TDINDWG
 40
0.0123916088
  9
$TDUSRTIMER
 40
0.0123916088
  9
$USRTIMER
 70
     1
  9
$ANGBASE
 50
0.0
  9
$ANGDIR
 70
     0
  9
$PDMODE
 70
     0
  9
$PDSIZE
 40
0.0
  9
$PLINEWID
 40
0.0
  9
$COORDS
 70
     1
  9
$SPLFRAME
 70
     0
  9
$SPLINETYPE
 70
     6
  9
$SPLINESEGS
 70
     8
  9
$ATTDIA
 70
     0
  9
$ATTREQ
 70
     1
  9
$HANDLING
 70
     1
  9
$HANDSEED
  5
BE5
  9
$SURFTAB1
 70
     6
  9
$SURFTAB2
 70
     6
  9
$SURFTYPE
 70
     6
  9
$SURFU
 70
     6
  9
$SURFV
 70
     6
  9
$UCSNAME
  2

  9
$UCSORG
 10
0.0
 20
0.0
 30
0.0
  9
$UCSXDIR
 10
1.0
 20
0.0
 30
0.0
  9
$UCSYDIR
 10
0.0
 20
1.0
 30
0.0
  9
$PUCSNAME
  2

  9
$PUCSORG
 10
0.0
 20
0.0
 30
0.0
  9
$PUCSXDIR
 10
1.0
 20
0.0
 30
0.0
  9
$PUCSYDIR
 10
0.0
 20
1.0
 30
0.0
  9
$USERI1
 70
     0
  9
$USERI2
 70
     1
  9
$USERI3
 70
     1
  9
$USERI4
 70
     0
  9
$USERI5
 70
     0
  9
$USERR1
 40
0.0
  9
$USERR2
 40
0.0
  9
$USERR3
 40
0.0
  9
$USERR4
 40
0.0
  9
$USERR5
 40
0.0
  9
$WORLDVIEW
 70
     1
  9
$SHADEDGE
 70
     3
  9
$SHADEDIF
 70
    70
  9
$TILEMODE
 70
     1
  9
$MAXACTVP
 70
    16
  9
$PLIMCHECK
 70
     0
  9
$PEXTMIN
 10
1.0000000000000000E+020
 20
1.0000000000000000E+020
 30
1.0000000000000000E+020
  9
$PEXTMAX
 10
-1.0000000000000000E+020
 20
-1.0000000000000000E+020
 30
-1.0000000000000000E+020
  9
$PLIMMIN
 10
0.0
 20
0.0
  9
$PLIMMAX
 10
12.0
 20
9.0
  9
$UNITMODE
 70
     0
  9
$VISRETAIN
 70
     0
  9
$PLINEGEN
 70
     0
  9
$PSLTSCALE
 70
     0
  0
ENDSEC
  0
SECTION
  2
TABLES
  0
TABLE
  2
VPORT
 70
     1
  0
VPORT
  2
*ACTIVE
 70
     0
 10
0.0
 20
0.0
 11
1.0
 21
1.0
 12
93.747139195326156
 22
92.667274315278064
 13
0.0
 23
0.0
 14
5.0
 24
5.0
 15
5.0
 25
5.0
 16
0.0
 26
0.0
 36
1.0
 17
0.0
 27
0.0
 37
0.0
 40
193.0684321991466
 41
1.9089595375722539
 42
50.0
 43
0.0
 44
0.0
 50
0.0
 51
0.0
 71
     0
 72
   500
 73
     1
 74
     0
 75
     0
 76
     0
 77
     0
 78
     0
  0
ENDTAB
  0
TABLE
  2
LTYPE
 70
     4
  0
LTYPE
  2
CONTINUOUS
 70
     0
  3
Solid Line
 72
    65
 73
     0
 40
0.0
  0
LTYPE
  2
CENTER
 70
     0
  3
____ _ ____ _ ____ _ ____ _ ____ _ ____ _ ____
 72
    65
 73
     4
 40
2.0
 49
1.25
 49
-0.25
 49
0.25
 49
-0.25
  0
LTYPE
  2
HIDDEN
 70
     0
  3
_ _ _ _ _ _ _ _ _ _ _ _ _ _ _ _ _ _ _ _ _ _ _
 72
    65
 73
     2
 40
0.375
 49
0.25
 49
-0.125
  0
LTYPE
  2
PHANTOM2
 70
     0
  3
___ _ _ ___ _ _ ___ _ _ ___ _ _
 72
    65
 73
     6
 40
1.25
 49
0.625
 49
-0.125
 49
0.125
 49
-0.125
 49
0.125
 49
-0.125
  0
ENDTAB
  0
TABLE
  2
LAYER
 70
     4
  0
LAYER
  2
0
 70
     0
 62
     7
  6
CONTINUOUS
  0
LAYER
  2
1
 70
     0
 62
     1
  6
CENTER
  0
LAYER
  2
3
 70
     0
 62
     3
  6
CONTINUOUS
  0
LAYER
  2
2
 70
     0
 62
     2
  6
HIDDEN
  0
ENDTAB
  0
TABLE
  2
STYLE
 70
     2
  0
STYLE
  2
STANDARD
 70
     0
 40
0.0
 41
1.0
 50
0.0
 71
     0
 42
0.2
  3
TXT
  4
BIGFONT
  0
STYLE
  2
STANDARD1
 70
     0
 40
0.0
 41
1.0
 50
0.0
 71
     0
 42
3.0
  3
txt
  4

  0
ENDTAB
  0
TABLE
  2
VIEW
 70
     1
  0
VIEW
  2
ALL
 70
     0
 40
175.0
 10
143.23529411764699
 20
87.5
 41
0.0
 11
0.0
 21
0.0
 31
1.0
 12
0.0
 22
0.0
 32
0.0
 42
0.0
 43
0.0
 44
0.0
 50
0.0
 71
     0
  0
ENDTAB
  0
TABLE
  2
UCS
 70
     0
  0
ENDTAB
  0
TABLE
  2
APPID
 70
     3
  0
APPID
  2
ACAD
 70
     0
  0
APPID
  2
ACAD_MLEADERVER
 70
     0
  0
APPID
  2
ACAD_NAV_VCDISPLAY
 70
     0
  0
ENDTAB
  0
TABLE
  2
DIMSTYLE
 70
     1
  0
DIMSTYLE
  2
STANDARD
 70
     0
  3

  4

  5

  6

  7

 40
1.0
 41
0.18
 42
0.0625
 43
0.38
 44
0.18
 45
0.0
 46
0.0
 47
0.0
 48
0.0
140
0.18
141
0.09
142
0.0
143
25.399999999999999
144
1.0
145
0.0
146
1.0
147
0.09
 71
     0
 72
     0
 73
     1
 74
     1
 75
     0
 76
     0
 77
     0
 78
     0
170
     0
171
     2
172
     0
173
     0
174
     0
175
     0
176
     0
177
     0
178
     0
  0
ENDTAB
  0
ENDSEC
  0
SECTION
  2
BLOCKS
  0
BLOCK
  8
0
  2
$MODEL_SPACE
 70
     0
 10
0.0
 20
0.0
 30
0.0
  3
$MODEL_SPACE
  1

  0
ENDBLK
  5
35B
  8
0
  0
BLOCK
 67
     1
  8
0
  2
$PAPER_SPACE
 70
     0
 10
0.0
 20
0.0
 30
0.0
  3
$PAPER_SPACE
  1

  0
ENDBLK
  5
359
 67
     1
  8
0
  0
BLOCK
  8
0
  2
STDGX5
 70
     0
 10
0.0
 20
0.0
 30
0.0
  3
STDGX5
  1

  0
ENDBLK
  5
26F
  8
0
  0
ENDSEC
  0
SECTION
  2
ENTITIES
  0
INSERT
  5
308
  8
0
  2
STDGX5
 10
0.0
 20
0.0
 30
0.0
 41
0.5
 42
0.5
 43
0.5
  0
INSERT
  5
309
  8
0
  2
STDGX5
 10
0.0
 20
0.0
 30
0.0
 41
0.5
 42
0.5
 43
0.5
  0
INSERT
  5
30A
  8
0
  2
STDGX5
 10
137.5
 20
0.0
 30
0.0
 41
0.5
 42
0.5
 43
0.5
  0
INSERT
  5
30B
  8
0
  2
STDGX5
 10
137.5
 20
0.0
 30
0.0
 41
0.5
 42
0.5
 43
0.5
  0
LINE
  5
5D9
  8
2
 10
168.28124742614369
 20
76.188827396348472
 30
0.0
 11
173.19824742614389
 21
76.188827396348472
 31
0.0
  0
LINE
  5
5DA
  8
2
 10
173.19824742614401
 20
76.188827396348472
 30
0.0
 11
174.19824742614401
 21
75.188827396348472
 31
0.0
  0
LINE
  5
5DB
  8
2
 10
167.28124742614369
 20
75.188827396348472
 30
0.0
 11
168.28124742614389
 21
76.188827396348586
 31
0.0
  0
LINE
  5
5DC
  8
2
 10
167.73974742614391
 20
84.188827396348472
 30
0.0
 11
168.28124742614389
 21
85.126732908646815
 31
0.0
  0
LINE
  5
5DD
  8
2
 10
173.73974742614379
 20
84.188827396348472
 30
0.0
 11
173.19824742614389
 21
85.126732908646815
 31
0.0
  0
LINE
  5
5DE
  8
2
 10
173.19824742614401
 20
86.188827396348586
 30
0.0
 11
170.73974742614391
 21
87.666043228227807
 31
0.0
  0
LINE
  5
5DF
  8
2
 10
168.28124742614389
 20
86.188827396348458
 30
0.0
 11
170.73974742614391
 21
87.666043228227807
 31
0.0
  0
LINE
  5
5E0
  8
2
 10
168.28124742614369
 20
86.188827396348458
 30
0.0
 11
173.19824742614401
 21
86.188827396348458
 31
0.0
  0
LINE
  5
5E1
  8
2
 10
167.73974742614379
 20
84.188827396348472
 30
0.0
 11
173.73974742614379
 21
84.188827396348472
 31
0.0
  0
LINE
  5
5E2
  8
2
 10
173.73974742614379
 20
75.647327396348658
 30
0.0
 11
173.73974742614391
 21
84.188827396348472
 31
0.0
  0
LINE
  5
5E3
  8
2
 10
173.19824742614401
 20
76.188827396348472
 30
0.0
 11
173.19824742614401
 21
86.188827396348458
 31
0.0
  0
LINE
  5
5E4
  8
2
 10
168.28124742614369
 20
76.188827396348472
 30
0.0
 11
168.28124742614389
 21
86.188827396348458
 31
0.0
  0
LINE
  5
5E5
  8
2
 10
167.73974742614379
 20
75.647327396348658
 30
0.0
 11
167.73974742614391
 21
84.188827396348472
 31
0.0
  0
CIRCLE
  5
5E6
  8
3
 10
93.067023178027725
 20
35.230967471262829
 30
0.0
 40
3.0
  0
CIRCLE
  5
5E7
  8
0
 10
93.067023178027725
 20
35.230967471262829
 30
0.0
 40
2.458499999999999
  0
LINE
  5
5E8
  8
2
 10
90.067023178027853
 20
75.647327396348658
 30
0.0
 11
90.067023178027966
 21
84.188827396348472
 31
0.0
  0
LINE
  5
5E9
  8
2
 10
90.608523178027781
 20
76.188827396348472
 30
0.0
 11
90.608523178027895
 21
86.188827396348458
 31
0.0
  0
LINE
  5
5EA
  8
2
 10
95.525523178028038
 20
76.188827396348472
 30
0.0
 11
95.525523178028038
 21
86.188827396348458
 31
0.0
  0
LINE
  5
5EB
  8
2
 10
96.067023178027853
 20
75.647327396348658
 30
0.0
 11
96.067023178027966
 21
84.188827396348472
 31
0.0
  0
LINE
  5
5EC
  8
2
 10
90.067023178027853
 20
84.188827396348472
 30
0.0
 11
96.067023178027853
 21
84.188827396348472
 31
0.0
  0
LINE
  5
5ED
  8
2
 10
90.608523178027781
 20
86.188827396348458
 30
0.0
 11
95.525523178028038
 21
86.188827396348458
 31
0.0
  0
LINE
  5
5EE
  8
2
 10
90.608523178027895
 20
86.188827396348458
 30
0.0
 11
93.067023178027966
 21
87.666043228227807
 31
0.0
  0
LINE
  5
5EF
  8
2
 10
95.525523178028038
 20
86.188827396348586
 30
0.0
 11
93.067023178027966
 21
87.666043228227807
 31
0.0
  0
LINE
  5
5F0
  8
2
 10
96.067023178027853
 20
84.188827396348472
 30
0.0
 11
95.525523178027925
 21
85.126732908646815
 31
0.0
  0
LINE
  5
5F1
  8
2
 10
90.067023178027966
 20
84.188827396348472
 30
0.0
 11
90.608523178027895
 21
85.126732908646815
 31
0.0
  0
LINE
  5
5F2
  8
2
 10
89.608523178027781
 20
75.188827396348472
 30
0.0
 11
90.608523178027895
 21
76.188827396348586
 31
0.0
  0
LINE
  5
5F3
  8
2
 10
95.525523178028038
 20
76.188827396348472
 30
0.0
 11
96.525523178028038
 21
75.188827396348472
 31
0.0
  0
LINE
  5
5F4
  8
2
 10
90.608523178027781
 20
76.188827396348472
 30
0.0
 11
95.525523178027925
 21
76.188827396348472
 31
0.0
  0
LINE
  5
5F5
  8
2
 10
45.935798929911527
 20
76.188827396348415
 30
0.0
 11
50.852798929911671
 21
76.188827396348415
 31
0.0
  0
LINE
  5
5F6
  8
2
 10
50.852798929911728
 20
76.188827396348415
 30
0.0
 11
51.852798929911721
 21
75.188827396348415
 31
0.0
  0
LINE
  5
5F7
  8
2
 10
44.935798929911471
 20
75.188827396348415
 30
0.0
 11
45.935798929911577
 21
76.188827396348529
 31
0.0
  0
LINE
  5
5F8
  8
2
 10
45.394298929911713
 20
84.188827396348415
 30
0.0
 11
45.935798929911641
 21
85.126732908646773
 31
0.0
  0
LINE
  5
5F9
  8
2
 10
51.394298929911592
 20
84.188827396348415
 30
0.0
 11
50.852798929911671
 21
85.126732908646773
 31
0.0
  0
LINE
  5
5FA
  8
2
 10
50.852798929911728
 20
86.188827396348529
 30
0.0
 11
48.394298929911663
 21
87.66604322822775
 31
0.0
  0
LINE
  5
5FB
  8
2
 10
45.935798929911577
 20
86.188827396348415
 30
0.0
 11
48.394298929911663
 21
87.66604322822775
 31
0.0
  0
LINE
  5
5FC
  8
2
 10
45.935798929911527
 20
86.188827396348415
 30
0.0
 11
50.852798929911728
 21
86.188827396348415
 31
0.0
  0
LINE
  5
5FD
  8
2
 10
45.394298929911599
 20
84.188827396348415
 30
0.0
 11
51.394298929911592
 21
84.188827396348415
 31
0.0
  0
LINE
  5
5FE
  8
2
 10
51.394298929911592
 20
75.647327396348601
 30
0.0
 11
51.394298929911663
 21
84.188827396348415
 31
0.0
  0
LINE
  5
5FF
  8
2
 10
50.852798929911728
 20
76.188827396348415
 30
0.0
 11
50.852798929911728
 21
86.188827396348415
 31
0.0
  0
LINE
  5
600
  8
2
 10
45.935798929911527
 20
76.188827396348415
 30
0.0
 11
45.935798929911577
 21
86.188827396348415
 31
0.0
  0
LINE
  5
601
  8
2
 10
45.394298929911599
 20
75.647327396348601
 30
0.0
 11
45.394298929911649
 21
84.188827396348415
 31
0.0
  0
LINE
  5
602
  8
1
 10
83.567023178027625
 20
144.94397312882941
 30
0.0
 11
135.5670231780278
 21
144.94397312882941
 31
0.0
  0
LINE
  5
603
  8
1
 10
127.8170231780277
 20
152.69397312882981
 30
0.0
 11
127.8170231780278
 21
137.1939731288295
 31
0.0
  0
LINE
  5
604
  8
1
 10
93.067023178027796
 20
154.4439731288295
 30
0.0
 11
93.067023178027796
 21
135.4439731288293
 31
0.0
  0
LINE
  5
605
  8
1
 10
93.067023178027796
 20
101.6888273963484
 30
0.0
 11
93.067023178027867
 21
72.687470300044538
 31
0.0
  0
LINE
  5
606
  8
0
 10
86.367023178027807
 20
89.987470300032953
 30
0.0
 11
86.752023178027798
 21
79.388827396348404
 31
0.0
  0
LINE
  5
607
  8
0
 10
86.752023178027798
 20
79.388827396348404
 30
0.0
 11
99.382023178027794
 21
79.388827396348461
 31
0.0
  0
LINE
  5
608
  8
0
 10
86.952023178027787
 20
79.188827396348415
 30
0.0
 11
99.182023178027805
 21
79.188827396348415
 31
0.0
  0
LINE
  5
609
  8
0
 10
86.952023178027787
 20
79.188827396348415
 30
0.0
 11
86.752023178027798
 21
79.388827396348404
 31
0.0
  0
LINE
  5
60A
  8
0
 10
99.182023178027805
 20
79.188827396348415
 30
0.0
 11
99.382023178027794
 21
79.388827396348404
 31
0.0
  0
LINE
  5
60B
  8
1
 10
93.067023178027824
 20
92.672329988263854
 30
0.0
 11
135.24791802936329
 21
105.1398048402117
 31
0.0
  0
LINE
  5
60C
  8
0
 10
100.81254480246849
 20
90.408085058461154
 30
0.0
 11
124.38574431158101
 21
98.96531190742985
 31
0.0
  0
LINE
  5
60D
  8
0
 10
86.367023178027807
 20
89.987470300032953
 30
0.0
 11
99.767023178027884
 21
89.98747030003301
 31
0.0
  0
ARC
  5
60E
  8
0
 10
86.067023178027796
 20
89.987470300032953
 30
0.0
 40
0.3
 50
0.0
 51
90.0
  0
LINE
  5
60F
  8
0
 10
86.067023178027796
 20
90.287470300032965
 30
0.0
 11
100.1285045158172
 21
90.287470300032965
 31
0.0
  0
LINE
  5
610
  8
1
 10
125.61590425657241
 20
110.3696803415769
 30
0.0
 11
130.0181420994831
 21
95.507974451119992
 31
0.0
  0
LINE
  5
611
  8
0
 10
97.043458277894558
 20
140.15967771339189
 30
0.0
 11
123.5983889203564
 21
141.81897312882941
 31
0.0
  0
LINE
  5
612
  8
0
 10
97.043458277894445
 20
149.72826854426711
 30
0.0
 11
123.598388920356
 21
148.06897312882941
 31
0.0
  0
ARC
  5
613
  8
0
 10
55.359298929911567
 20
89.987470300032953
 30
0.0
 40
0.3
 50
90.0
 51
180.0
  0
ARC
  5
614
  8
0
 10
41.429298929911617
 20
89.987470300032953
 30
0.0
 40
0.3
 50
0.0
 51
90.0
  0
LINE
  5
615
  8
0
 10
41.729298929911579
 20
89.987470300032953
 30
0.0
 11
55.059298929911613
 21
89.987470300032953
 31
0.0
  0
LINE
  5
616
  8
0
 10
54.509298929911608
 20
79.188827396348415
 30
0.0
 11
54.709298929911597
 21
79.388827396348404
 31
0.0
  0
LINE
  5
617
  8
0
 10
55.059298929911613
 20
89.987470300032953
 30
0.0
 11
54.709298929911597
 21
79.388827396348404
 31
0.0
  0
LINE
  5
618
  8
0
 10
42.279298929911583
 20
79.188827396348415
 30
0.0
 11
42.079298929911602
 21
79.388827396348404
 31
0.0
  0
LINE
  5
619
  8
0
 10
42.279298929911583
 20
79.188827396348415
 30
0.0
 11
54.509298929911608
 21
79.188827396348415
 31
0.0
  0
LINE
  5
61A
  8
0
 10
42.079298929911602
 20
79.388827396348404
 30
0.0
 11
54.709298929911597
 21
79.388827396348461
 31
0.0
  0
LINE
  5
61B
  8
0
 10
41.729298929911579
 20
89.987470300032953
 30
0.0
 11
42.079298929911602
 21
79.388827396348404
 31
0.0
  0
LINE
  5
61C
  8
1
 10
48.394298929911599
 20
110.6888273963484
 30
0.0
 11
48.394298929911599
 21
72.687470300044538
 31
0.0
  0
LINE
  5
61D
  8
1
 10
40.644298929911592
 20
102.9388273963484
 30
0.0
 11
56.144298929911599
 21
102.9388273963484
 31
0.0
  0
POLYLINE
  5
61E
  8
3
 66
     1
 10
0.0
 20
0.0
 30
0.0
 70
     1
  0
VERTEX
  5
61F
  8
3
 10
103.14104004428491
 20
143.41218531744559
 30
0.0
  0
VERTEX
  5
620
  8
3
 10
103.5420316179456
 20
143.62604749006471
 30
0.0
  0
VERTEX
  5
621
  8
3
 10
103.5420316179456
 20
142.98980752652301
 30
0.0
  0
VERTEX
  5
622
  8
3
 10
103.996488734761
 20
142.98980752652301
 30
0.0
  0
VERTEX
  5
623
  8
3
 10
103.996488734761
 20
143.76238462510929
 30
0.0
  0
VERTEX
  5
624
  8
3
 10
104.1101030139649
 20
143.8078303367908
 30
0.0
  0
VERTEX
  5
625
  8
3
 10
104.1101030139649
 20
143.51243321086079
 30
0.0
 42
0.5661903789690232
  0
VERTEX
  5
626
  8
3
 10
104.2771828363235
 20
143.41218531744559
 30
0.0
  0
VERTEX
  5
627
  8
3
 10
104.67817440998419
 20
143.62604749006471
 30
0.0
  0
VERTEX
  5
628
  8
3
 10
104.67817440998419
 20
142.98980752652301
 30
0.0
  0
VERTEX
  5
629
  8
3
 10
105.1326315267995
 20
142.98980752652301
 30
0.0
  0
VERTEX
  5
62A
  8
3
 10
105.1326315267995
 20
143.76238462510929
 30
0.0
  0
VERTEX
  5
62B
  8
3
 10
105.2462458060034
 20
143.8078303367908
 30
0.0
  0
VERTEX
  5
62C
  8
3
 10
105.2462458060034
 20
143.51243321086079
 30
0.0
 42
0.5661903789690179
  0
VERTEX
  5
62D
  8
3
 10
105.4133256283621
 20
143.41218531744559
 30
0.0
  0
VERTEX
  5
62E
  8
3
 10
105.8370400578634
 20
143.63816634651309
 30
0.0
  0
VERTEX
  5
62F
  8
3
 10
105.8370400578634
 20
144.2004042799559
 30
0.0
 42
0.0094958374053504
  0
VERTEX
  5
630
  8
3
 10
105.70070292281891
 20
144.12595031856159
 30
0.0
  0
VERTEX
  5
631
  8
3
 10
105.70070292281891
 20
144.4213474444916
 30
0.0
 42
0.4912422865174231
  0
VERTEX
  5
632
  8
3
 10
105.55835615896819
 20
144.53126854694719
 30
0.0
 42
0.0273475274774147
  0
VERTEX
  5
633
  8
3
 10
105.1326315267995
 20
144.3947316130363
 30
0.0
  0
VERTEX
  5
634
  8
3
 10
105.1326315267995
 20
144.53496172369549
 30
0.0
  0
VERTEX
  5
635
  8
3
 10
104.67817440998419
 20
144.53496172369549
 30
0.0
  0
VERTEX
  5
636
  8
3
 10
104.67817440998419
 20
144.18845896193261
 30
0.0
 42
0.0079266050657673
  0
VERTEX
  5
637
  8
3
 10
104.56456013078029
 20
144.12595031856159
 30
0.0
  0
VERTEX
  5
638
  8
3
 10
104.56456013078029
 20
144.4213474444916
 30
0.0
 42
0.491242286517397
  0
VERTEX
  5
639
  8
3
 10
104.4222133669297
 20
144.53126854694719
 30
0.0
 42
0.0273475274774148
  0
VERTEX
  5
63A
  8
3
 10
103.996488734761
 20
144.3947316130363
 30
0.0
  0
VERTEX
  5
63B
  8
3
 10
103.996488734761
 20
144.53496172369549
 30
0.0
  0
VERTEX
  5
63C
  8
3
 10
103.5420316179456
 20
144.53496172369549
 30
0.0
  0
VERTEX
  5
63D
  8
3
 10
103.5420316179456
 20
144.18845896193261
 30
0.0
 42
0.0079266050657672
  0
VERTEX
  5
63E
  8
3
 10
103.4284173387417
 20
144.12595031856159
 30
0.0
  0
VERTEX
  5
63F
  8
3
 10
103.4284173387417
 20
144.53496172369549
 30
0.0
  0
VERTEX
  5
640
  8
3
 10
102.9739602219263
 20
144.53496172369549
 30
0.0
  0
VERTEX
  5
641
  8
3
 10
102.9739602219263
 20
144.18845896193261
 30
0.0
 42
0.0079266050657673
  0
VERTEX
  5
642
  8
3
 10
102.8603459427225
 20
144.12595031856159
 30
0.0
  0
VERTEX
  5
643
  8
3
 10
102.8603459427225
 20
144.44407030033241
 30
0.0
 42
0.4142135623730951
  0
VERTEX
  5
644
  8
3
 10
102.7694545193594
 20
144.53496172369549
 30
0.0
  0
VERTEX
  5
645
  8
3
 10
102.5572199056943
 20
144.53496172369549
 30
0.0
  0
VERTEX
  5
646
  8
3
 10
103.1880607364012
 20
146.36705652631679
 30
0.0
 42
-0.3201025237009698
  0
VERTEX
  5
647
  8
3
 10
103.2954851478419
 20
146.44368161432021
 30
0.0
  0
VERTEX
  5
648
  8
3
 10
103.4284173387417
 20
146.44368161432021
 30
0.0
  0
VERTEX
  5
649
  8
3
 10
103.4284173387417
 20
146.48912732600181
 30
0.0
  0
VERTEX
  5
64A
  8
3
 10
104.44551710883189
 20
146.44047246400399
 30
0.0
 42
0.4282843006882171
  0
VERTEX
  5
64B
  8
3
 10
104.56456013078029
 20
146.55395697039691
 30
0.0
  0
VERTEX
  5
64C
  8
3
 10
104.56456013078029
 20
146.78786337505909
 30
0.0
 42
0.4282843006881943
  0
VERTEX
  5
64D
  8
3
 10
104.44551710883189
 20
146.9013478814519
 30
0.0
  0
VERTEX
  5
64E
  8
3
 10
103.4284173387417
 20
146.85269301945411
 30
0.0
  0
VERTEX
  5
64F
  8
3
 10
103.4284173387417
 20
146.8981387311357
 30
0.0
  0
VERTEX
  5
650
  8
3
 10
103.1004286390768
 20
146.8981387311357
 30
0.0
 42
0.3201025237009531
  0
VERTEX
  5
651
  8
3
 10
102.8855798161957
 20
146.7448885551288
 30
0.0
  0
VERTEX
  5
652
  8
3
 10
102.1559374116586
 20
144.62585314705859
 30
0.0
  0
VERTEX
  5
653
  8
3
 10
102.1559374116586
 20
145.46823024081539
 30
0.0
 42
-0.2679491924311325
  0
VERTEX
  5
654
  8
3
 10
102.2468288350216
 20
145.62565880405251
 30
0.0
  0
VERTEX
  5
655
  8
3
 10
101.1561317546646
 20
145.62565880405251
 30
0.0
 42
-0.2679491924311324
  0
VERTEX
  5
656
  8
3
 10
101.2470231780277
 20
145.46823024081539
 30
0.0
  0
VERTEX
  5
657
  8
3
 10
101.2470231780277
 20
143.3988189316569
 30
0.0
  0
VERTEX
  5
658
  8
3
 10
102.1559374116586
 20
143.3988189316569
 30
0.0
  0
VERTEX
  5
659
  8
3
 10
102.1559374116586
 20
143.9441674718355
 30
0.0
  0
VERTEX
  5
65A
  8
3
 10
102.2695516908624
 20
143.9441674718355
 30
0.0
  0
VERTEX
  5
65B
  8
3
 10
102.2695516908624
 20
143.51243321086079
 30
0.0
 42
0.566190378969028
  0
VERTEX
  5
65C
  8
3
 10
102.436631513221
 20
143.41218531744559
 30
0.0
  0
VERTEX
  5
65D
  8
3
 10
102.9739602219263
 20
143.65788545294859
 30
0.0
  0
VERTEX
  5
65E
  8
3
 10
102.9739602219263
 20
143.51243321086079
 30
0.0
 42
0.566190378969059
  0
SEQEND
  5
65F
  8
3
  0
POLYLINE
  5
660
  8
3
 66
     1
 10
0.0
 20
0.0
 30
0.0
 70
     1
  0
VERTEX
  5
661
  8
3
 10
103.4738630504233
 20
144.98941884051089
 30
0.0
 42
1.0000000552842581
  0
VERTEX
  5
662
  8
3
 10
102.9285145102448
 20
144.98941884051089
 30
0.0
 42
1.0000000552842581
  0
SEQEND
  5
663
  8
3
  0
LINE
  5
664
  8
0
 10
86.067023178027796
 20
90.287470300032965
 30
0.0
 11
86.067023178027739
 21
90.608827396348374
 31
0.0
  0
LINE
  5
665
  8
0
 10
41.429298929911617
 20
90.287470300032965
 30
0.0
 11
55.359298929911567
 21
90.287470300032965
 31
0.0
  0
POLYLINE
  5
666
  8
0
 10
41.394298929911599
 20
92.617568567637704
 30
0.0
 66
     1
 70
     8
  0
VERTEX
  8
0
  5
857
 10
41.3943
 20
92.6176
 30
0.000000
  70
    32
  0
VERTEX
  8
0
  5
858
 10
41.3964
 20
92.5683
 30
0.000000
  70
    32
  0
VERTEX
  8
0
  5
859
 10
41.4027
 20
92.5190
 30
0.000000
  70
    32
  0
VERTEX
  8
0
  5
85A
 10
41.4133
 20
92.4698
 30
0.000000
  70
    32
  0
VERTEX
  8
0
  5
85B
 10
41.4280
 20
92.4207
 30
0.000000
  70
    32
  0
VERTEX
  8
0
  5
85C
 10
41.4469
 20
92.3717
 30
0.000000
  70
    32
  0
VERTEX
  8
0
  5
85D
 10
41.4701
 20
92.3228
 30
0.000000
  70
    32
  0
VERTEX
  8
0
  5
85E
 10
41.4974
 20
92.2742
 30
0.000000
  70
    32
  0
VERTEX
  8
0
  5
85F
 10
41.5288
 20
92.2257
 30
0.000000
  70
    32
  0
VERTEX
  8
0
  5
860
 10
41.5644
 20
92.1775
 30
0.000000
  70
    32
  0
VERTEX
  8
0
  5
861
 10
41.6041
 20
92.1295
 30
0.000000
  70
    32
  0
VERTEX
  8
0
  5
862
 10
41.6479
 20
92.0818
 30
0.000000
  70
    32
  0
VERTEX
  8
0
  5
863
 10
41.6957
 20
92.0345
 30
0.000000
  70
    32
  0
VERTEX
  8
0
  5
864
 10
41.7476
 20
91.9875
 30
0.000000
  70
    32
  0
VERTEX
  8
0
  5
865
 10
41.8035
 20
91.9408
 30
0.000000
  70
    32
  0
VERTEX
  8
0
  5
866
 10
41.8633
 20
91.8946
 30
0.000000
  70
    32
  0
VERTEX
  8
0
  5
867
 10
41.9271
 20
91.8489
 30
0.000000
  70
    32
  0
VERTEX
  8
0
  5
868
 10
41.9948
 20
91.8035
 30
0.000000
  70
    32
  0
VERTEX
  8
0
  5
869
 10
42.0664
 20
91.7587
 30
0.000000
  70
    32
  0
VERTEX
  8
0
  5
86A
 10
42.1417
 20
91.7144
 30
0.000000
  70
    32
  0
VERTEX
  8
0
  5
86B
 10
42.2209
 20
91.6707
 30
0.000000
  70
    32
  0
VERTEX
  8
0
  5
86C
 10
42.3037
 20
91.6275
 30
0.000000
  70
    32
  0
VERTEX
  8
0
  5
86D
 10
42.3902
 20
91.5849
 30
0.000000
  70
    32
  0
VERTEX
  8
0
  5
86E
 10
42.4803
 20
91.5429
 30
0.000000
  70
    32
  0
VERTEX
  8
0
  5
86F
 10
42.5740
 20
91.5016
 30
0.000000
  70
    32
  0
VERTEX
  8
0
  5
870
 10
42.6712
 20
91.4609
 30
0.000000
  70
    32
  0
VERTEX
  8
0
  5
871
 10
42.7718
 20
91.4210
 30
0.000000
  70
    32
  0
VERTEX
  8
0
  5
872
 10
42.8759
 20
91.3817
 30
0.000000
  70
    32
  0
VERTEX
  8
0
  5
873
 10
42.9832
 20
91.3432
 30
0.000000
  70
    32
  0
VERTEX
  8
0
  5
874
 10
43.0938
 20
91.3055
 30
0.000000
  70
    32
  0
VERTEX
  8
0
  5
875
 10
43.2076
 20
91.2686
 30
0.000000
  70
    32
  0
VERTEX
  8
0
  5
876
 10
43.3246
 20
91.2325
 30
0.000000
  70
    32
  0
VERTEX
  8
0
  5
877
 10
43.4446
 20
91.1972
 30
0.000000
  70
    32
  0
VERTEX
  8
0
  5
878
 10
43.5675
 20
91.1627
 30
0.000000
  70
    32
  0
VERTEX
  8
0
  5
879
 10
43.6934
 20
91.1292
 30
0.000000
  70
    32
  0
VERTEX
  8
0
  5
87A
 10
43.8221
 20
91.0965
 30
0.000000
  70
    32
  0
VERTEX
  8
0
  5
87B
 10
43.9535
 20
91.0648
 30
0.000000
  70
    32
  0
VERTEX
  8
0
  5
87C
 10
44.0877
 20
91.0340
 30
0.000000
  70
    32
  0
VERTEX
  8
0
  5
87D
 10
44.2244
 20
91.0041
 30
0.000000
  70
    32
  0
VERTEX
  8
0
  5
87E
 10
44.3636
 20
90.9753
 30
0.000000
  70
    32
  0
VERTEX
  8
0
  5
87F
 10
44.5053
 20
90.9474
 30
0.000000
  70
    32
  0
VERTEX
  8
0
  5
880
 10
44.6493
 20
90.9205
 30
0.000000
  70
    32
  0
VERTEX
  8
0
  5
881
 10
44.7956
 20
90.8946
 30
0.000000
  70
    32
  0
VERTEX
  8
0
  5
882
 10
44.9440
 20
90.8698
 30
0.000000
  70
    32
  0
VERTEX
  8
0
  5
883
 10
45.0945
 20
90.8460
 30
0.000000
  70
    32
  0
VERTEX
  8
0
  5
884
 10
45.2470
 20
90.8233
 30
0.000000
  70
    32
  0
VERTEX
  8
0
  5
885
 10
45.4014
 20
90.8017
 30
0.000000
  70
    32
  0
VERTEX
  8
0
  5
886
 10
45.5576
 20
90.7812
 30
0.000000
  70
    32
  0
VERTEX
  8
0
  5
887
 10
45.7155
 20
90.7617
 30
0.000000
  70
    32
  0
VERTEX
  8
0
  5
888
 10
45.8750
 20
90.7434
 30
0.000000
  70
    32
  0
VERTEX
  8
0
  5
889
 10
46.0361
 20
90.7263
 30
0.000000
  70
    32
  0
VERTEX
  8
0
  5
88A
 10
46.1985
 20
90.7102
 30
0.000000
  70
    32
  0
VERTEX
  8
0
  5
88B
 10
46.3623
 20
90.6953
 30
0.000000
  70
    32
  0
VERTEX
  8
0
  5
88C
 10
46.5273
 20
90.6816
 30
0.000000
  70
    32
  0
VERTEX
  8
0
  5
88D
 10
46.6934
 20
90.6690
 30
0.000000
  70
    32
  0
VERTEX
  8
0
  5
88E
 10
46.8606
 20
90.6576
 30
0.000000
  70
    32
  0
VERTEX
  8
0
  5
88F
 10
47.0287
 20
90.6474
 30
0.000000
  70
    32
  0
VERTEX
  8
0
  5
890
 10
47.1976
 20
90.6384
 30
0.000000
  70
    32
  0
VERTEX
  8
0
  5
891
 10
47.3672
 20
90.6306
 30
0.000000
  70
    32
  0
VERTEX
  8
0
  5
892
 10
47.5374
 20
90.6239
 30
0.000000
  70
    32
  0
VERTEX
  8
0
  5
893
 10
47.7082
 20
90.6185
 30
0.000000
  70
    32
  0
VERTEX
  8
0
  5
894
 10
47.8793
 20
90.6143
 30
0.000000
  70
    32
  0
VERTEX
  8
0
  5
895
 10
48.0508
 20
90.6112
 30
0.000000
  70
    32
  0
VERTEX
  8
0
  5
896
 10
48.2225
 20
90.6094
 30
0.000000
  70
    32
  0
VERTEX
  8
0
  5
897
 10
48.3943
 20
90.6088
 30
0.000000
  70
    32
  0
VERTEX
  8
0
  5
898
 10
48.5661
 20
90.6094
 30
0.000000
  70
    32
  0
VERTEX
  8
0
  5
899
 10
48.7378
 20
90.6112
 30
0.000000
  70
    32
  0
VERTEX
  8
0
  5
89A
 10
48.9093
 20
90.6143
 30
0.000000
  70
    32
  0
VERTEX
  8
0
  5
89B
 10
49.0804
 20
90.6185
 30
0.000000
  70
    32
  0
VERTEX
  8
0
  5
89C
 10
49.2512
 20
90.6239
 30
0.000000
  70
    32
  0
VERTEX
  8
0
  5
89D
 10
49.4214
 20
90.6306
 30
0.000000
  70
    32
  0
VERTEX
  8
0
  5
89E
 10
49.5910
 20
90.6384
 30
0.000000
  70
    32
  0
VERTEX
  8
0
  5
89F
 10
49.7599
 20
90.6474
 30
0.000000
  70
    32
  0
VERTEX
  8
0
  5
8A0
 10
49.9280
 20
90.6576
 30
0.000000
  70
    32
  0
VERTEX
  8
0
  5
8A1
 10
50.0952
 20
90.6690
 30
0.000000
  70
    32
  0
VERTEX
  8
0
  5
8A2
 10
50.2613
 20
90.6816
 30
0.000000
  70
    32
  0
VERTEX
  8
0
  5
8A3
 10
50.4263
 20
90.6953
 30
0.000000
  70
    32
  0
VERTEX
  8
0
  5
8A4
 10
50.5901
 20
90.7102
 30
0.000000
  70
    32
  0
VERTEX
  8
0
  5
8A5
 10
50.7525
 20
90.7263
 30
0.000000
  70
    32
  0
VERTEX
  8
0
  5
8A6
 10
50.9136
 20
90.7434
 30
0.000000
  70
    32
  0
VERTEX
  8
0
  5
8A7
 10
51.0731
 20
90.7617
 30
0.000000
  70
    32
  0
VERTEX
  8
0
  5
8A8
 10
51.2310
 20
90.7812
 30
0.000000
  70
    32
  0
VERTEX
  8
0
  5
8A9
 10
51.3872
 20
90.8017
 30
0.000000
  70
    32
  0
VERTEX
  8
0
  5
8AA
 10
51.5416
 20
90.8233
 30
0.000000
  70
    32
  0
VERTEX
  8
0
  5
8AB
 10
51.6941
 20
90.8460
 30
0.000000
  70
    32
  0
VERTEX
  8
0
  5
8AC
 10
51.8446
 20
90.8698
 30
0.000000
  70
    32
  0
VERTEX
  8
0
  5
8AD
 10
51.9930
 20
90.8946
 30
0.000000
  70
    32
  0
VERTEX
  8
0
  5
8AE
 10
52.1393
 20
90.9205
 30
0.000000
  70
    32
  0
VERTEX
  8
0
  5
8AF
 10
52.2833
 20
90.9474
 30
0.000000
  70
    32
  0
VERTEX
  8
0
  5
8B0
 10
52.4250
 20
90.9753
 30
0.000000
  70
    32
  0
VERTEX
  8
0
  5
8B1
 10
52.5642
 20
91.0041
 30
0.000000
  70
    32
  0
VERTEX
  8
0
  5
8B2
 10
52.7009
 20
91.0340
 30
0.000000
  70
    32
  0
VERTEX
  8
0
  5
8B3
 10
52.8351
 20
91.0648
 30
0.000000
  70
    32
  0
VERTEX
  8
0
  5
8B4
 10
52.9665
 20
91.0965
 30
0.000000
  70
    32
  0
VERTEX
  8
0
  5
8B5
 10
53.0952
 20
91.1292
 30
0.000000
  70
    32
  0
VERTEX
  8
0
  5
8B6
 10
53.2211
 20
91.1627
 30
0.000000
  70
    32
  0
VERTEX
  8
0
  5
8B7
 10
53.3440
 20
91.1972
 30
0.000000
  70
    32
  0
VERTEX
  8
0
  5
8B8
 10
53.4640
 20
91.2325
 30
0.000000
  70
    32
  0
VERTEX
  8
0
  5
8B9
 10
53.5810
 20
91.2686
 30
0.000000
  70
    32
  0
VERTEX
  8
0
  5
8BA
 10
53.6948
 20
91.3055
 30
0.000000
  70
    32
  0
VERTEX
  8
0
  5
8BB
 10
53.8054
 20
91.3432
 30
0.000000
  70
    32
  0
VERTEX
  8
0
  5
8BC
 10
53.9127
 20
91.3817
 30
0.000000
  70
    32
  0
VERTEX
  8
0
  5
8BD
 10
54.0168
 20
91.4210
 30
0.000000
  70
    32
  0
VERTEX
  8
0
  5
8BE
 10
54.1174
 20
91.4609
 30
0.000000
  70
    32
  0
VERTEX
  8
0
  5
8BF
 10
54.2146
 20
91.5016
 30
0.000000
  70
    32
  0
VERTEX
  8
0
  5
8C0
 10
54.3083
 20
91.5429
 30
0.000000
  70
    32
  0
VERTEX
  8
0
  5
8C1
 10
54.3984
 20
91.5849
 30
0.000000
  70
    32
  0
VERTEX
  8
0
  5
8C2
 10
54.4849
 20
91.6275
 30
0.000000
  70
    32
  0
VERTEX
  8
0
  5
8C3
 10
54.5677
 20
91.6707
 30
0.000000
  70
    32
  0
VERTEX
  8
0
  5
8C4
 10
54.6469
 20
91.7144
 30
0.000000
  70
    32
  0
VERTEX
  8
0
  5
8C5
 10
54.7222
 20
91.7587
 30
0.000000
  70
    32
  0
VERTEX
  8
0
  5
8C6
 10
54.7938
 20
91.8035
 30
0.000000
  70
    32
  0
VERTEX
  8
0
  5
8C7
 10
54.8615
 20
91.8489
 30
0.000000
  70
    32
  0
VERTEX
  8
0
  5
8C8
 10
54.9252
 20
91.8946
 30
0.000000
  70
    32
  0
VERTEX
  8
0
  5
8C9
 10
54.9851
 20
91.9408
 30
0.000000
  70
    32
  0
VERTEX
  8
0
  5
8CA
 10
55.0410
 20
91.9875
 30
0.000000
  70
    32
  0
VERTEX
  8
0
  5
8CB
 10
55.0929
 20
92.0345
 30
0.000000
  70
    32
  0
VERTEX
  8
0
  5
8CC
 10
55.1407
 20
92.0818
 30
0.000000
  70
    32
  0
VERTEX
  8
0
  5
8CD
 10
55.1845
 20
92.1295
 30
0.000000
  70
    32
  0
VERTEX
  8
0
  5
8CE
 10
55.2242
 20
92.1775
 30
0.000000
  70
    32
  0
VERTEX
  8
0
  5
8CF
 10
55.2598
 20
92.2257
 30
0.000000
  70
    32
  0
VERTEX
  8
0
  5
8D0
 10
55.2912
 20
92.2742
 30
0.000000
  70
    32
  0
VERTEX
  8
0
  5
8D1
 10
55.3185
 20
92.3228
 30
0.000000
  70
    32
  0
VERTEX
  8
0
  5
8D2
 10
55.3417
 20
92.3717
 30
0.000000
  70
    32
  0
VERTEX
  8
0
  5
8D3
 10
55.3606
 20
92.4207
 30
0.000000
  70
    32
  0
VERTEX
  8
0
  5
8D4
 10
55.3753
 20
92.4698
 30
0.000000
  70
    32
  0
VERTEX
  8
0
  5
8D5
 10
55.3859
 20
92.5190
 30
0.000000
  70
    32
  0
VERTEX
  8
0
  5
8D6
 10
55.3922
 20
92.5683
 30
0.000000
  70
    32
  0
VERTEX
  8
0
  5
8D7
 10
55.3943
 20
92.6176
 30
0.000000
  70
    32
  0
SEQEND
  8
0
  5
8D8
  0
POLYLINE
  5
667
  8
0
 10
51.288916296314468
 20
102.78396643763324
 30
0.0
 66
     1
 70
     8
  0
VERTEX
  8
0
  5
8D9
 10
51.2889
 20
102.784
 30
0.000000
  70
    32
  0
VERTEX
  8
0
  5
8DA
 10
51.2665
 20
102.830
 30
0.000000
  70
    32
  0
VERTEX
  8
0
  5
8DB
 10
51.2431
 20
102.876
 30
0.000000
  70
    32
  0
VERTEX
  8
0
  5
8DC
 10
51.2188
 20
102.922
 30
0.000000
  70
    32
  0
VERTEX
  8
0
  5
8DD
 10
51.1934
 20
102.967
 30
0.000000
  70
    32
  0
VERTEX
  8
0
  5
8DE
 10
51.1671
 20
103.012
 30
0.000000
  70
    32
  0
VERTEX
  8
0
  5
8DF
 10
51.1398
 20
103.056
 30
0.000000
  70
    32
  0
VERTEX
  8
0
  5
8E0
 10
51.1116
 20
103.100
 30
0.000000
  70
    32
  0
VERTEX
  8
0
  5
8E1
 10
51.0824
 20
103.144
 30
0.000000
  70
    32
  0
VERTEX
  8
0
  5
8E2
 10
51.0523
 20
103.187
 30
0.000000
  70
    32
  0
VERTEX
  8
0
  5
8E3
 10
51.0213
 20
103.229
 30
0.000000
  70
    32
  0
VERTEX
  8
0
  5
8E4
 10
50.9894
 20
103.271
 30
0.000000
  70
    32
  0
VERTEX
  8
0
  5
8E5
 10
50.9566
 20
103.313
 30
0.000000
  70
    32
  0
VERTEX
  8
0
  5
8E6
 10
50.9229
 20
103.353
 30
0.000000
  70
    32
  0
VERTEX
  8
0
  5
8E7
 10
50.8883
 20
103.394
 30
0.000000
  70
    32
  0
VERTEX
  8
0
  5
8E8
 10
50.8529
 20
103.434
 30
0.000000
  70
    32
  0
VERTEX
  8
0
  5
8E9
 10
50.8166
 20
103.473
 30
0.000000
  70
    32
  0
VERTEX
  8
0
  5
8EA
 10
50.7794
 20
103.512
 30
0.000000
  70
    32
  0
VERTEX
  8
0
  5
8EB
 10
50.7415
 20
103.550
 30
0.000000
  70
    32
  0
VERTEX
  8
0
  5
8EC
 10
50.7027
 20
103.587
 30
0.000000
  70
    32
  0
VERTEX
  8
0
  5
8ED
 10
50.6632
 20
103.624
 30
0.000000
  70
    32
  0
VERTEX
  8
0
  5
8EE
 10
50.6228
 20
103.660
 30
0.000000
  70
    32
  0
VERTEX
  8
0
  5
8EF
 10
50.5817
 20
103.695
 30
0.000000
  70
    32
  0
VERTEX
  8
0
  5
8F0
 10
50.5398
 20
103.730
 30
0.000000
  70
    32
  0
VERTEX
  8
0
  5
8F1
 10
50.4972
 20
103.764
 30
0.000000
  70
    32
  0
VERTEX
  8
0
  5
8F2
 10
50.4539
 20
103.798
 30
0.000000
  70
    32
  0
VERTEX
  8
0
  5
8F3
 10
50.4098
 20
103.831
 30
0.000000
  70
    32
  0
VERTEX
  8
0
  5
8F4
 10
50.3651
 20
103.863
 30
0.000000
  70
    32
  0
VERTEX
  8
0
  5
8F5
 10
50.3196
 20
103.894
 30
0.000000
  70
    32
  0
VERTEX
  8
0
  5
8F6
 10
50.2735
 20
103.925
 30
0.000000
  70
    32
  0
VERTEX
  8
0
  5
8F7
 10
50.2268
 20
103.954
 30
0.000000
  70
    32
  0
VERTEX
  8
0
  5
8F8
 10
50.1794
 20
103.983
 30
0.000000
  70
    32
  0
VERTEX
  8
0
  5
8F9
 10
50.1314
 20
104.012
 30
0.000000
  70
    32
  0
VERTEX
  8
0
  5
8FA
 10
50.0828
 20
104.039
 30
0.000000
  70
    32
  0
VERTEX
  8
0
  5
8FB
 10
50.0336
 20
104.066
 30
0.000000
  70
    32
  0
VERTEX
  8
0
  5
8FC
 10
49.9839
 20
104.092
 30
0.000000
  70
    32
  0
VERTEX
  8
0
  5
8FD
 10
49.9336
 20
104.117
 30
0.000000
  70
    32
  0
VERTEX
  8
0
  5
8FE
 10
49.8828
 20
104.142
 30
0.000000
  70
    32
  0
VERTEX
  8
0
  5
8FF
 10
49.8314
 20
104.165
 30
0.000000
  70
    32
  0
VERTEX
  8
0
  5
900
 10
49.7796
 20
104.188
 30
0.000000
  70
    32
  0
VERTEX
  8
0
  5
901
 10
49.7273
 20
104.210
 30
0.000000
  70
    32
  0
VERTEX
  8
0
  5
902
 10
49.6745
 20
104.231
 30
0.000000
  70
    32
  0
VERTEX
  8
0
  5
903
 10
49.6213
 20
104.251
 30
0.000000
  70
    32
  0
VERTEX
  8
0
  5
904
 10
49.5676
 20
104.270
 30
0.000000
  70
    32
  0
VERTEX
  8
0
  5
905
 10
49.5136
 20
104.288
 30
0.000000
  70
    32
  0
VERTEX
  8
0
  5
906
 10
49.4591
 20
104.306
 30
0.000000
  70
    32
  0
VERTEX
  8
0
  5
907
 10
49.4043
 20
104.323
 30
0.000000
  70
    32
  0
VERTEX
  8
0
  5
908
 10
49.3492
 20
104.338
 30
0.000000
  70
    32
  0
VERTEX
  8
0
  5
909
 10
49.2937
 20
104.353
 30
0.000000
  70
    32
  0
VERTEX
  8
0
  5
90A
 10
49.2379
 20
104.367
 30
0.000000
  70
    32
  0
VERTEX
  8
0
  5
90B
 10
49.1818
 20
104.380
 30
0.000000
  70
    32
  0
VERTEX
  8
0
  5
90C
 10
49.1254
 20
104.393
 30
0.000000
  70
    32
  0
VERTEX
  8
0
  5
90D
 10
49.0688
 20
104.404
 30
0.000000
  70
    32
  0
VERTEX
  8
0
  5
90E
 10
49.0120
 20
104.414
 30
0.000000
  70
    32
  0
VERTEX
  8
0
  5
90F
 10
48.9549
 20
104.424
 30
0.000000
  70
    32
  0
VERTEX
  8
0
  5
910
 10
48.8976
 20
104.432
 30
0.000000
  70
    32
  0
VERTEX
  8
0
  5
911
 10
48.8402
 20
104.440
 30
0.000000
  70
    32
  0
VERTEX
  8
0
  5
912
 10
48.7826
 20
104.447
 30
0.000000
  70
    32
  0
VERTEX
  8
0
  5
913
 10
48.7249
 20
104.453
 30
0.000000
  70
    32
  0
VERTEX
  8
0
  5
914
 10
48.6671
 20
104.457
 30
0.000000
  70
    32
  0
VERTEX
  8
0
  5
915
 10
48.6091
 20
104.461
 30
0.000000
  70
    32
  0
VERTEX
  8
0
  5
916
 10
48.5511
 20
104.464
 30
0.000000
  70
    32
  0
VERTEX
  8
0
  5
917
 10
48.4931
 20
104.466
 30
0.000000
  70
    32
  0
VERTEX
  8
0
  5
918
 10
48.4350
 20
104.467
 30
0.000000
  70
    32
  0
VERTEX
  8
0
  5
919
 10
48.3769
 20
104.468
 30
0.000000
  70
    32
  0
VERTEX
  8
0
  5
91A
 10
48.3188
 20
104.467
 30
0.000000
  70
    32
  0
VERTEX
  8
0
  5
91B
 10
48.2607
 20
104.465
 30
0.000000
  70
    32
  0
VERTEX
  8
0
  5
91C
 10
48.2027
 20
104.463
 30
0.000000
  70
    32
  0
VERTEX
  8
0
  5
91D
 10
48.1447
 20
104.459
 30
0.000000
  70
    32
  0
VERTEX
  8
0
  5
91E
 10
48.0869
 20
104.455
 30
0.000000
  70
    32
  0
VERTEX
  8
0
  5
91F
 10
48.0291
 20
104.449
 30
0.000000
  70
    32
  0
VERTEX
  8
0
  5
920
 10
47.9715
 20
104.443
 30
0.000000
  70
    32
  0
VERTEX
  8
0
  5
921
 10
47.9140
 20
104.436
 30
0.000000
  70
    32
  0
VERTEX
  8
0
  5
922
 10
47.8566
 20
104.427
 30
0.000000
  70
    32
  0
VERTEX
  8
0
  5
923
 10
47.7995
 20
104.418
 30
0.000000
  70
    32
  0
VERTEX
  8
0
  5
924
 10
47.7426
 20
104.408
 30
0.000000
  70
    32
  0
VERTEX
  8
0
  5
925
 10
47.6859
 20
104.397
 30
0.000000
  70
    32
  0
VERTEX
  8
0
  5
926
 10
47.6294
 20
104.385
 30
0.000000
  70
    32
  0
VERTEX
  8
0
  5
927
 10
47.5732
 20
104.373
 30
0.000000
  70
    32
  0
VERTEX
  8
0
  5
928
 10
47.5173
 20
104.359
 30
0.000000
  70
    32
  0
VERTEX
  8
0
  5
929
 10
47.4617
 20
104.345
 30
0.000000
  70
    32
  0
VERTEX
  8
0
  5
92A
 10
47.4064
 20
104.329
 30
0.000000
  70
    32
  0
VERTEX
  8
0
  5
92B
 10
47.3514
 20
104.313
 30
0.000000
  70
    32
  0
VERTEX
  8
0
  5
92C
 10
47.2968
 20
104.296
 30
0.000000
  70
    32
  0
VERTEX
  8
0
  5
92D
 10
47.2426
 20
104.278
 30
0.000000
  70
    32
  0
VERTEX
  8
0
  5
92E
 10
47.1888
 20
104.259
 30
0.000000
  70
    32
  0
VERTEX
  8
0
  5
92F
 10
47.1354
 20
104.239
 30
0.000000
  70
    32
  0
VERTEX
  8
0
  5
930
 10
47.0824
 20
104.218
 30
0.000000
  70
    32
  0
VERTEX
  8
0
  5
931
 10
47.0299
 20
104.197
 30
0.000000
  70
    32
  0
VERTEX
  8
0
  5
932
 10
46.9779
 20
104.174
 30
0.000000
  70
    32
  0
VERTEX
  8
0
  5
933
 10
46.9264
 20
104.151
 30
0.000000
  70
    32
  0
VERTEX
  8
0
  5
934
 10
46.8753
 20
104.127
 30
0.000000
  70
    32
  0
VERTEX
  8
0
  5
935
 10
46.8248
 20
104.102
 30
0.000000
  70
    32
  0
VERTEX
  8
0
  5
936
 10
46.7748
 20
104.077
 30
0.000000
  70
    32
  0
VERTEX
  8
0
  5
937
 10
46.7254
 20
104.050
 30
0.000000
  70
    32
  0
VERTEX
  8
0
  5
938
 10
46.6766
 20
104.023
 30
0.000000
  70
    32
  0
VERTEX
  8
0
  5
939
 10
46.6283
 20
103.995
 30
0.000000
  70
    32
  0
VERTEX
  8
0
  5
93A
 10
46.5807
 20
103.966
 30
0.000000
  70
    32
  0
VERTEX
  8
0
  5
93B
 10
46.5337
 20
103.937
 30
0.000000
  70
    32
  0
VERTEX
  8
0
  5
93C
 10
46.4874
 20
103.906
 30
0.000000
  70
    32
  0
VERTEX
  8
0
  5
93D
 10
46.4417
 20
103.875
 30
0.000000
  70
    32
  0
VERTEX
  8
0
  5
93E
 10
46.3966
 20
103.844
 30
0.000000
  70
    32
  0
VERTEX
  8
0
  5
93F
 10
46.3523
 20
103.811
 30
0.000000
  70
    32
  0
VERTEX
  8
0
  5
940
 10
46.3087
 20
103.778
 30
0.000000
  70
    32
  0
VERTEX
  8
0
  5
941
 10
46.2658
 20
103.744
 30
0.000000
  70
    32
  0
VERTEX
  8
0
  5
942
 10
46.2236
 20
103.709
 30
0.000000
  70
    32
  0
VERTEX
  8
0
  5
943
 10
46.1822
 20
103.674
 30
0.000000
  70
    32
  0
VERTEX
  8
0
  5
944
 10
46.1415
 20
103.638
 30
0.000000
  70
    32
  0
VERTEX
  8
0
  5
945
 10
46.1016
 20
103.602
 30
0.000000
  70
    32
  0
VERTEX
  8
0
  5
946
 10
46.0625
 20
103.565
 30
0.000000
  70
    32
  0
VERTEX
  8
0
  5
947
 10
46.0243
 20
103.527
 30
0.000000
  70
    32
  0
VERTEX
  8
0
  5
948
 10
45.9868
 20
103.488
 30
0.000000
  70
    32
  0
VERTEX
  8
0
  5
949
 10
45.9502
 20
103.449
 30
0.000000
  70
    32
  0
VERTEX
  8
0
  5
94A
 10
45.9144
 20
103.410
 30
0.000000
  70
    32
  0
VERTEX
  8
0
  5
94B
 10
45.8795
 20
103.370
 30
0.000000
  70
    32
  0
VERTEX
  8
0
  5
94C
 10
45.8454
 20
103.329
 30
0.000000
  70
    32
  0
VERTEX
  8
0
  5
94D
 10
45.8122
 20
103.288
 30
0.000000
  70
    32
  0
VERTEX
  8
0
  5
94E
 10
45.7800
 20
103.246
 30
0.000000
  70
    32
  0
VERTEX
  8
0
  5
94F
 10
45.7486
 20
103.204
 30
0.000000
  70
    32
  0
VERTEX
  8
0
  5
950
 10
45.7181
 20
103.161
 30
0.000000
  70
    32
  0
VERTEX
  8
0
  5
951
 10
45.6886
 20
103.118
 30
0.000000
  70
    32
  0
VERTEX
  8
0
  5
952
 10
45.6600
 20
103.074
 30
0.000000
  70
    32
  0
VERTEX
  8
0
  5
953
 10
45.6323
 20
103.030
 30
0.000000
  70
    32
  0
VERTEX
  8
0
  5
954
 10
45.6056
 20
102.985
 30
0.000000
  70
    32
  0
VERTEX
  8
0
  5
955
 10
45.5799
 20
102.940
 30
0.000000
  70
    32
  0
VERTEX
  8
0
  5
956
 10
45.5551
 20
102.895
 30
0.000000
  70
    32
  0
VERTEX
  8
0
  5
957
 10
45.5313
 20
102.849
 30
0.000000
  70
    32
  0
VERTEX
  8
0
  5
958
 10
45.5085
 20
102.803
 30
0.000000
  70
    32
  0
VERTEX
  8
0
  5
959
 10
45.4867
 20
102.756
 30
0.000000
  70
    32
  0
SEQEND
  8
0
  5
95A
  0
LINE
  5
668
  8
0
 10
55.359298929911567
 20
90.287470300032965
 30
0.0
 11
55.359298929911567
 21
90.608827396348374
 31
0.0
  0
LINE
  5
669
  8
0
 10
55.359298929911567
 20
90.608827396348374
 30
0.0
 11
55.394298929911649
 21
92.617568567637704
 31
0.0
  0
LINE
  5
66A
  8
0
 10
41.429298929911617
 20
90.608827396348374
 30
0.0
 11
41.394298929911542
 21
92.617568567637704
 31
0.0
  0
LINE
  5
66B
  8
0
 10
41.429298929911617
 20
90.287470300032965
 30
0.0
 11
41.429298929911617
 21
90.608827396348374
 31
0.0
  0
ARC
  5
66C
  8
0
 10
103.3782912539719
 20
89.930275199239304
 30
0.0
 40
17.324561624508821
 50
160.56565392324509
 51
177.75531843057109
  0
ARC
  5
66D
  8
0
 10
87.756886038036612
 20
95.471554868731687
 30
0.0
 40
0.75
 50
103.0000000000026
 51
162.69762055023861
  0
ARC
  5
66E
  8
0
 10
58.608630350322699
 20
90.007555456160105
 30
0.0
 40
17.411070463754861
 50
154.63114496590421
 51
171.37855684221199
  0
CIRCLE
  5
66F
  8
0
 10
93.067023178027796
 20
144.94397312882941
 30
0.0
 40
5.4788504307491053
  0
ARC
  5
670
  8
0
 10
113.29496769056421
 20
96.972551164848198
 30
0.0
 40
15.0
 50
190.49432937773099
 51
206.46634483904461
  0
ARC
  5
671
  8
0
 10
113.49951706387419
 20
95.44037564572244
 30
0.0
 40
15.0
 50
168.21851651757379
 51
184.50567062226779
  0
LINE
  5
672
  8
0
 10
87.588172747278691
 20
96.202332417320591
 30
0.0
 11
122.77506771618209
 21
104.40210629005421
 31
0.0
  0
ARC
  5
673
  8
0
 10
98.61972899641394
 20
98.543907032299558
 30
0.0
 40
0.2
 50
348.2185165175772
 51
103.00000000000099
  0
ARC
  5
674
  8
0
 10
38.1799675095005
 20
90.007555456160105
 30
0.0
 40
17.411070463754879
 50
8.6214431577879918
 51
25.368855034095731
  0
POLYLINE
  5
675
  8
0
 10
44.394298929911635
 20
98.394807140771107
 30
0.0
 66
     1
 70
     8
  0
VERTEX
  8
0
  5
95B
 10
44.3943
 20
98.3948
 30
0.000000
  70
    32
  0
VERTEX
  8
0
  5
95C
 10
44.2586
 20
98.3586
 30
0.000000
  70
    32
  0
VERTEX
  8
0
  5
95D
 10
44.1283
 20
98.3213
 30
0.000000
  70
    32
  0
VERTEX
  8
0
  5
95E
 10
44.0037
 20
98.2828
 30
0.000000
  70
    32
  0
VERTEX
  8
0
  5
95F
 10
43.8850
 20
98.2433
 30
0.000000
  70
    32
  0
VERTEX
  8
0
  5
960
 10
43.7722
 20
98.2027
 30
0.000000
  70
    32
  0
VERTEX
  8
0
  5
961
 10
43.6655
 20
98.1611
 30
0.000000
  70
    32
  0
VERTEX
  8
0
  5
962
 10
43.5651
 20
98.1187
 30
0.000000
  70
    32
  0
VERTEX
  8
0
  5
963
 10
43.4712
 20
98.0753
 30
0.000000
  70
    32
  0
VERTEX
  8
0
  5
964
 10
43.3837
 20
98.0312
 30
0.000000
  70
    32
  0
VERTEX
  8
0
  5
965
 10
43.3029
 20
97.9863
 30
0.000000
  70
    32
  0
VERTEX
  8
0
  5
966
 10
43.2288
 20
97.9407
 30
0.000000
  70
    32
  0
VERTEX
  8
0
  5
967
 10
43.1616
 20
97.8945
 30
0.000000
  70
    32
  0
VERTEX
  8
0
  5
968
 10
43.1014
 20
97.8477
 30
0.000000
  70
    32
  0
VERTEX
  8
0
  5
969
 10
43.0481
 20
97.8004
 30
0.000000
  70
    32
  0
VERTEX
  8
0
  5
96A
 10
43.0019
 20
97.7527
 30
0.000000
  70
    32
  0
VERTEX
  8
0
  5
96B
 10
42.9629
 20
97.7046
 30
0.000000
  70
    32
  0
VERTEX
  8
0
  5
96C
 10
42.9311
 20
97.6562
 30
0.000000
  70
    32
  0
VERTEX
  8
0
  5
96D
 10
42.9066
 20
97.6075
 30
0.000000
  70
    32
  0
VERTEX
  8
0
  5
96E
 10
42.8893
 20
97.5587
 30
0.000000
  70
    32
  0
VERTEX
  8
0
  5
96F
 10
42.8793
 20
97.5097
 30
0.000000
  70
    32
  0
VERTEX
  8
0
  5
970
 10
42.8766
 20
97.4606
 30
0.000000
  70
    32
  0
VERTEX
  8
0
  5
971
 10
42.8812
 20
97.4116
 30
0.000000
  70
    32
  0
VERTEX
  8
0
  5
972
 10
42.8932
 20
97.3627
 30
0.000000
  70
    32
  0
VERTEX
  8
0
  5
973
 10
42.9124
 20
97.3139
 30
0.000000
  70
    32
  0
VERTEX
  8
0
  5
974
 10
42.9390
 20
97.2653
 30
0.000000
  70
    32
  0
VERTEX
  8
0
  5
975
 10
42.9727
 20
97.2169
 30
0.000000
  70
    32
  0
VERTEX
  8
0
  5
976
 10
43.0136
 20
97.1689
 30
0.000000
  70
    32
  0
VERTEX
  8
0
  5
977
 10
43.0617
 20
97.1213
 30
0.000000
  70
    32
  0
VERTEX
  8
0
  5
978
 10
43.1169
 20
97.0741
 30
0.000000
  70
    32
  0
VERTEX
  8
0
  5
979
 10
43.1790
 20
97.0275
 30
0.000000
  70
    32
  0
VERTEX
  8
0
  5
97A
 10
43.2480
 20
96.9815
 30
0.000000
  70
    32
  0
VERTEX
  8
0
  5
97B
 10
43.3239
 20
96.9361
 30
0.000000
  70
    32
  0
VERTEX
  8
0
  5
97C
 10
43.4065
 20
96.8913
 30
0.000000
  70
    32
  0
VERTEX
  8
0
  5
97D
 10
43.4958
 20
96.8474
 30
0.000000
  70
    32
  0
VERTEX
  8
0
  5
97E
 10
43.5915
 20
96.8043
 30
0.000000
  70
    32
  0
VERTEX
  8
0
  5
97F
 10
43.6935
 20
96.7621
 30
0.000000
  70
    32
  0
VERTEX
  8
0
  5
980
 10
43.8019
 20
96.7208
 30
0.000000
  70
    32
  0
VERTEX
  8
0
  5
981
 10
43.9163
 20
96.6804
 30
0.000000
  70
    32
  0
VERTEX
  8
0
  5
982
 10
44.0366
 20
96.6412
 30
0.000000
  70
    32
  0
VERTEX
  8
0
  5
983
 10
44.1627
 20
96.6030
 30
0.000000
  70
    32
  0
VERTEX
  8
0
  5
984
 10
44.2945
 20
96.5660
 30
0.000000
  70
    32
  0
VERTEX
  8
0
  5
985
 10
44.4316
 20
96.5301
 30
0.000000
  70
    32
  0
VERTEX
  8
0
  5
986
 10
44.5741
 20
96.4956
 30
0.000000
  70
    32
  0
VERTEX
  8
0
  5
987
 10
44.7215
 20
96.4623
 30
0.000000
  70
    32
  0
VERTEX
  8
0
  5
988
 10
44.8739
 20
96.4303
 30
0.000000
  70
    32
  0
VERTEX
  8
0
  5
989
 10
45.0309
 20
96.3997
 30
0.000000
  70
    32
  0
VERTEX
  8
0
  5
98A
 10
45.1924
 20
96.3705
 30
0.000000
  70
    32
  0
VERTEX
  8
0
  5
98B
 10
45.3581
 20
96.3428
 30
0.000000
  70
    32
  0
VERTEX
  8
0
  5
98C
 10
45.5279
 20
96.3166
 30
0.000000
  70
    32
  0
VERTEX
  8
0
  5
98D
 10
45.7015
 20
96.2919
 30
0.000000
  70
    32
  0
VERTEX
  8
0
  5
98E
 10
45.8786
 20
96.2687
 30
0.000000
  70
    32
  0
VERTEX
  8
0
  5
98F
 10
46.0591
 20
96.2471
 30
0.000000
  70
    32
  0
VERTEX
  8
0
  5
990
 10
46.2426
 20
96.2272
 30
0.000000
  70
    32
  0
VERTEX
  8
0
  5
991
 10
46.4290
 20
96.2089
 30
0.000000
  70
    32
  0
VERTEX
  8
0
  5
992
 10
46.6181
 20
96.1923
 30
0.000000
  70
    32
  0
VERTEX
  8
0
  5
993
 10
46.8094
 20
96.1773
 30
0.000000
  70
    32
  0
VERTEX
  8
0
  5
994
 10
47.0029
 20
96.1641
 30
0.000000
  70
    32
  0
VERTEX
  8
0
  5
995
 10
47.1982
 20
96.1526
 30
0.000000
  70
    32
  0
VERTEX
  8
0
  5
996
 10
47.3952
 20
96.1429
 30
0.000000
  70
    32
  0
VERTEX
  8
0
  5
997
 10
47.5934
 20
96.1349
 30
0.000000
  70
    32
  0
VERTEX
  8
0
  5
998
 10
47.7927
 20
96.1286
 30
0.000000
  70
    32
  0
VERTEX
  8
0
  5
999
 10
47.9928
 20
96.1242
 30
0.000000
  70
    32
  0
VERTEX
  8
0
  5
99A
 10
48.1934
 20
96.1215
 30
0.000000
  70
    32
  0
VERTEX
  8
0
  5
99B
 10
48.3943
 20
96.1206
 30
0.000000
  70
    32
  0
VERTEX
  8
0
  5
99C
 10
48.5952
 20
96.1215
 30
0.000000
  70
    32
  0
VERTEX
  8
0
  5
99D
 10
48.7958
 20
96.1242
 30
0.000000
  70
    32
  0
VERTEX
  8
0
  5
99E
 10
48.9959
 20
96.1286
 30
0.000000
  70
    32
  0
VERTEX
  8
0
  5
99F
 10
49.1952
 20
96.1349
 30
0.000000
  70
    32
  0
VERTEX
  8
0
  5
9A0
 10
49.3934
 20
96.1429
 30
0.000000
  70
    32
  0
VERTEX
  8
0
  5
9A1
 10
49.5904
 20
96.1526
 30
0.000000
  70
    32
  0
VERTEX
  8
0
  5
9A2
 10
49.7857
 20
96.1641
 30
0.000000
  70
    32
  0
VERTEX
  8
0
  5
9A3
 10
49.9792
 20
96.1773
 30
0.000000
  70
    32
  0
VERTEX
  8
0
  5
9A4
 10
50.1705
 20
96.1923
 30
0.000000
  70
    32
  0
VERTEX
  8
0
  5
9A5
 10
50.3596
 20
96.2089
 30
0.000000
  70
    32
  0
VERTEX
  8
0
  5
9A6
 10
50.5460
 20
96.2272
 30
0.000000
  70
    32
  0
VERTEX
  8
0
  5
9A7
 10
50.7295
 20
96.2471
 30
0.000000
  70
    32
  0
VERTEX
  8
0
  5
9A8
 10
50.9100
 20
96.2687
 30
0.000000
  70
    32
  0
VERTEX
  8
0
  5
9A9
 10
51.0871
 20
96.2919
 30
0.000000
  70
    32
  0
VERTEX
  8
0
  5
9AA
 10
51.2607
 20
96.3166
 30
0.000000
  70
    32
  0
VERTEX
  8
0
  5
9AB
 10
51.4304
 20
96.3428
 30
0.000000
  70
    32
  0
VERTEX
  8
0
  5
9AC
 10
51.5962
 20
96.3705
 30
0.000000
  70
    32
  0
VERTEX
  8
0
  5
9AD
 10
51.7577
 20
96.3997
 30
0.000000
  70
    32
  0
VERTEX
  8
0
  5
9AE
 10
51.9147
 20
96.4303
 30
0.000000
  70
    32
  0
VERTEX
  8
0
  5
9AF
 10
52.0671
 20
96.4623
 30
0.000000
  70
    32
  0
VERTEX
  8
0
  5
9B0
 10
52.2145
 20
96.4956
 30
0.000000
  70
    32
  0
VERTEX
  8
0
  5
9B1
 10
52.3570
 20
96.5301
 30
0.000000
  70
    32
  0
VERTEX
  8
0
  5
9B2
 10
52.4941
 20
96.5660
 30
0.000000
  70
    32
  0
VERTEX
  8
0
  5
9B3
 10
52.6259
 20
96.6030
 30
0.000000
  70
    32
  0
VERTEX
  8
0
  5
9B4
 10
52.7520
 20
96.6412
 30
0.000000
  70
    32
  0
VERTEX
  8
0
  5
9B5
 10
52.8723
 20
96.6804
 30
0.000000
  70
    32
  0
VERTEX
  8
0
  5
9B6
 10
52.9867
 20
96.7208
 30
0.000000
  70
    32
  0
VERTEX
  8
0
  5
9B7
 10
53.0951
 20
96.7621
 30
0.000000
  70
    32
  0
VERTEX
  8
0
  5
9B8
 10
53.1971
 20
96.8043
 30
0.000000
  70
    32
  0
VERTEX
  8
0
  5
9B9
 10
53.2928
 20
96.8474
 30
0.000000
  70
    32
  0
VERTEX
  8
0
  5
9BA
 10
53.3821
 20
96.8913
 30
0.000000
  70
    32
  0
VERTEX
  8
0
  5
9BB
 10
53.4647
 20
96.9361
 30
0.000000
  70
    32
  0
VERTEX
  8
0
  5
9BC
 10
53.5405
 20
96.9815
 30
0.000000
  70
    32
  0
VERTEX
  8
0
  5
9BD
 10
53.6096
 20
97.0275
 30
0.000000
  70
    32
  0
VERTEX
  8
0
  5
9BE
 10
53.6717
 20
97.0741
 30
0.000000
  70
    32
  0
VERTEX
  8
0
  5
9BF
 10
53.7269
 20
97.1213
 30
0.000000
  70
    32
  0
VERTEX
  8
0
  5
9C0
 10
53.7750
 20
97.1689
 30
0.000000
  70
    32
  0
VERTEX
  8
0
  5
9C1
 10
53.8159
 20
97.2169
 30
0.000000
  70
    32
  0
VERTEX
  8
0
  5
9C2
 10
53.8496
 20
97.2653
 30
0.000000
  70
    32
  0
VERTEX
  8
0
  5
9C3
 10
53.8762
 20
97.3139
 30
0.000000
  70
    32
  0
VERTEX
  8
0
  5
9C4
 10
53.8954
 20
97.3627
 30
0.000000
  70
    32
  0
VERTEX
  8
0
  5
9C5
 10
53.9074
 20
97.4116
 30
0.000000
  70
    32
  0
VERTEX
  8
0
  5
9C6
 10
53.9120
 20
97.4606
 30
0.000000
  70
    32
  0
VERTEX
  8
0
  5
9C7
 10
53.9093
 20
97.5097
 30
0.000000
  70
    32
  0
VERTEX
  8
0
  5
9C8
 10
53.8993
 20
97.5587
 30
0.000000
  70
    32
  0
VERTEX
  8
0
  5
9C9
 10
53.8820
 20
97.6075
 30
0.000000
  70
    32
  0
VERTEX
  8
0
  5
9CA
 10
53.8575
 20
97.6562
 30
0.000000
  70
    32
  0
VERTEX
  8
0
  5
9CB
 10
53.8257
 20
97.7046
 30
0.000000
  70
    32
  0
VERTEX
  8
0
  5
9CC
 10
53.7866
 20
97.7527
 30
0.000000
  70
    32
  0
VERTEX
  8
0
  5
9CD
 10
53.7405
 20
97.8004
 30
0.000000
  70
    32
  0
VERTEX
  8
0
  5
9CE
 10
53.6872
 20
97.8477
 30
0.000000
  70
    32
  0
VERTEX
  8
0
  5
9CF
 10
53.6270
 20
97.8945
 30
0.000000
  70
    32
  0
VERTEX
  8
0
  5
9D0
 10
53.5598
 20
97.9407
 30
0.000000
  70
    32
  0
VERTEX
  8
0
  5
9D1
 10
53.4857
 20
97.9863
 30
0.000000
  70
    32
  0
VERTEX
  8
0
  5
9D2
 10
53.4049
 20
98.0312
 30
0.000000
  70
    32
  0
VERTEX
  8
0
  5
9D3
 10
53.3174
 20
98.0753
 30
0.000000
  70
    32
  0
VERTEX
  8
0
  5
9D4
 10
53.2234
 20
98.1187
 30
0.000000
  70
    32
  0
VERTEX
  8
0
  5
9D5
 10
53.1231
 20
98.1611
 30
0.000000
  70
    32
  0
VERTEX
  8
0
  5
9D6
 10
53.0164
 20
98.2027
 30
0.000000
  70
    32
  0
VERTEX
  8
0
  5
9D7
 10
52.9036
 20
98.2433
 30
0.000000
  70
    32
  0
VERTEX
  8
0
  5
9D8
 10
52.7849
 20
98.2828
 30
0.000000
  70
    32
  0
VERTEX
  8
0
  5
9D9
 10
52.6603
 20
98.3213
 30
0.000000
  70
    32
  0
VERTEX
  8
0
  5
9DA
 10
52.5300
 20
98.3586
 30
0.000000
  70
    32
  0
VERTEX
  8
0
  5
9DB
 10
52.3943
 20
98.3948
 30
0.000000
  70
    32
  0
SEQEND
  8
0
  5
9DC
  0
POLYLINE
  5
676
  8
0
 10
44.394298929911614
 20
97.831528566478681
 30
0.0
 66
     1
 70
     8
  0
VERTEX
  8
0
  5
9DD
 10
44.3943
 20
97.8315
 30
0.000000
  70
    32
  0
VERTEX
  8
0
  5
9DE
 10
44.3482
 20
97.8033
 30
0.000000
  70
    32
  0
VERTEX
  8
0
  5
9DF
 10
44.3058
 20
97.7747
 30
0.000000
  70
    32
  0
VERTEX
  8
0
  5
9E0
 10
44.2672
 20
97.7459
 30
0.000000
  70
    32
  0
VERTEX
  8
0
  5
9E1
 10
44.2324
 20
97.7168
 30
0.000000
  70
    32
  0
VERTEX
  8
0
  5
9E2
 10
44.2014
 20
97.6874
 30
0.000000
  70
    32
  0
VERTEX
  8
0
  5
9E3
 10
44.1744
 20
97.6579
 30
0.000000
  70
    32
  0
VERTEX
  8
0
  5
9E4
 10
44.1512
 20
97.6282
 30
0.000000
  70
    32
  0
VERTEX
  8
0
  5
9E5
 10
44.1320
 20
97.5983
 30
0.000000
  70
    32
  0
VERTEX
  8
0
  5
9E6
 10
44.1167
 20
97.5683
 30
0.000000
  70
    32
  0
VERTEX
  8
0
  5
9E7
 10
44.1053
 20
97.5382
 30
0.000000
  70
    32
  0
VERTEX
  8
0
  5
9E8
 10
44.0979
 20
97.5081
 30
0.000000
  70
    32
  0
VERTEX
  8
0
  5
9E9
 10
44.0945
 20
97.4779
 30
0.000000
  70
    32
  0
VERTEX
  8
0
  5
9EA
 10
44.0951
 20
97.4477
 30
0.000000
  70
    32
  0
VERTEX
  8
0
  5
9EB
 10
44.0997
 20
97.4176
 30
0.000000
  70
    32
  0
VERTEX
  8
0
  5
9EC
 10
44.1082
 20
97.3874
 30
0.000000
  70
    32
  0
VERTEX
  8
0
  5
9ED
 10
44.1207
 20
97.3574
 30
0.000000
  70
    32
  0
VERTEX
  8
0
  5
9EE
 10
44.1372
 20
97.3274
 30
0.000000
  70
    32
  0
VERTEX
  8
0
  5
9EF
 10
44.1575
 20
97.2976
 30
0.000000
  70
    32
  0
VERTEX
  8
0
  5
9F0
 10
44.1818
 20
97.2679
 30
0.000000
  70
    32
  0
VERTEX
  8
0
  5
9F1
 10
44.2100
 20
97.2384
 30
0.000000
  70
    32
  0
VERTEX
  8
0
  5
9F2
 10
44.2421
 20
97.2092
 30
0.000000
  70
    32
  0
VERTEX
  8
0
  5
9F3
 10
44.2780
 20
97.1801
 30
0.000000
  70
    32
  0
VERTEX
  8
0
  5
9F4
 10
44.3177
 20
97.1514
 30
0.000000
  70
    32
  0
VERTEX
  8
0
  5
9F5
 10
44.3612
 20
97.1229
 30
0.000000
  70
    32
  0
VERTEX
  8
0
  5
9F6
 10
44.4085
 20
97.0947
 30
0.000000
  70
    32
  0
VERTEX
  8
0
  5
9F7
 10
44.4594
 20
97.0669
 30
0.000000
  70
    32
  0
VERTEX
  8
0
  5
9F8
 10
44.5139
 20
97.0395
 30
0.000000
  70
    32
  0
VERTEX
  8
0
  5
9F9
 10
44.5720
 20
97.0124
 30
0.000000
  70
    32
  0
VERTEX
  8
0
  5
9FA
 10
44.6337
 20
96.9858
 30
0.000000
  70
    32
  0
VERTEX
  8
0
  5
9FB
 10
44.6989
 20
96.9596
 30
0.000000
  70
    32
  0
VERTEX
  8
0
  5
9FC
 10
44.7674
 20
96.9339
 30
0.000000
  70
    32
  0
VERTEX
  8
0
  5
9FD
 10
44.8394
 20
96.9087
 30
0.000000
  70
    32
  0
VERTEX
  8
0
  5
9FE
 10
44.9146
 20
96.8840
 30
0.000000
  70
    32
  0
VERTEX
  8
0
  5
9FF
 10
44.9930
 20
96.8599
 30
0.000000
  70
    32
  0
VERTEX
  8
0
  5
A00
 10
45.0746
 20
96.8363
 30
0.000000
  70
    32
  0
VERTEX
  8
0
  5
A01
 10
45.1592
 20
96.8132
 30
0.000000
  70
    32
  0
VERTEX
  8
0
  5
A02
 10
45.2469
 20
96.7908
 30
0.000000
  70
    32
  0
VERTEX
  8
0
  5
A03
 10
45.3374
 20
96.7690
 30
0.000000
  70
    32
  0
VERTEX
  8
0
  5
A04
 10
45.4308
 20
96.7479
 30
0.000000
  70
    32
  0
VERTEX
  8
0
  5
A05
 10
45.5269
 20
96.7274
 30
0.000000
  70
    32
  0
VERTEX
  8
0
  5
A06
 10
45.6257
 20
96.7076
 30
0.000000
  70
    32
  0
VERTEX
  8
0
  5
A07
 10
45.7270
 20
96.6886
 30
0.000000
  70
    32
  0
VERTEX
  8
0
  5
A08
 10
45.8308
 20
96.6702
 30
0.000000
  70
    32
  0
VERTEX
  8
0
  5
A09
 10
45.9370
 20
96.6526
 30
0.000000
  70
    32
  0
VERTEX
  8
0
  5
A0A
 10
46.0454
 20
96.6357
 30
0.000000
  70
    32
  0
VERTEX
  8
0
  5
A0B
 10
46.1560
 20
96.6196
 30
0.000000
  70
    32
  0
VERTEX
  8
0
  5
A0C
 10
46.2687
 20
96.6043
 30
0.000000
  70
    32
  0
VERTEX
  8
0
  5
A0D
 10
46.3834
 20
96.5897
 30
0.000000
  70
    32
  0
VERTEX
  8
0
  5
A0E
 10
46.4999
 20
96.5760
 30
0.000000
  70
    32
  0
VERTEX
  8
0
  5
A0F
 10
46.6182
 20
96.5631
 30
0.000000
  70
    32
  0
VERTEX
  8
0
  5
A10
 10
46.7381
 20
96.5511
 30
0.000000
  70
    32
  0
VERTEX
  8
0
  5
A11
 10
46.8595
 20
96.5399
 30
0.000000
  70
    32
  0
VERTEX
  8
0
  5
A12
 10
46.9824
 20
96.5295
 30
0.000000
  70
    32
  0
VERTEX
  8
0
  5
A13
 10
47.1065
 20
96.5201
 30
0.000000
  70
    32
  0
VERTEX
  8
0
  5
A14
 10
47.2319
 20
96.5115
 30
0.000000
  70
    32
  0
VERTEX
  8
0
  5
A15
 10
47.3583
 20
96.5037
 30
0.000000
  70
    32
  0
VERTEX
  8
0
  5
A16
 10
47.4857
 20
96.4969
 30
0.000000
  70
    32
  0
VERTEX
  8
0
  5
A17
 10
47.6139
 20
96.4910
 30
0.000000
  70
    32
  0
VERTEX
  8
0
  5
A18
 10
47.7429
 20
96.4859
 30
0.000000
  70
    32
  0
VERTEX
  8
0
  5
A19
 10
47.8725
 20
96.4818
 30
0.000000
  70
    32
  0
VERTEX
  8
0
  5
A1A
 10
48.0025
 20
96.4786
 30
0.000000
  70
    32
  0
VERTEX
  8
0
  5
A1B
 10
48.1329
 20
96.4763
 30
0.000000
  70
    32
  0
VERTEX
  8
0
  5
A1C
 10
48.2635
 20
96.4750
 30
0.000000
  70
    32
  0
VERTEX
  8
0
  5
A1D
 10
48.3943
 20
96.4745
 30
0.000000
  70
    32
  0
VERTEX
  8
0
  5
A1E
 10
48.5251
 20
96.4750
 30
0.000000
  70
    32
  0
VERTEX
  8
0
  5
A1F
 10
48.6557
 20
96.4763
 30
0.000000
  70
    32
  0
VERTEX
  8
0
  5
A20
 10
48.7861
 20
96.4786
 30
0.000000
  70
    32
  0
VERTEX
  8
0
  5
A21
 10
48.9161
 20
96.4818
 30
0.000000
  70
    32
  0
VERTEX
  8
0
  5
A22
 10
49.0457
 20
96.4859
 30
0.000000
  70
    32
  0
VERTEX
  8
0
  5
A23
 10
49.1747
 20
96.4910
 30
0.000000
  70
    32
  0
VERTEX
  8
0
  5
A24
 10
49.3029
 20
96.4969
 30
0.000000
  70
    32
  0
VERTEX
  8
0
  5
A25
 10
49.4303
 20
96.5037
 30
0.000000
  70
    32
  0
VERTEX
  8
0
  5
A26
 10
49.5567
 20
96.5115
 30
0.000000
  70
    32
  0
VERTEX
  8
0
  5
A27
 10
49.6821
 20
96.5201
 30
0.000000
  70
    32
  0
VERTEX
  8
0
  5
A28
 10
49.8062
 20
96.5295
 30
0.000000
  70
    32
  0
VERTEX
  8
0
  5
A29
 10
49.9291
 20
96.5399
 30
0.000000
  70
    32
  0
VERTEX
  8
0
  5
A2A
 10
50.0505
 20
96.5511
 30
0.000000
  70
    32
  0
VERTEX
  8
0
  5
A2B
 10
50.1704
 20
96.5631
 30
0.000000
  70
    32
  0
VERTEX
  8
0
  5
A2C
 10
50.2887
 20
96.5760
 30
0.000000
  70
    32
  0
VERTEX
  8
0
  5
A2D
 10
50.4052
 20
96.5897
 30
0.000000
  70
    32
  0
VERTEX
  8
0
  5
A2E
 10
50.5199
 20
96.6043
 30
0.000000
  70
    32
  0
VERTEX
  8
0
  5
A2F
 10
50.6326
 20
96.6196
 30
0.000000
  70
    32
  0
VERTEX
  8
0
  5
A30
 10
50.7432
 20
96.6357
 30
0.000000
  70
    32
  0
VERTEX
  8
0
  5
A31
 10
50.8516
 20
96.6526
 30
0.000000
  70
    32
  0
VERTEX
  8
0
  5
A32
 10
50.9578
 20
96.6702
 30
0.000000
  70
    32
  0
VERTEX
  8
0
  5
A33
 10
51.0616
 20
96.6886
 30
0.000000
  70
    32
  0
VERTEX
  8
0
  5
A34
 10
51.1629
 20
96.7076
 30
0.000000
  70
    32
  0
VERTEX
  8
0
  5
A35
 10
51.2617
 20
96.7274
 30
0.000000
  70
    32
  0
VERTEX
  8
0
  5
A36
 10
51.3578
 20
96.7479
 30
0.000000
  70
    32
  0
VERTEX
  8
0
  5
A37
 10
51.4512
 20
96.7690
 30
0.000000
  70
    32
  0
VERTEX
  8
0
  5
A38
 10
51.5417
 20
96.7908
 30
0.000000
  70
    32
  0
VERTEX
  8
0
  5
A39
 10
51.6294
 20
96.8132
 30
0.000000
  70
    32
  0
VERTEX
  8
0
  5
A3A
 10
51.7140
 20
96.8363
 30
0.000000
  70
    32
  0
VERTEX
  8
0
  5
A3B
 10
51.7956
 20
96.8599
 30
0.000000
  70
    32
  0
VERTEX
  8
0
  5
A3C
 10
51.8740
 20
96.8840
 30
0.000000
  70
    32
  0
VERTEX
  8
0
  5
A3D
 10
51.9492
 20
96.9087
 30
0.000000
  70
    32
  0
VERTEX
  8
0
  5
A3E
 10
52.0212
 20
96.9339
 30
0.000000
  70
    32
  0
VERTEX
  8
0
  5
A3F
 10
52.0897
 20
96.9596
 30
0.000000
  70
    32
  0
VERTEX
  8
0
  5
A40
 10
52.1549
 20
96.9858
 30
0.000000
  70
    32
  0
VERTEX
  8
0
  5
A41
 10
52.2166
 20
97.0124
 30
0.000000
  70
    32
  0
VERTEX
  8
0
  5
A42
 10
52.2747
 20
97.0395
 30
0.000000
  70
    32
  0
VERTEX
  8
0
  5
A43
 10
52.3292
 20
97.0669
 30
0.000000
  70
    32
  0
VERTEX
  8
0
  5
A44
 10
52.3801
 20
97.0947
 30
0.000000
  70
    32
  0
VERTEX
  8
0
  5
A45
 10
52.4274
 20
97.1229
 30
0.000000
  70
    32
  0
VERTEX
  8
0
  5
A46
 10
52.4709
 20
97.1514
 30
0.000000
  70
    32
  0
VERTEX
  8
0
  5
A47
 10
52.5106
 20
97.1801
 30
0.000000
  70
    32
  0
VERTEX
  8
0
  5
A48
 10
52.5465
 20
97.2092
 30
0.000000
  70
    32
  0
VERTEX
  8
0
  5
A49
 10
52.5786
 20
97.2384
 30
0.000000
  70
    32
  0
VERTEX
  8
0
  5
A4A
 10
52.6068
 20
97.2679
 30
0.000000
  70
    32
  0
VERTEX
  8
0
  5
A4B
 10
52.6311
 20
97.2976
 30
0.000000
  70
    32
  0
VERTEX
  8
0
  5
A4C
 10
52.6514
 20
97.3274
 30
0.000000
  70
    32
  0
VERTEX
  8
0
  5
A4D
 10
52.6679
 20
97.3574
 30
0.000000
  70
    32
  0
VERTEX
  8
0
  5
A4E
 10
52.6804
 20
97.3874
 30
0.000000
  70
    32
  0
VERTEX
  8
0
  5
A4F
 10
52.6889
 20
97.4176
 30
0.000000
  70
    32
  0
VERTEX
  8
0
  5
A50
 10
52.6935
 20
97.4477
 30
0.000000
  70
    32
  0
VERTEX
  8
0
  5
A51
 10
52.6940
 20
97.4779
 30
0.000000
  70
    32
  0
VERTEX
  8
0
  5
A52
 10
52.6907
 20
97.5081
 30
0.000000
  70
    32
  0
VERTEX
  8
0
  5
A53
 10
52.6833
 20
97.5382
 30
0.000000
  70
    32
  0
VERTEX
  8
0
  5
A54
 10
52.6719
 20
97.5683
 30
0.000000
  70
    32
  0
VERTEX
  8
0
  5
A55
 10
52.6566
 20
97.5983
 30
0.000000
  70
    32
  0
VERTEX
  8
0
  5
A56
 10
52.6374
 20
97.6282
 30
0.000000
  70
    32
  0
VERTEX
  8
0
  5
A57
 10
52.6142
 20
97.6579
 30
0.000000
  70
    32
  0
VERTEX
  8
0
  5
A58
 10
52.5872
 20
97.6874
 30
0.000000
  70
    32
  0
VERTEX
  8
0
  5
A59
 10
52.5562
 20
97.7168
 30
0.000000
  70
    32
  0
VERTEX
  8
0
  5
A5A
 10
52.5214
 20
97.7459
 30
0.000000
  70
    32
  0
VERTEX
  8
0
  5
A5B
 10
52.4828
 20
97.7747
 30
0.000000
  70
    32
  0
VERTEX
  8
0
  5
A5C
 10
52.4404
 20
97.8033
 30
0.000000
  70
    32
  0
VERTEX
  8
0
  5
A5D
 10
52.3943
 20
97.8315
 30
0.000000
  70
    32
  0
SEQEND
  8
0
  5
A5E
  0
ARC
  5
677
  8
0
 10
100.1285045158172
 20
92.287470300032965
 30
0.0
 40
2.0
 50
270.0
 51
289.99999999999949
  0
ARC
  5
678
  8
0
 10
93.067023178027796
 20
144.94397312882941
 30
0.0
 40
2.7567916134521511
 50
175.97735839169451
 51
184.02264160830549
  0
ARC
  5
679
  8
0
 10
93.067023178027796
 20
144.94397312882941
 30
0.0
 40
2.7567916134521511
 50
190.9783913299396
 51
349.0216086700604
  0
ARC
  5
67A
  8
0
 10
93.067023178027796
 20
144.94397312882941
 30
0.0
 40
2.7567916134521511
 50
10.97839132993635
 51
169.02160867006029
  0
LINE
  5
67B
  8
0
 10
90.317023178027853
 20
145.4689731288293
 30
0.0
 11
90.317023178027853
 21
144.41897312882941
 31
0.0
  0
LINE
  5
67C
  8
0
 10
95.817023178027796
 20
145.4689731288293
 30
0.0
 11
95.817023178027796
 21
144.41897312882941
 31
0.0
  0
ARC
  5
67D
  8
0
 10
93.067023178027796
 20
144.94397312882941
 30
0.0
 40
2.7567916134521511
 50
355.97735839170429
 51
4.0226416082990033
  0
LINE
  5
67E
  8
0
 10
94.456240078893813
 20
144.41897312882941
 30
0.0
 11
95.817023178027796
 21
144.41897312882941
 31
0.0
  0
LINE
  5
67F
  8
0
 10
94.456240078893913
 20
145.4689731288293
 30
0.0
 11
95.817023178027796
 21
145.4689731288293
 31
0.0
  0
LINE
  5
680
  8
0
 10
90.317023178027796
 20
145.4689731288293
 30
0.0
 11
91.677806277161778
 21
145.4689731288293
 31
0.0
  0
LINE
  5
681
  8
0
 10
90.317023178027796
 20
144.41897312882941
 30
0.0
 11
91.677806277161878
 21
144.41897312882941
 31
0.0
  0
ARC
  5
682
  8
0
 10
94.897685084039779
 20
146.00090627306071
 30
0.0
 40
0.6912500000000011
 50
163.3417582272229
 51
256.65824177277881
  0
ARC
  5
683
  8
0
 10
94.647023178027837
 20
144.94397312882941
 30
0.0
 40
0.3950000000000004
 50
283.34175822722119
 51
76.658241772778837
  0
ARC
  5
684
  8
0
 10
94.897685084039779
 20
143.88703998459829
 30
0.0
 40
0.6912500000000003
 50
103.34175822722121
 51
196.65824177277699
  0
ARC
  5
685
  8
0
 10
93.857023178027816
 20
143.57565299084999
 30
0.0
 40
0.3949999999999998
 50
223.34175822722369
 51
16.658241772777039
  0
ARC
  5
686
  8
0
 10
93.067023178027867
 20
142.83010684036699
 30
0.0
 40
0.6912500000000003
 50
43.341758227223742
 51
136.65824177277571
  0
ARC
  5
687
  8
0
 10
92.277023178027832
 20
143.57565299084999
 30
0.0
 40
0.3950000000000001
 50
163.3417582272229
 51
316.65824177277631
  0
ARC
  5
688
  8
0
 10
91.236361272015927
 20
143.88703998459829
 30
0.0
 40
0.691250000000001
 50
343.3417582272229
 51
76.658241772778837
  0
ARC
  5
689
  8
0
 10
93.857023178027816
 20
146.31229326680889
 30
0.0
 40
0.3950000000000002
 50
343.3417582272229
 51
136.65824177277619
  0
ARC
  5
68A
  8
0
 10
93.067023178027867
 20
147.0578394172918
 30
0.0
 40
0.6912499999999989
 50
223.34175822722369
 51
316.65824177277631
  0
ARC
  5
68B
  8
0
 10
92.277023178027832
 20
146.31229326680889
 30
0.0
 40
0.3949999999999998
 50
43.341758227223742
 51
196.65824177277699
  0
ARC
  5
68C
  8
0
 10
91.236361272015927
 20
146.00090627306071
 30
0.0
 40
0.6912500000000005
 50
283.34175822722119
 51
16.658241772777039
  0
ARC
  5
68D
  8
0
 10
91.487023178027854
 20
144.94397312882941
 30
0.0
 40
0.3949999999999999
 50
103.34175822722121
 51
256.65824177277881
  0
CIRCLE
  5
68E
  8
0
 10
93.067023178027796
 20
144.94397312882941
 30
0.0
 40
4.0
  0
LINE
  5
68F
  8
0
 10
98.06702317802781
 20
75.488827396351667
 30
0.0
 11
97.767023178024544
 21
75.188827396348415
 31
0.0
  0
LINE
  5
690
  8
0
 10
98.06702317802781
 20
79.188827396348415
 30
0.0
 11
98.06702317802781
 21
75.488827396351667
 31
0.0
  0
LINE
  5
691
  8
0
 10
88.367023178031047
 20
75.188827396348415
 30
0.0
 11
97.767023178024544
 21
75.188827396348415
 31
0.0
  0
LINE
  5
692
  8
0
 10
88.067023178027725
 20
79.188827396348358
 30
0.0
 11
88.067023178027796
 21
75.488827396351667
 31
0.0
  0
LINE
  5
693
  8
0
 10
88.067023178027796
 20
75.488827396351667
 30
0.0
 11
88.367023178031047
 21
75.188827396348415
 31
0.0
  0
LINE
  5
694
  8
0
 10
88.067023178027867
 20
75.488827396351667
 30
0.0
 11
98.06702317802781
 21
75.488827396351667
 31
0.0
  0
ARC
  5
695
  8
0
 10
93.067023178027796
 20
91.678827396348424
 30
0.0
 40
8.0
 50
110.15731621557489
 51
120.0000000000002
  0
LINE
  5
696
  8
0
 10
89.067023178027966
 20
98.607030626624024
 30
0.0
 11
97.067023178027867
 21
98.607030626623896
 31
0.0
  0
ARC
  5
697
  8
0
 10
93.067023178027796
 20
91.678827396348424
 30
0.0
 40
8.0
 50
59.99999999999946
 51
69.84268378442394
  0
LINE
  5
698
  8
0
 10
95.823814791480004
 20
99.188827396348415
 30
0.0
 11
90.310231564575687
 21
99.188827396348415
 31
0.0
  0
LINE
  5
699
  8
0
 10
89.067023178027966
 20
98.607030626624024
 30
0.0
 11
89.067023178027853
 21
96.546956151084316
 31
0.0
  0
LINE
  5
69A
  8
0
 10
97.067023178027867
 20
98.607030626623896
 30
0.0
 11
97.067023178027867
 21
98.411235197014435
 31
0.0
  0
ARC
  5
69B
  8
0
 10
48.394298929911542
 20
91.678827396348424
 30
0.0
 40
8.0
 50
110.15731621557489
 51
120.0000000000002
  0
LINE
  5
69C
  8
0
 10
44.394298929911649
 20
98.607030626624024
 30
0.0
 11
52.394298929911542
 21
98.607030626623896
 31
0.0
  0
ARC
  5
69D
  8
0
 10
48.394298929911542
 20
91.678827396348424
 30
0.0
 40
8.0
 50
59.99999999999946
 51
69.84268378442394
  0
LINE
  5
69E
  8
0
 10
51.151090543363694
 20
99.188827396348415
 30
0.0
 11
45.637507316459498
 21
99.188827396348415
 31
0.0
  0
LINE
  5
69F
  8
0
 10
44.394298929911649
 20
98.607030626624024
 30
0.0
 11
44.394298929911592
 21
97.102920844951541
 31
0.0
  0
LINE
  5
6A0
  8
0
 10
52.394298929911542
 20
98.607030626623896
 30
0.0
 11
52.394298929911542
 21
97.102920844951541
 31
0.0
  0
ARC
  5
6A1
  8
0
 10
90.177104357108576
 20
144.94397312882941
 30
0.0
 40
8.3687692516683168
 50
325.13222729606031
 51
34.867772703943359
  0
LINE
  5
6A2
  8
0
 10
43.394298929911649
 20
75.488827396351667
 30
0.0
 11
53.394298929911599
 21
75.488827396351667
 31
0.0
  0
LINE
  5
6A3
  8
0
 10
43.694298929914851
 20
75.188827396348415
 30
0.0
 11
53.094298929908341
 21
75.188827396348415
 31
0.0
  0
LINE
  5
6A4
  8
0
 10
53.394298929911599
 20
79.188827396348415
 30
0.0
 11
53.394298929911599
 21
75.488827396351667
 31
0.0
  0
LINE
  5
6A5
  8
0
 10
53.394298929911599
 20
75.488827396351667
 30
0.0
 11
53.094298929908341
 21
75.188827396348415
 31
0.0
  0
LINE
  5
6A6
  8
0
 10
43.394298929911599
 20
75.488827396351667
 30
0.0
 11
43.694298929914851
 21
75.188827396348415
 31
0.0
  0
LINE
  5
6A7
  8
0
 10
43.394298929911542
 20
79.188827396348358
 30
0.0
 11
43.394298929911599
 21
75.488827396351667
 31
0.0
  0
LINE
  5
6A8
  8
0
 10
175.73974742614379
 20
79.188827396348358
 30
0.0
 11
175.73974742614379
 21
75.488827396351667
 31
0.0
  0
LINE
  5
6A9
  8
0
 10
175.73974742614379
 20
75.488827396351667
 30
0.0
 11
175.43974742614051
 21
75.188827396348415
 31
0.0
  0
LINE
  5
6AA
  8
0
 10
165.73974742614379
 20
75.488827396351667
 30
0.0
 11
166.03974742614699
 21
75.188827396348415
 31
0.0
  0
LINE
  5
6AB
  8
0
 10
165.73974742614379
 20
79.188827396348415
 30
0.0
 11
165.73974742614379
 21
75.488827396351667
 31
0.0
  0
LINE
  5
6AC
  8
0
 10
175.43974742614051
 20
75.188827396348415
 30
0.0
 11
166.03974742614699
 21
75.188827396348415
 31
0.0
  0
LINE
  5
6AD
  8
0
 10
175.73974742614379
 20
75.488827396351667
 30
0.0
 11
165.73974742614379
 21
75.488827396351667
 31
0.0
  0
LINE
  5
6AE
  8
0
 10
166.73974742614379
 20
98.607030626623896
 30
0.0
 11
166.73974742614379
 21
98.394807140771107
 31
0.0
  0
LINE
  5
6AF
  8
0
 10
174.73974742614371
 20
98.607030626624024
 30
0.0
 11
174.73974742614371
 21
98.394807140987211
 31
0.0
  0
ARC
  5
6B0
  8
0
 10
170.73974742614391
 20
91.678827396348424
 30
0.0
 40
8.0
 50
116.49764134031579
 51
120.0000000000005
  0
LINE
  5
6B1
  8
0
 10
174.73974742614371
 20
98.607030626624024
 30
0.0
 11
174.3560309665738
 21
98.607030626623953
 31
0.0
  0
ARC
  5
6B2
  8
0
 10
170.73974742614391
 20
91.678827396348424
 30
0.0
 40
8.0
 50
59.999999999999822
 51
63.458958911077971
  0
LINE
  5
6B3
  8
1
 10
178.48974742614379
 20
102.9388273963484
 30
0.0
 11
162.98974742614379
 21
102.9388273963484
 31
0.0
  0
LINE
  5
6B4
  8
1
 10
170.73974742614379
 20
110.6888273963484
 30
0.0
 11
170.73974742614379
 21
72.687470300044538
 31
0.0
  0
LINE
  5
6B5
  8
0
 10
177.05474742614379
 20
79.388827396348404
 30
0.0
 11
164.4247474261438
 21
79.388827396348461
 31
0.0
  0
LINE
  5
6B6
  8
0
 10
176.8547474261438
 20
79.188827396348415
 30
0.0
 11
164.62474742614381
 21
79.188827396348415
 31
0.0
  0
LINE
  5
6B7
  8
0
 10
176.8547474261438
 20
79.188827396348415
 30
0.0
 11
177.05474742614379
 21
79.388827396348404
 31
0.0
  0
LINE
  5
6B8
  8
0
 10
164.62474742614381
 20
79.188827396348415
 30
0.0
 11
164.4247474261438
 21
79.388827396348404
 31
0.0
  0
POLYLINE
  5
6B9
  8
0
 10
166.11104592425693
 20
93.035494728733056
 30
0.0
 66
     1
 70
     8
  0
VERTEX
  8
0
  5
A5F
 10
166.111
 20
93.0355
 30
0.000000
  70
    32
  0
VERTEX
  8
0
  5
A60
 10
166.090
 20
92.9726
 30
0.000000
  70
    32
  0
VERTEX
  8
0
  5
A61
 10
166.072
 20
92.9095
 30
0.000000
  70
    32
  0
VERTEX
  8
0
  5
A62
 10
166.057
 20
92.8462
 30
0.000000
  70
    32
  0
VERTEX
  8
0
  5
A63
 10
166.047
 20
92.7827
 30
0.000000
  70
    32
  0
VERTEX
  8
0
  5
A64
 10
166.039
 20
92.7190
 30
0.000000
  70
    32
  0
VERTEX
  8
0
  5
A65
 10
166.035
 20
92.6553
 30
0.000000
  70
    32
  0
VERTEX
  8
0
  5
A66
 10
166.035
 20
92.5916
 30
0.000000
  70
    32
  0
VERTEX
  8
0
  5
A67
 10
166.038
 20
92.5279
 30
0.000000
  70
    32
  0
VERTEX
  8
0
  5
A68
 10
166.045
 20
92.4642
 30
0.000000
  70
    32
  0
VERTEX
  8
0
  5
A69
 10
166.055
 20
92.4007
 30
0.000000
  70
    32
  0
VERTEX
  8
0
  5
A6A
 10
166.069
 20
92.3373
 30
0.000000
  70
    32
  0
VERTEX
  8
0
  5
A6B
 10
166.086
 20
92.2741
 30
0.000000
  70
    32
  0
VERTEX
  8
0
  5
A6C
 10
166.107
 20
92.2112
 30
0.000000
  70
    32
  0
VERTEX
  8
0
  5
A6D
 10
166.131
 20
92.1486
 30
0.000000
  70
    32
  0
VERTEX
  8
0
  5
A6E
 10
166.159
 20
92.0864
 30
0.000000
  70
    32
  0
VERTEX
  8
0
  5
A6F
 10
166.190
 20
92.0245
 30
0.000000
  70
    32
  0
VERTEX
  8
0
  5
A70
 10
166.224
 20
91.9631
 30
0.000000
  70
    32
  0
VERTEX
  8
0
  5
A71
 10
166.262
 20
91.9022
 30
0.000000
  70
    32
  0
VERTEX
  8
0
  5
A72
 10
166.303
 20
91.8418
 30
0.000000
  70
    32
  0
VERTEX
  8
0
  5
A73
 10
166.348
 20
91.7820
 30
0.000000
  70
    32
  0
VERTEX
  8
0
  5
A74
 10
166.395
 20
91.7228
 30
0.000000
  70
    32
  0
VERTEX
  8
0
  5
A75
 10
166.447
 20
91.6643
 30
0.000000
  70
    32
  0
VERTEX
  8
0
  5
A76
 10
166.501
 20
91.6065
 30
0.000000
  70
    32
  0
VERTEX
  8
0
  5
A77
 10
166.558
 20
91.5495
 30
0.000000
  70
    32
  0
VERTEX
  8
0
  5
A78
 10
166.619
 20
91.4932
 30
0.000000
  70
    32
  0
VERTEX
  8
0
  5
A79
 10
166.682
 20
91.4378
 30
0.000000
  70
    32
  0
VERTEX
  8
0
  5
A7A
 10
166.749
 20
91.3833
 30
0.000000
  70
    32
  0
VERTEX
  8
0
  5
A7B
 10
166.819
 20
91.3297
 30
0.000000
  70
    32
  0
VERTEX
  8
0
  5
A7C
 10
166.891
 20
91.2771
 30
0.000000
  70
    32
  0
VERTEX
  8
0
  5
A7D
 10
166.967
 20
91.2254
 30
0.000000
  70
    32
  0
VERTEX
  8
0
  5
A7E
 10
167.045
 20
91.1749
 30
0.000000
  70
    32
  0
VERTEX
  8
0
  5
A7F
 10
167.126
 20
91.1253
 30
0.000000
  70
    32
  0
VERTEX
  8
0
  5
A80
 10
167.210
 20
91.0770
 30
0.000000
  70
    32
  0
VERTEX
  8
0
  5
A81
 10
167.296
 20
91.0297
 30
0.000000
  70
    32
  0
VERTEX
  8
0
  5
A82
 10
167.385
 20
90.9837
 30
0.000000
  70
    32
  0
VERTEX
  8
0
  5
A83
 10
167.477
 20
90.9388
 30
0.000000
  70
    32
  0
VERTEX
  8
0
  5
A84
 10
167.571
 20
90.8953
 30
0.000000
  70
    32
  0
VERTEX
  8
0
  5
A85
 10
167.667
 20
90.8530
 30
0.000000
  70
    32
  0
VERTEX
  8
0
  5
A86
 10
167.766
 20
90.8120
 30
0.000000
  70
    32
  0
VERTEX
  8
0
  5
A87
 10
167.867
 20
90.7724
 30
0.000000
  70
    32
  0
VERTEX
  8
0
  5
A88
 10
167.969
 20
90.7342
 30
0.000000
  70
    32
  0
VERTEX
  8
0
  5
A89
 10
168.075
 20
90.6974
 30
0.000000
  70
    32
  0
VERTEX
  8
0
  5
A8A
 10
168.182
 20
90.6620
 30
0.000000
  70
    32
  0
VERTEX
  8
0
  5
A8B
 10
168.291
 20
90.6281
 30
0.000000
  70
    32
  0
VERTEX
  8
0
  5
A8C
 10
168.401
 20
90.5956
 30
0.000000
  70
    32
  0
VERTEX
  8
0
  5
A8D
 10
168.514
 20
90.5647
 30
0.000000
  70
    32
  0
VERTEX
  8
0
  5
A8E
 10
168.628
 20
90.5353
 30
0.000000
  70
    32
  0
VERTEX
  8
0
  5
A8F
 10
168.744
 20
90.5075
 30
0.000000
  70
    32
  0
VERTEX
  8
0
  5
A90
 10
168.861
 20
90.4813
 30
0.000000
  70
    32
  0
VERTEX
  8
0
  5
A91
 10
168.980
 20
90.4566
 30
0.000000
  70
    32
  0
VERTEX
  8
0
  5
A92
 10
169.100
 20
90.4336
 30
0.000000
  70
    32
  0
VERTEX
  8
0
  5
A93
 10
169.221
 20
90.4122
 30
0.000000
  70
    32
  0
VERTEX
  8
0
  5
A94
 10
169.343
 20
90.3924
 30
0.000000
  70
    32
  0
VERTEX
  8
0
  5
A95
 10
169.467
 20
90.3744
 30
0.000000
  70
    32
  0
VERTEX
  8
0
  5
A96
 10
169.591
 20
90.3580
 30
0.000000
  70
    32
  0
VERTEX
  8
0
  5
A97
 10
169.717
 20
90.3432
 30
0.000000
  70
    32
  0
VERTEX
  8
0
  5
A98
 10
169.842
 20
90.3302
 30
0.000000
  70
    32
  0
VERTEX
  8
0
  5
A99
 10
169.969
 20
90.3189
 30
0.000000
  70
    32
  0
VERTEX
  8
0
  5
A9A
 10
170.096
 20
90.3094
 30
0.000000
  70
    32
  0
VERTEX
  8
0
  5
A9B
 10
170.224
 20
90.3015
 30
0.000000
  70
    32
  0
VERTEX
  8
0
  5
A9C
 10
170.352
 20
90.2954
 30
0.000000
  70
    32
  0
VERTEX
  8
0
  5
A9D
 10
170.481
 20
90.2910
 30
0.000000
  70
    32
  0
VERTEX
  8
0
  5
A9E
 10
170.609
 20
90.2884
 30
0.000000
  70
    32
  0
VERTEX
  8
0
  5
A9F
 10
170.738
 20
90.2875
 30
0.000000
  70
    32
  0
VERTEX
  8
0
  5
AA0
 10
170.867
 20
90.2883
 30
0.000000
  70
    32
  0
VERTEX
  8
0
  5
AA1
 10
170.995
 20
90.2909
 30
0.000000
  70
    32
  0
VERTEX
  8
0
  5
AA2
 10
171.124
 20
90.2952
 30
0.000000
  70
    32
  0
VERTEX
  8
0
  5
AA3
 10
171.252
 20
90.3013
 30
0.000000
  70
    32
  0
VERTEX
  8
0
  5
AA4
 10
171.379
 20
90.3091
 30
0.000000
  70
    32
  0
VERTEX
  8
0
  5
AA5
 10
171.507
 20
90.3186
 30
0.000000
  70
    32
  0
VERTEX
  8
0
  5
AA6
 10
171.633
 20
90.3299
 30
0.000000
  70
    32
  0
VERTEX
  8
0
  5
AA7
 10
171.759
 20
90.3428
 30
0.000000
  70
    32
  0
VERTEX
  8
0
  5
AA8
 10
171.885
 20
90.3575
 30
0.000000
  70
    32
  0
VERTEX
  8
0
  5
AA9
 10
172.009
 20
90.3739
 30
0.000000
  70
    32
  0
VERTEX
  8
0
  5
AAA
 10
172.133
 20
90.3919
 30
0.000000
  70
    32
  0
VERTEX
  8
0
  5
AAB
 10
172.255
 20
90.4116
 30
0.000000
  70
    32
  0
VERTEX
  8
0
  5
AAC
 10
172.376
 20
90.4329
 30
0.000000
  70
    32
  0
VERTEX
  8
0
  5
AAD
 10
172.496
 20
90.4559
 30
0.000000
  70
    32
  0
VERTEX
  8
0
  5
AAE
 10
172.615
 20
90.4805
 30
0.000000
  70
    32
  0
VERTEX
  8
0
  5
AAF
 10
172.732
 20
90.5067
 30
0.000000
  70
    32
  0
VERTEX
  8
0
  5
AB0
 10
172.848
 20
90.5345
 30
0.000000
  70
    32
  0
VERTEX
  8
0
  5
AB1
 10
172.962
 20
90.5639
 30
0.000000
  70
    32
  0
VERTEX
  8
0
  5
AB2
 10
173.075
 20
90.5947
 30
0.000000
  70
    32
  0
VERTEX
  8
0
  5
AB3
 10
173.186
 20
90.6271
 30
0.000000
  70
    32
  0
VERTEX
  8
0
  5
AB4
 10
173.295
 20
90.6610
 30
0.000000
  70
    32
  0
VERTEX
  8
0
  5
AB5
 10
173.402
 20
90.6963
 30
0.000000
  70
    32
  0
VERTEX
  8
0
  5
AB6
 10
173.507
 20
90.7331
 30
0.000000
  70
    32
  0
VERTEX
  8
0
  5
AB7
 10
173.610
 20
90.7713
 30
0.000000
  70
    32
  0
VERTEX
  8
0
  5
AB8
 10
173.711
 20
90.8109
 30
0.000000
  70
    32
  0
VERTEX
  8
0
  5
AB9
 10
173.810
 20
90.8518
 30
0.000000
  70
    32
  0
VERTEX
  8
0
  5
ABA
 10
173.906
 20
90.8940
 30
0.000000
  70
    32
  0
VERTEX
  8
0
  5
ABB
 10
174.000
 20
90.9376
 30
0.000000
  70
    32
  0
VERTEX
  8
0
  5
ABC
 10
174.092
 20
90.9824
 30
0.000000
  70
    32
  0
VERTEX
  8
0
  5
ABD
 10
174.181
 20
91.0284
 30
0.000000
  70
    32
  0
VERTEX
  8
0
  5
ABE
 10
174.267
 20
91.0756
 30
0.000000
  70
    32
  0
VERTEX
  8
0
  5
ABF
 10
174.351
 20
91.1240
 30
0.000000
  70
    32
  0
VERTEX
  8
0
  5
AC0
 10
174.432
 20
91.1734
 30
0.000000
  70
    32
  0
VERTEX
  8
0
  5
AC1
 10
174.511
 20
91.2240
 30
0.000000
  70
    32
  0
VERTEX
  8
0
  5
AC2
 10
174.586
 20
91.2756
 30
0.000000
  70
    32
  0
VERTEX
  8
0
  5
AC3
 10
174.659
 20
91.3282
 30
0.000000
  70
    32
  0
VERTEX
  8
0
  5
AC4
 10
174.728
 20
91.3818
 30
0.000000
  70
    32
  0
VERTEX
  8
0
  5
AC5
 10
174.795
 20
91.4362
 30
0.000000
  70
    32
  0
VERTEX
  8
0
  5
AC6
 10
174.859
 20
91.4916
 30
0.000000
  70
    32
  0
VERTEX
  8
0
  5
AC7
 10
174.920
 20
91.5478
 30
0.000000
  70
    32
  0
VERTEX
  8
0
  5
AC8
 10
174.977
 20
91.6049
 30
0.000000
  70
    32
  0
VERTEX
  8
0
  5
AC9
 10
175.031
 20
91.6626
 30
0.000000
  70
    32
  0
VERTEX
  8
0
  5
ACA
 10
175.083
 20
91.7211
 30
0.000000
  70
    32
  0
VERTEX
  8
0
  5
ACB
 10
175.131
 20
91.7803
 30
0.000000
  70
    32
  0
VERTEX
  8
0
  5
ACC
 10
175.175
 20
91.8401
 30
0.000000
  70
    32
  0
VERTEX
  8
0
  5
ACD
 10
175.216
 20
91.9005
 30
0.000000
  70
    32
  0
VERTEX
  8
0
  5
ACE
 10
175.254
 20
91.9614
 30
0.000000
  70
    32
  0
VERTEX
  8
0
  5
ACF
 10
175.289
 20
92.0228
 30
0.000000
  70
    32
  0
VERTEX
  8
0
  5
AD0
 10
175.320
 20
92.0846
 30
0.000000
  70
    32
  0
VERTEX
  8
0
  5
AD1
 10
175.348
 20
92.1468
 30
0.000000
  70
    32
  0
VERTEX
  8
0
  5
AD2
 10
175.372
 20
92.2094
 30
0.000000
  70
    32
  0
VERTEX
  8
0
  5
AD3
 10
175.393
 20
92.2723
 30
0.000000
  70
    32
  0
VERTEX
  8
0
  5
AD4
 10
175.410
 20
92.3355
 30
0.000000
  70
    32
  0
VERTEX
  8
0
  5
AD5
 10
175.424
 20
92.3989
 30
0.000000
  70
    32
  0
VERTEX
  8
0
  5
AD6
 10
175.434
 20
92.4624
 30
0.000000
  70
    32
  0
VERTEX
  8
0
  5
AD7
 10
175.441
 20
92.5261
 30
0.000000
  70
    32
  0
VERTEX
  8
0
  5
AD8
 10
175.444
 20
92.5898
 30
0.000000
  70
    32
  0
VERTEX
  8
0
  5
AD9
 10
175.444
 20
92.6535
 30
0.000000
  70
    32
  0
VERTEX
  8
0
  5
ADA
 10
175.440
 20
92.7172
 30
0.000000
  70
    32
  0
VERTEX
  8
0
  5
ADB
 10
175.433
 20
92.7809
 30
0.000000
  70
    32
  0
VERTEX
  8
0
  5
ADC
 10
175.422
 20
92.8444
 30
0.000000
  70
    32
  0
VERTEX
  8
0
  5
ADD
 10
175.408
 20
92.9077
 30
0.000000
  70
    32
  0
VERTEX
  8
0
  5
ADE
 10
175.390
 20
92.9708
 30
0.000000
  70
    32
  0
VERTEX
  8
0
  5
ADF
 10
175.369
 20
93.0337
 30
0.000000
  70
    32
  0
SEQEND
  8
0
  5
AE0
  0
LINE
  5
6BA
  8
0
 10
167.20960666242121
 20
99.052877552577343
 30
0.0
 11
166.03474742614381
 21
92.617568567637647
 31
0.0
  0
LINE
  5
6BB
  8
0
 10
174.27426493791199
 20
99.056858056051681
 30
0.0
 11
175.44474742614381
 21
92.617568567637647
 31
0.0
  0
LINE
  5
6BC
  8
0
 10
45.486743389185037
 20
102.75602510498631
 30
0.0
 11
44.834517484721168
 21
98.843180546666915
 31
0.0
  0
LINE
  5
6BD
  8
0
 10
51.288916296314483
 20
102.7839664376333
 30
0.0
 11
51.962373984495912
 21
98.839053678027895
 31
0.0
  0
LINE
  5
6BE
  8
0
 10
167.12821082266461
 20
98.607030626623839
 30
0.0
 11
166.73974742614379
 21
98.607030626623896
 31
0.0
  0
LINE
  5
6BF
  8
0
 10
98.542877610359938
 20
30.54130185335811
 30
0.0
 11
123.62315589811119
 21
32.072807051264647
 31
0.0
  0
LINE
  5
6C0
  8
0
 10
98.542877610360165
 20
39.920633089167382
 30
0.0
 11
123.6231558981108
 21
38.389127891261012
 31
0.0
  0
LINE
  5
6C1
  8
1
 10
93.067023178027796
 20
25.730967471262769
 30
0.0
 11
93.067023178027796
 21
44.730967471262943
 31
0.0
  0
LINE
  5
6C2
  8
1
 10
127.8170231780277
 20
27.480967471262939
 30
0.0
 11
127.8170231780278
 21
42.98096747126317
 31
0.0
  0
LINE
  5
6C3
  8
1
 10
83.567023178027625
 20
35.230967471262829
 30
0.0
 11
135.5670231780278
 21
35.230967471262829
 31
0.0
  0
CIRCLE
  5
6C4
  8
0
 10
93.067023178027796
 20
35.230967471262829
 30
0.0
 40
4.6999999999967619
  0
CIRCLE
  5
6C5
  8
0
 10
93.067023178027796
 20
35.230967471262829
 30
0.0
 40
5.0000000000000142
  0
CIRCLE
  5
6C6
  8
0
 10
93.067023178027796
 20
35.230967471262829
 30
0.0
 40
6.114999999999994
  0
CIRCLE
  5
6C7
  8
0
 10
93.067023178027796
 20
35.230967471262829
 30
0.0
 40
6.3150000000000537
  0
LINE
  5
6C8
  8
0
 10
175.44474742614381
 20
92.617568567637647
 30
0.0
 11
175.44474742614381
 21
90.287470300032965
 31
0.0
  0
LINE
  5
6C9
  8
0
 10
166.03474742614381
 20
92.617568567637647
 30
0.0
 11
166.03474742614381
 21
90.287470300032965
 31
0.0
  0
CIRCLE
  5
6CA
  8
0
 10
93.067023178027796
 20
35.230967471262829
 30
0.0
 40
6.5
  0
ARC
  5
6CB
  8
0
 10
127.8170231780278
 20
144.94397312882961
 30
0.0
 40
5.25
 50
216.52960722973799
 51
143.4703927702692
  0
ARC
  5
6CC
  8
0
 10
127.8170231780278
 20
102.9388273963484
 30
0.0
 40
5.25
 50
229.18816710386869
 51
163.81618741001
  0
CIRCLE
  5
6CD
  8
0
 10
170.73974742614379
 20
102.9388273963484
 30
0.0
 40
5.25
  0
ARC
  5
6CE
  8
0
 10
48.394298929911599
 20
102.9388273963484
 30
0.0
 40
5.25
 50
312.2714416383206
 51
227.81484309981741
  0
ARC
  5
6D0
  8
0
 10
93.067023178027796
 20
144.94397312882941
 30
0.0
 40
7.0
 50
44.574934021774617
 51
315.42506597822882
  0
ARC
  5
6D1
  8
0
 10
98.587605156125505
 20
150.38324464467621
 30
0.0
 40
0.75
 50
224.57493402177491
 51
266.4244989917853
  0
ARC
  5
6D2
  8
0
 10
98.587605156125676
 20
139.5047016129827
 30
0.0
 40
0.75
 50
93.575501008214232
 51
135.4250659782285
  0
CIRCLE
  5
6D3
  8
0
 10
93.067023178027796
 20
35.230967471262829
 30
0.0
 40
7.0
  0
ARC
  5
6D4
  8
0
 10
98.588590554070365
 20
40.669238677429568
 30
0.0
 40
0.75
 50
224.56455315825181
 51
266.50562247270852
  0
ARC
  5
6D5
  8
0
 10
98.588590554070208
 20
29.792696265095909
 30
0.0
 40
0.75
 50
93.494377527290325
 51
135.43544684174731
  0
ARC
  5
6D6
  8
0
 10
100.0670231780279
 20
89.987470300032953
 30
0.0
 40
0.3
 50
90.0
 51
180.0
  0
LINE
  5
6D7
  8
0
 10
99.767023178027884
 20
89.987470300032953
 30
0.0
 11
99.382023178027893
 21
79.388827396348404
 31
0.0
  0
ARC
  5
6D8
  8
0
 10
177.7047474261438
 20
89.987470300032953
 30
0.0
 40
0.3
 50
90.0
 51
180.0
  0
ARC
  5
6D9
  8
0
 10
163.77474742614379
 20
89.987470300032953
 30
0.0
 40
0.3
 50
0.0
 51
90.0
  0
LINE
  5
6DA
  8
0
 10
164.0747474261438
 20
89.987470300032953
 30
0.0
 11
177.40474742614381
 21
89.987470300032953
 31
0.0
  0
LINE
  5
6DB
  8
0
 10
163.77474742614379
 20
90.287470300032965
 30
0.0
 11
177.7047474261438
 21
90.287470300032965
 31
0.0
  0
LINE
  5
6DC
  8
0
 10
177.7047474261438
 20
90.287470300032965
 30
0.0
 11
177.7047474261438
 21
90.608827396348374
 31
0.0
  0
LINE
  5
6DD
  8
0
 10
163.77474742614379
 20
90.287470300032965
 30
0.0
 11
163.77474742614379
 21
90.608827396348374
 31
0.0
  0
LINE
  5
6DE
  8
0
 10
177.40474742614381
 20
89.987470300032953
 30
0.0
 11
177.05474742614379
 21
79.388827396348404
 31
0.0
  0
LINE
  5
6DF
  8
0
 10
164.0747474261438
 20
89.987470300032953
 30
0.0
 11
164.4247474261438
 21
79.388827396348404
 31
0.0
  0
ARC
  5
6E0
  8
0
 10
180.95407884655489
 20
90.007555456160105
 30
0.0
 40
17.411070463754861
 50
154.63114496590421
 51
171.37855684221199
  0
POLYLINE
  5
6E1
  8
0
 10
167.10509438798175
 20
98.480410010961677
 30
0.0
 66
     1
 70
     8
  0
VERTEX
  8
0
  5
AE1
 10
167.105
 20
98.4804
 30
0.000000
  70
    32
  0
VERTEX
  8
0
  5
AE2
 10
167.078
 20
98.4745
 30
0.000000
  70
    32
  0
VERTEX
  8
0
  5
AE3
 10
167.050
 20
98.4685
 30
0.000000
  70
    32
  0
VERTEX
  8
0
  5
AE4
 10
167.023
 20
98.4625
 30
0.000000
  70
    32
  0
VERTEX
  8
0
  5
AE5
 10
166.996
 20
98.4564
 30
0.000000
  70
    32
  0
VERTEX
  8
0
  5
AE6
 10
166.969
 20
98.4503
 30
0.000000
  70
    32
  0
VERTEX
  8
0
  5
AE7
 10
166.942
 20
98.4442
 30
0.000000
  70
    32
  0
VERTEX
  8
0
  5
AE8
 10
166.916
 20
98.4380
 30
0.000000
  70
    32
  0
VERTEX
  8
0
  5
AE9
 10
166.889
 20
98.4318
 30
0.000000
  70
    32
  0
VERTEX
  8
0
  5
AEA
 10
166.863
 20
98.4255
 30
0.000000
  70
    32
  0
VERTEX
  8
0
  5
AEB
 10
166.837
 20
98.4192
 30
0.000000
  70
    32
  0
VERTEX
  8
0
  5
AEC
 10
166.811
 20
98.4128
 30
0.000000
  70
    32
  0
VERTEX
  8
0
  5
AED
 10
166.786
 20
98.4064
 30
0.000000
  70
    32
  0
VERTEX
  8
0
  5
AEE
 10
166.760
 20
98.4000
 30
0.000000
  70
    32
  0
VERTEX
  8
0
  5
AEF
 10
166.735
 20
98.3935
 30
0.000000
  70
    32
  0
VERTEX
  8
0
  5
AF0
 10
166.710
 20
98.3870
 30
0.000000
  70
    32
  0
VERTEX
  8
0
  5
AF1
 10
166.685
 20
98.3804
 30
0.000000
  70
    32
  0
VERTEX
  8
0
  5
AF2
 10
166.660
 20
98.3738
 30
0.000000
  70
    32
  0
VERTEX
  8
0
  5
AF3
 10
166.635
 20
98.3672
 30
0.000000
  70
    32
  0
VERTEX
  8
0
  5
AF4
 10
166.611
 20
98.3605
 30
0.000000
  70
    32
  0
VERTEX
  8
0
  5
AF5
 10
166.586
 20
98.3538
 30
0.000000
  70
    32
  0
VERTEX
  8
0
  5
AF6
 10
166.562
 20
98.3470
 30
0.000000
  70
    32
  0
VERTEX
  8
0
  5
AF7
 10
166.538
 20
98.3402
 30
0.000000
  70
    32
  0
VERTEX
  8
0
  5
AF8
 10
166.515
 20
98.3333
 30
0.000000
  70
    32
  0
VERTEX
  8
0
  5
AF9
 10
166.491
 20
98.3265
 30
0.000000
  70
    32
  0
VERTEX
  8
0
  5
AFA
 10
166.468
 20
98.3195
 30
0.000000
  70
    32
  0
VERTEX
  8
0
  5
AFB
 10
166.445
 20
98.3126
 30
0.000000
  70
    32
  0
VERTEX
  8
0
  5
AFC
 10
166.422
 20
98.3056
 30
0.000000
  70
    32
  0
VERTEX
  8
0
  5
AFD
 10
166.399
 20
98.2986
 30
0.000000
  70
    32
  0
VERTEX
  8
0
  5
AFE
 10
166.376
 20
98.2915
 30
0.000000
  70
    32
  0
VERTEX
  8
0
  5
AFF
 10
166.354
 20
98.2844
 30
0.000000
  70
    32
  0
VERTEX
  8
0
  5
B00
 10
166.332
 20
98.2773
 30
0.000000
  70
    32
  0
VERTEX
  8
0
  5
B01
 10
166.310
 20
98.2701
 30
0.000000
  70
    32
  0
VERTEX
  8
0
  5
B02
 10
166.288
 20
98.2629
 30
0.000000
  70
    32
  0
VERTEX
  8
0
  5
B03
 10
166.267
 20
98.2556
 30
0.000000
  70
    32
  0
VERTEX
  8
0
  5
B04
 10
166.245
 20
98.2483
 30
0.000000
  70
    32
  0
VERTEX
  8
0
  5
B05
 10
166.224
 20
98.2410
 30
0.000000
  70
    32
  0
VERTEX
  8
0
  5
B06
 10
166.203
 20
98.2337
 30
0.000000
  70
    32
  0
VERTEX
  8
0
  5
B07
 10
166.182
 20
98.2263
 30
0.000000
  70
    32
  0
VERTEX
  8
0
  5
B08
 10
166.162
 20
98.2189
 30
0.000000
  70
    32
  0
VERTEX
  8
0
  5
B09
 10
166.141
 20
98.2114
 30
0.000000
  70
    32
  0
VERTEX
  8
0
  5
B0A
 10
166.121
 20
98.2039
 30
0.000000
  70
    32
  0
VERTEX
  8
0
  5
B0B
 10
166.101
 20
98.1964
 30
0.000000
  70
    32
  0
VERTEX
  8
0
  5
B0C
 10
166.081
 20
98.1889
 30
0.000000
  70
    32
  0
VERTEX
  8
0
  5
B0D
 10
166.062
 20
98.1813
 30
0.000000
  70
    32
  0
VERTEX
  8
0
  5
B0E
 10
166.042
 20
98.1737
 30
0.000000
  70
    32
  0
VERTEX
  8
0
  5
B0F
 10
166.023
 20
98.1660
 30
0.000000
  70
    32
  0
VERTEX
  8
0
  5
B10
 10
166.004
 20
98.1584
 30
0.000000
  70
    32
  0
VERTEX
  8
0
  5
B11
 10
165.985
 20
98.1507
 30
0.000000
  70
    32
  0
VERTEX
  8
0
  5
B12
 10
165.967
 20
98.1429
 30
0.000000
  70
    32
  0
VERTEX
  8
0
  5
B13
 10
165.949
 20
98.1352
 30
0.000000
  70
    32
  0
VERTEX
  8
0
  5
B14
 10
165.930
 20
98.1274
 30
0.000000
  70
    32
  0
VERTEX
  8
0
  5
B15
 10
165.913
 20
98.1195
 30
0.000000
  70
    32
  0
VERTEX
  8
0
  5
B16
 10
165.895
 20
98.1117
 30
0.000000
  70
    32
  0
VERTEX
  8
0
  5
B17
 10
165.877
 20
98.1038
 30
0.000000
  70
    32
  0
VERTEX
  8
0
  5
B18
 10
165.860
 20
98.0959
 30
0.000000
  70
    32
  0
VERTEX
  8
0
  5
B19
 10
165.843
 20
98.0880
 30
0.000000
  70
    32
  0
VERTEX
  8
0
  5
B1A
 10
165.826
 20
98.0800
 30
0.000000
  70
    32
  0
VERTEX
  8
0
  5
B1B
 10
165.810
 20
98.0720
 30
0.000000
  70
    32
  0
VERTEX
  8
0
  5
B1C
 10
165.793
 20
98.0640
 30
0.000000
  70
    32
  0
VERTEX
  8
0
  5
B1D
 10
165.777
 20
98.0559
 30
0.000000
  70
    32
  0
VERTEX
  8
0
  5
B1E
 10
165.761
 20
98.0479
 30
0.000000
  70
    32
  0
VERTEX
  8
0
  5
B1F
 10
165.746
 20
98.0398
 30
0.000000
  70
    32
  0
VERTEX
  8
0
  5
B20
 10
165.730
 20
98.0316
 30
0.000000
  70
    32
  0
VERTEX
  8
0
  5
B21
 10
165.715
 20
98.0235
 30
0.000000
  70
    32
  0
VERTEX
  8
0
  5
B22
 10
165.700
 20
98.0153
 30
0.000000
  70
    32
  0
VERTEX
  8
0
  5
B23
 10
165.685
 20
98.0071
 30
0.000000
  70
    32
  0
VERTEX
  8
0
  5
B24
 10
165.670
 20
97.9989
 30
0.000000
  70
    32
  0
VERTEX
  8
0
  5
B25
 10
165.656
 20
97.9907
 30
0.000000
  70
    32
  0
VERTEX
  8
0
  5
B26
 10
165.642
 20
97.9824
 30
0.000000
  70
    32
  0
VERTEX
  8
0
  5
B27
 10
165.628
 20
97.9741
 30
0.000000
  70
    32
  0
VERTEX
  8
0
  5
B28
 10
165.614
 20
97.9658
 30
0.000000
  70
    32
  0
VERTEX
  8
0
  5
B29
 10
165.601
 20
97.9575
 30
0.000000
  70
    32
  0
VERTEX
  8
0
  5
B2A
 10
165.587
 20
97.9491
 30
0.000000
  70
    32
  0
VERTEX
  8
0
  5
B2B
 10
165.574
 20
97.9407
 30
0.000000
  70
    32
  0
VERTEX
  8
0
  5
B2C
 10
165.562
 20
97.9323
 30
0.000000
  70
    32
  0
VERTEX
  8
0
  5
B2D
 10
165.549
 20
97.9239
 30
0.000000
  70
    32
  0
VERTEX
  8
0
  5
B2E
 10
165.537
 20
97.9155
 30
0.000000
  70
    32
  0
VERTEX
  8
0
  5
B2F
 10
165.525
 20
97.9070
 30
0.000000
  70
    32
  0
VERTEX
  8
0
  5
B30
 10
165.513
 20
97.8985
 30
0.000000
  70
    32
  0
VERTEX
  8
0
  5
B31
 10
165.501
 20
97.8900
 30
0.000000
  70
    32
  0
VERTEX
  8
0
  5
B32
 10
165.490
 20
97.8815
 30
0.000000
  70
    32
  0
VERTEX
  8
0
  5
B33
 10
165.478
 20
97.8730
 30
0.000000
  70
    32
  0
VERTEX
  8
0
  5
B34
 10
165.467
 20
97.8644
 30
0.000000
  70
    32
  0
VERTEX
  8
0
  5
B35
 10
165.457
 20
97.8559
 30
0.000000
  70
    32
  0
VERTEX
  8
0
  5
B36
 10
165.446
 20
97.8473
 30
0.000000
  70
    32
  0
VERTEX
  8
0
  5
B37
 10
165.436
 20
97.8387
 30
0.000000
  70
    32
  0
VERTEX
  8
0
  5
B38
 10
165.426
 20
97.8300
 30
0.000000
  70
    32
  0
VERTEX
  8
0
  5
B39
 10
165.416
 20
97.8214
 30
0.000000
  70
    32
  0
VERTEX
  8
0
  5
B3A
 10
165.407
 20
97.8128
 30
0.000000
  70
    32
  0
VERTEX
  8
0
  5
B3B
 10
165.397
 20
97.8041
 30
0.000000
  70
    32
  0
VERTEX
  8
0
  5
B3C
 10
165.388
 20
97.7954
 30
0.000000
  70
    32
  0
VERTEX
  8
0
  5
B3D
 10
165.380
 20
97.7867
 30
0.000000
  70
    32
  0
VERTEX
  8
0
  5
B3E
 10
165.371
 20
97.7780
 30
0.000000
  70
    32
  0
VERTEX
  8
0
  5
B3F
 10
165.363
 20
97.7693
 30
0.000000
  70
    32
  0
VERTEX
  8
0
  5
B40
 10
165.354
 20
97.7605
 30
0.000000
  70
    32
  0
VERTEX
  8
0
  5
B41
 10
165.347
 20
97.7518
 30
0.000000
  70
    32
  0
VERTEX
  8
0
  5
B42
 10
165.339
 20
97.7430
 30
0.000000
  70
    32
  0
VERTEX
  8
0
  5
B43
 10
165.332
 20
97.7342
 30
0.000000
  70
    32
  0
VERTEX
  8
0
  5
B44
 10
165.324
 20
97.7255
 30
0.000000
  70
    32
  0
VERTEX
  8
0
  5
B45
 10
165.317
 20
97.7167
 30
0.000000
  70
    32
  0
VERTEX
  8
0
  5
B46
 10
165.311
 20
97.7078
 30
0.000000
  70
    32
  0
VERTEX
  8
0
  5
B47
 10
165.304
 20
97.6990
 30
0.000000
  70
    32
  0
VERTEX
  8
0
  5
B48
 10
165.298
 20
97.6902
 30
0.000000
  70
    32
  0
VERTEX
  8
0
  5
B49
 10
165.292
 20
97.6814
 30
0.000000
  70
    32
  0
VERTEX
  8
0
  5
B4A
 10
165.286
 20
97.6725
 30
0.000000
  70
    32
  0
VERTEX
  8
0
  5
B4B
 10
165.281
 20
97.6636
 30
0.000000
  70
    32
  0
VERTEX
  8
0
  5
B4C
 10
165.276
 20
97.6548
 30
0.000000
  70
    32
  0
VERTEX
  8
0
  5
B4D
 10
165.271
 20
97.6459
 30
0.000000
  70
    32
  0
VERTEX
  8
0
  5
B4E
 10
165.266
 20
97.6370
 30
0.000000
  70
    32
  0
VERTEX
  8
0
  5
B4F
 10
165.262
 20
97.6281
 30
0.000000
  70
    32
  0
VERTEX
  8
0
  5
B50
 10
165.257
 20
97.6192
 30
0.000000
  70
    32
  0
VERTEX
  8
0
  5
B51
 10
165.253
 20
97.6103
 30
0.000000
  70
    32
  0
VERTEX
  8
0
  5
B52
 10
165.249
 20
97.6014
 30
0.000000
  70
    32
  0
VERTEX
  8
0
  5
B53
 10
165.246
 20
97.5925
 30
0.000000
  70
    32
  0
VERTEX
  8
0
  5
B54
 10
165.243
 20
97.5836
 30
0.000000
  70
    32
  0
VERTEX
  8
0
  5
B55
 10
165.240
 20
97.5746
 30
0.000000
  70
    32
  0
VERTEX
  8
0
  5
B56
 10
165.237
 20
97.5657
 30
0.000000
  70
    32
  0
VERTEX
  8
0
  5
B57
 10
165.234
 20
97.5568
 30
0.000000
  70
    32
  0
VERTEX
  8
0
  5
B58
 10
165.232
 20
97.5478
 30
0.000000
  70
    32
  0
VERTEX
  8
0
  5
B59
 10
165.230
 20
97.5389
 30
0.000000
  70
    32
  0
VERTEX
  8
0
  5
B5A
 10
165.228
 20
97.5299
 30
0.000000
  70
    32
  0
VERTEX
  8
0
  5
B5B
 10
165.226
 20
97.5210
 30
0.000000
  70
    32
  0
VERTEX
  8
0
  5
B5C
 10
165.225
 20
97.5120
 30
0.000000
  70
    32
  0
VERTEX
  8
0
  5
B5D
 10
165.224
 20
97.5031
 30
0.000000
  70
    32
  0
VERTEX
  8
0
  5
B5E
 10
165.223
 20
97.4941
 30
0.000000
  70
    32
  0
VERTEX
  8
0
  5
B5F
 10
165.222
 20
97.4851
 30
0.000000
  70
    32
  0
VERTEX
  8
0
  5
B60
 10
165.222
 20
97.4762
 30
0.000000
  70
    32
  0
VERTEX
  8
0
  5
B61
 10
165.222
 20
97.4672
 30
0.000000
  70
    32
  0
SEQEND
  8
0
  5
B62
  0
LINE
  5
6E2
  8
0
 10
177.7047474261438
 20
90.608827396348374
 30
0.0
 11
177.73974742614379
 21
92.617568567637704
 31
0.0
  0
LINE
  5
6E3
  8
0
 10
163.77474742614379
 20
90.608827396348374
 30
0.0
 11
163.73974742614379
 21
92.617568567637704
 31
0.0
  0
ARC
  5
6E4
  8
0
 10
160.52541600573269
 20
90.007555456160105
 30
0.0
 40
17.411070463754879
 50
8.6214431577879918
 51
25.368855034095731
  0
POLYLINE
  5
6E5
  8
0
 10
176.25750770966965
 20
97.467224705715068
 30
0.0
 66
     1
 70
     8
  0
VERTEX
  8
0
  5
B63
 10
176.258
 20
97.4672
 30
0.000000
  70
    32
  0
VERTEX
  8
0
  5
B64
 10
176.257
 20
97.4762
 30
0.000000
  70
    32
  0
VERTEX
  8
0
  5
B65
 10
176.257
 20
97.4851
 30
0.000000
  70
    32
  0
VERTEX
  8
0
  5
B66
 10
176.256
 20
97.4941
 30
0.000000
  70
    32
  0
VERTEX
  8
0
  5
B67
 10
176.256
 20
97.5030
 30
0.000000
  70
    32
  0
VERTEX
  8
0
  5
B68
 10
176.254
 20
97.5120
 30
0.000000
  70
    32
  0
VERTEX
  8
0
  5
B69
 10
176.253
 20
97.5209
 30
0.000000
  70
    32
  0
VERTEX
  8
0
  5
B6A
 10
176.252
 20
97.5298
 30
0.000000
  70
    32
  0
VERTEX
  8
0
  5
B6B
 10
176.250
 20
97.5388
 30
0.000000
  70
    32
  0
VERTEX
  8
0
  5
B6C
 10
176.248
 20
97.5477
 30
0.000000
  70
    32
  0
VERTEX
  8
0
  5
B6D
 10
176.245
 20
97.5566
 30
0.000000
  70
    32
  0
VERTEX
  8
0
  5
B6E
 10
176.243
 20
97.5656
 30
0.000000
  70
    32
  0
VERTEX
  8
0
  5
B6F
 10
176.240
 20
97.5745
 30
0.000000
  70
    32
  0
VERTEX
  8
0
  5
B70
 10
176.237
 20
97.5834
 30
0.000000
  70
    32
  0
VERTEX
  8
0
  5
B71
 10
176.234
 20
97.5923
 30
0.000000
  70
    32
  0
VERTEX
  8
0
  5
B72
 10
176.230
 20
97.6012
 30
0.000000
  70
    32
  0
VERTEX
  8
0
  5
B73
 10
176.226
 20
97.6101
 30
0.000000
  70
    32
  0
VERTEX
  8
0
  5
B74
 10
176.222
 20
97.6190
 30
0.000000
  70
    32
  0
VERTEX
  8
0
  5
B75
 10
176.218
 20
97.6279
 30
0.000000
  70
    32
  0
VERTEX
  8
0
  5
B76
 10
176.214
 20
97.6368
 30
0.000000
  70
    32
  0
VERTEX
  8
0
  5
B77
 10
176.209
 20
97.6457
 30
0.000000
  70
    32
  0
VERTEX
  8
0
  5
B78
 10
176.204
 20
97.6545
 30
0.000000
  70
    32
  0
VERTEX
  8
0
  5
B79
 10
176.199
 20
97.6634
 30
0.000000
  70
    32
  0
VERTEX
  8
0
  5
B7A
 10
176.193
 20
97.6722
 30
0.000000
  70
    32
  0
VERTEX
  8
0
  5
B7B
 10
176.187
 20
97.6811
 30
0.000000
  70
    32
  0
VERTEX
  8
0
  5
B7C
 10
176.182
 20
97.6899
 30
0.000000
  70
    32
  0
VERTEX
  8
0
  5
B7D
 10
176.175
 20
97.6987
 30
0.000000
  70
    32
  0
VERTEX
  8
0
  5
B7E
 10
176.169
 20
97.7075
 30
0.000000
  70
    32
  0
VERTEX
  8
0
  5
B7F
 10
176.162
 20
97.7163
 30
0.000000
  70
    32
  0
VERTEX
  8
0
  5
B80
 10
176.155
 20
97.7251
 30
0.000000
  70
    32
  0
VERTEX
  8
0
  5
B81
 10
176.148
 20
97.7339
 30
0.000000
  70
    32
  0
VERTEX
  8
0
  5
B82
 10
176.141
 20
97.7427
 30
0.000000
  70
    32
  0
VERTEX
  8
0
  5
B83
 10
176.133
 20
97.7514
 30
0.000000
  70
    32
  0
VERTEX
  8
0
  5
B84
 10
176.125
 20
97.7601
 30
0.000000
  70
    32
  0
VERTEX
  8
0
  5
B85
 10
176.117
 20
97.7689
 30
0.000000
  70
    32
  0
VERTEX
  8
0
  5
B86
 10
176.109
 20
97.7776
 30
0.000000
  70
    32
  0
VERTEX
  8
0
  5
B87
 10
176.100
 20
97.7863
 30
0.000000
  70
    32
  0
VERTEX
  8
0
  5
B88
 10
176.092
 20
97.7950
 30
0.000000
  70
    32
  0
VERTEX
  8
0
  5
B89
 10
176.083
 20
97.8036
 30
0.000000
  70
    32
  0
VERTEX
  8
0
  5
B8A
 10
176.073
 20
97.8123
 30
0.000000
  70
    32
  0
VERTEX
  8
0
  5
B8B
 10
176.064
 20
97.8209
 30
0.000000
  70
    32
  0
VERTEX
  8
0
  5
B8C
 10
176.054
 20
97.8296
 30
0.000000
  70
    32
  0
VERTEX
  8
0
  5
B8D
 10
176.044
 20
97.8382
 30
0.000000
  70
    32
  0
VERTEX
  8
0
  5
B8E
 10
176.034
 20
97.8468
 30
0.000000
  70
    32
  0
VERTEX
  8
0
  5
B8F
 10
176.023
 20
97.8553
 30
0.000000
  70
    32
  0
VERTEX
  8
0
  5
B90
 10
176.013
 20
97.8639
 30
0.000000
  70
    32
  0
VERTEX
  8
0
  5
B91
 10
176.002
 20
97.8724
 30
0.000000
  70
    32
  0
VERTEX
  8
0
  5
B92
 10
175.991
 20
97.8810
 30
0.000000
  70
    32
  0
VERTEX
  8
0
  5
B93
 10
175.979
 20
97.8895
 30
0.000000
  70
    32
  0
VERTEX
  8
0
  5
B94
 10
175.968
 20
97.8980
 30
0.000000
  70
    32
  0
VERTEX
  8
0
  5
B95
 10
175.956
 20
97.9064
 30
0.000000
  70
    32
  0
VERTEX
  8
0
  5
B96
 10
175.944
 20
97.9149
 30
0.000000
  70
    32
  0
VERTEX
  8
0
  5
B97
 10
175.931
 20
97.9233
 30
0.000000
  70
    32
  0
VERTEX
  8
0
  5
B98
 10
175.919
 20
97.9317
 30
0.000000
  70
    32
  0
VERTEX
  8
0
  5
B99
 10
175.906
 20
97.9401
 30
0.000000
  70
    32
  0
VERTEX
  8
0
  5
B9A
 10
175.893
 20
97.9485
 30
0.000000
  70
    32
  0
VERTEX
  8
0
  5
B9B
 10
175.880
 20
97.9568
 30
0.000000
  70
    32
  0
VERTEX
  8
0
  5
B9C
 10
175.866
 20
97.9651
 30
0.000000
  70
    32
  0
VERTEX
  8
0
  5
B9D
 10
175.853
 20
97.9734
 30
0.000000
  70
    32
  0
VERTEX
  8
0
  5
B9E
 10
175.839
 20
97.9817
 30
0.000000
  70
    32
  0
VERTEX
  8
0
  5
B9F
 10
175.825
 20
97.9900
 30
0.000000
  70
    32
  0
VERTEX
  8
0
  5
BA0
 10
175.810
 20
97.9982
 30
0.000000
  70
    32
  0
VERTEX
  8
0
  5
BA1
 10
175.796
 20
98.0064
 30
0.000000
  70
    32
  0
VERTEX
  8
0
  5
BA2
 10
175.781
 20
98.0146
 30
0.000000
  70
    32
  0
VERTEX
  8
0
  5
BA3
 10
175.766
 20
98.0228
 30
0.000000
  70
    32
  0
VERTEX
  8
0
  5
BA4
 10
175.751
 20
98.0309
 30
0.000000
  70
    32
  0
VERTEX
  8
0
  5
BA5
 10
175.735
 20
98.0390
 30
0.000000
  70
    32
  0
VERTEX
  8
0
  5
BA6
 10
175.720
 20
98.0471
 30
0.000000
  70
    32
  0
VERTEX
  8
0
  5
BA7
 10
175.704
 20
98.0552
 30
0.000000
  70
    32
  0
VERTEX
  8
0
  5
BA8
 10
175.688
 20
98.0632
 30
0.000000
  70
    32
  0
VERTEX
  8
0
  5
BA9
 10
175.671
 20
98.0712
 30
0.000000
  70
    32
  0
VERTEX
  8
0
  5
BAA
 10
175.655
 20
98.0792
 30
0.000000
  70
    32
  0
VERTEX
  8
0
  5
BAB
 10
175.638
 20
98.0872
 30
0.000000
  70
    32
  0
VERTEX
  8
0
  5
BAC
 10
175.621
 20
98.0951
 30
0.000000
  70
    32
  0
VERTEX
  8
0
  5
BAD
 10
175.604
 20
98.1030
 30
0.000000
  70
    32
  0
VERTEX
  8
0
  5
BAE
 10
175.586
 20
98.1109
 30
0.000000
  70
    32
  0
VERTEX
  8
0
  5
BAF
 10
175.569
 20
98.1187
 30
0.000000
  70
    32
  0
VERTEX
  8
0
  5
BB0
 10
175.551
 20
98.1265
 30
0.000000
  70
    32
  0
VERTEX
  8
0
  5
BB1
 10
175.533
 20
98.1343
 30
0.000000
  70
    32
  0
VERTEX
  8
0
  5
BB2
 10
175.515
 20
98.1421
 30
0.000000
  70
    32
  0
VERTEX
  8
0
  5
BB3
 10
175.496
 20
98.1498
 30
0.000000
  70
    32
  0
VERTEX
  8
0
  5
BB4
 10
175.477
 20
98.1575
 30
0.000000
  70
    32
  0
VERTEX
  8
0
  5
BB5
 10
175.459
 20
98.1652
 30
0.000000
  70
    32
  0
VERTEX
  8
0
  5
BB6
 10
175.439
 20
98.1728
 30
0.000000
  70
    32
  0
VERTEX
  8
0
  5
BB7
 10
175.420
 20
98.1804
 30
0.000000
  70
    32
  0
VERTEX
  8
0
  5
BB8
 10
175.401
 20
98.1880
 30
0.000000
  70
    32
  0
VERTEX
  8
0
  5
BB9
 10
175.381
 20
98.1955
 30
0.000000
  70
    32
  0
VERTEX
  8
0
  5
BBA
 10
175.361
 20
98.2030
 30
0.000000
  70
    32
  0
VERTEX
  8
0
  5
BBB
 10
175.341
 20
98.2105
 30
0.000000
  70
    32
  0
VERTEX
  8
0
  5
BBC
 10
175.320
 20
98.2180
 30
0.000000
  70
    32
  0
VERTEX
  8
0
  5
BBD
 10
175.300
 20
98.2254
 30
0.000000
  70
    32
  0
VERTEX
  8
0
  5
BBE
 10
175.279
 20
98.2328
 30
0.000000
  70
    32
  0
VERTEX
  8
0
  5
BBF
 10
175.258
 20
98.2401
 30
0.000000
  70
    32
  0
VERTEX
  8
0
  5
BC0
 10
175.237
 20
98.2474
 30
0.000000
  70
    32
  0
VERTEX
  8
0
  5
BC1
 10
175.216
 20
98.2547
 30
0.000000
  70
    32
  0
VERTEX
  8
0
  5
BC2
 10
175.194
 20
98.2619
 30
0.000000
  70
    32
  0
VERTEX
  8
0
  5
BC3
 10
175.172
 20
98.2691
 30
0.000000
  70
    32
  0
VERTEX
  8
0
  5
BC4
 10
175.151
 20
98.2763
 30
0.000000
  70
    32
  0
VERTEX
  8
0
  5
BC5
 10
175.128
 20
98.2834
 30
0.000000
  70
    32
  0
VERTEX
  8
0
  5
BC6
 10
175.106
 20
98.2905
 30
0.000000
  70
    32
  0
VERTEX
  8
0
  5
BC7
 10
175.084
 20
98.2976
 30
0.000000
  70
    32
  0
VERTEX
  8
0
  5
BC8
 10
175.061
 20
98.3046
 30
0.000000
  70
    32
  0
VERTEX
  8
0
  5
BC9
 10
175.038
 20
98.3116
 30
0.000000
  70
    32
  0
VERTEX
  8
0
  5
BCA
 10
175.015
 20
98.3186
 30
0.000000
  70
    32
  0
VERTEX
  8
0
  5
BCB
 10
174.992
 20
98.3255
 30
0.000000
  70
    32
  0
VERTEX
  8
0
  5
BCC
 10
174.968
 20
98.3324
 30
0.000000
  70
    32
  0
VERTEX
  8
0
  5
BCD
 10
174.945
 20
98.3392
 30
0.000000
  70
    32
  0
VERTEX
  8
0
  5
BCE
 10
174.921
 20
98.3460
 30
0.000000
  70
    32
  0
VERTEX
  8
0
  5
BCF
 10
174.897
 20
98.3528
 30
0.000000
  70
    32
  0
VERTEX
  8
0
  5
BD0
 10
174.872
 20
98.3595
 30
0.000000
  70
    32
  0
VERTEX
  8
0
  5
BD1
 10
174.848
 20
98.3662
 30
0.000000
  70
    32
  0
VERTEX
  8
0
  5
BD2
 10
174.824
 20
98.3728
 30
0.000000
  70
    32
  0
VERTEX
  8
0
  5
BD3
 10
174.799
 20
98.3794
 30
0.000000
  70
    32
  0
VERTEX
  8
0
  5
BD4
 10
174.774
 20
98.3860
 30
0.000000
  70
    32
  0
VERTEX
  8
0
  5
BD5
 10
174.749
 20
98.3925
 30
0.000000
  70
    32
  0
VERTEX
  8
0
  5
BD6
 10
174.723
 20
98.3990
 30
0.000000
  70
    32
  0
VERTEX
  8
0
  5
BD7
 10
174.698
 20
98.4054
 30
0.000000
  70
    32
  0
VERTEX
  8
0
  5
BD8
 10
174.672
 20
98.4118
 30
0.000000
  70
    32
  0
VERTEX
  8
0
  5
BD9
 10
174.647
 20
98.4182
 30
0.000000
  70
    32
  0
VERTEX
  8
0
  5
BDA
 10
174.621
 20
98.4245
 30
0.000000
  70
    32
  0
VERTEX
  8
0
  5
BDB
 10
174.594
 20
98.4308
 30
0.000000
  70
    32
  0
VERTEX
  8
0
  5
BDC
 10
174.568
 20
98.4370
 30
0.000000
  70
    32
  0
VERTEX
  8
0
  5
BDD
 10
174.542
 20
98.4432
 30
0.000000
  70
    32
  0
VERTEX
  8
0
  5
BDE
 10
174.515
 20
98.4493
 30
0.000000
  70
    32
  0
VERTEX
  8
0
  5
BDF
 10
174.488
 20
98.4554
 30
0.000000
  70
    32
  0
VERTEX
  8
0
  5
BE0
 10
174.461
 20
98.4615
 30
0.000000
  70
    32
  0
VERTEX
  8
0
  5
BE1
 10
174.434
 20
98.4675
 30
0.000000
  70
    32
  0
VERTEX
  8
0
  5
BE2
 10
174.407
 20
98.4735
 30
0.000000
  70
    32
  0
VERTEX
  8
0
  5
BE3
 10
174.379
 20
98.4794
 30
0.000000
  70
    32
  0
SEQEND
  8
0
  5
BE4
  0
ARC
  5
6E6
  8
0
 10
127.8170231780278
 20
35.230967471263057
 30
0.0
 40
5.25
 50
216.98130218967731
 51
143.01869781032741
  0
ARC
  5
6E7
  8
0
 10
117.4648954366486
 20
35.230967471262488
 30
0.0
 40
6.920848874932501
 50
332.8497427383632
 51
27.150257261643819
  0
ARC
  5
700
  8
0
 10
129.1173571849192
 20
144.9439731288297
 30
0.0
 40
6.342289468737067
 50
150.48020170722279
 51
209.5197982927844
  0
ARC
  5
70E
  8
0
 10
101.396221713911
 20
95.116154125352125
 30
0.0
 40
23.308990811180479
 50
9.5157240665617362
 51
23.488630447318521
  0
TEXT
  5
7C0
  8
0
 62
     3
 10
0.0
 20
0.0
 30
0.0
 40
10.0
  1
KF6-SUS
  7
STANDARD1
  0
ENDSEC
  0
EOF
