  0
SECTION
  2
HEADER
  9
$ACADVER
  1
AC1009
  9
$INSBASE
 10
0.0
 20
0.0
 30
0.0
  9
$EXTMIN
 10
0.0
 20
-2.960436562073669
 30
0.0
  9
$EXTMAX
 10
372.0670807051992
 20
323.66537426575928
 30
0.0
  9
$LIMMIN
 10
0.0
 20
0.0
  9
$LIMMAX
 10
375.0
 20
270.0
  9
$ORTHOMODE
 70
     1
  9
$REGENMODE
 70
     1
  9
$FILLMODE
 70
     1
  9
$QTEXTMODE
 70
     0
  9
$MIRRTEXT
 70
     0
  9
$DRAGMODE
 70
     2
  9
$LTSCALE
 40
10.0
  9
$OSMODE
 70
  3071
  9
$ATTMODE
 70
     1
  9
$TEXTSIZE
 40
4.000000000000048
  9
$TRACEWID
 40
0.05
  9
$TEXTSTYLE
  7
STANDARD
  9
$CLAYER
  8
0
  9
$CELTYPE
  6
BYLAYER
  9
$CECOLOR
 62
   256
  9
$DIMSCALE
 40
1.0
  9
$DIMASZ
 40
3.0
  9
$DIMEXO
 40
2.0
  9
$DIMDLI
 40
0.38
  9
$DIMRND
 40
0.0
  9
$DIMDLE
 40
0.0
  9
$DIMEXE
 40
2.0
  9
$DIMTP
 40
0.0
  9
$DIMTM
 40
0.0
  9
$DIMTXT
 40
3.2000000000000002
  9
$DIMCEN
 40
0.0
  9
$DIMTSZ
 40
0.0
  9
$DIMTOL
 70
     0
  9
$DIMLIM
 70
     0
  9
$DIMTIH
 70
     0
  9
$DIMTOH
 70
     0
  9
$DIMSE1
 70
     0
  9
$DIMSE2
 70
     0
  9
$DIMTAD
 70
     1
  9
$DIMZIN
 70
     0
  9
$DIMBLK
  1

  9
$DIMASO
 70
     1
  9
$DIMSHO
 70
     0
  9
$DIMPOST
  1

  9
$DIMAPOST
  1

  9
$DIMALT
 70
     0
  9
$DIMALTD
 70
     2
  9
$DIMALTF
 40
25.399999999999999
  9
$DIMLFAC
 40
1.0
  9
$DIMTOFL
 70
     0
  9
$DIMTVP
 40
1.6000000000000001
  9
$DIMTIX
 70
     1
  9
$DIMSOXD
 70
     0
  9
$DIMSAH
 70
     0
  9
$DIMBLK1
  1

  9
$DIMBLK2
  1

  9
$DIMSTYLE
  2
STANDARD
  9
$DIMCLRD
 70
     0
  9
$DIMCLRE
 70
     0
  9
$DIMCLRT
 70
     0
  9
$DIMTFAC
 40
1.0
  9
$DIMGAP
 40
0.09
  9
$LUNITS
 70
     2
  9
$LUPREC
 70
     4
  9
$SKETCHINC
 40
0.1
  9
$FILLETRAD
 40
0.0
  9
$AUNITS
 70
     0
  9
$AUPREC
 70
     4
  9
$MENU
  1
E:\r13\win\SUPPORT\ACAD
  9
$ELEVATION
 40
0.0
  9
$PELEVATION
 40
0.0
  9
$THICKNESS
 40
0.0
  9
$LIMCHECK
 70
     0
  9
$BLIPMODE
 70
     0
  9
$CHAMFERA
 40
0.0
  9
$CHAMFERB
 40
0.0
  9
$SKPOLY
 70
     0
  9
$TDCREATE
 40
2449840.61369213
  9
$TDUPDATE
 40
2456597.4738727552
  9
$TDINDWG
 40
0.0016387963
  9
$TDUSRTIMER
 40
0.0016387963
  9
$USRTIMER
 70
     1
  9
$ANGBASE
 50
0.0
  9
$ANGDIR
 70
     0
  9
$PDMODE
 70
     0
  9
$PDSIZE
 40
0.0
  9
$PLINEWID
 40
0.0
  9
$COORDS
 70
     1
  9
$SPLFRAME
 70
     0
  9
$SPLINETYPE
 70
     6
  9
$SPLINESEGS
 70
     8
  9
$ATTDIA
 70
     0
  9
$ATTREQ
 70
     1
  9
$HANDLING
 70
     1
  9
$HANDSEED
  5
525
  9
$SURFTAB1
 70
     6
  9
$SURFTAB2
 70
     6
  9
$SURFTYPE
 70
     6
  9
$SURFU
 70
     6
  9
$SURFV
 70
     6
  9
$UCSNAME
  2

  9
$UCSORG
 10
0.0
 20
0.0
 30
0.0
  9
$UCSXDIR
 10
1.0
 20
0.0
 30
0.0
  9
$UCSYDIR
 10
0.0
 20
1.0
 30
0.0
  9
$PUCSNAME
  2

  9
$PUCSORG
 10
0.0
 20
0.0
 30
0.0
  9
$PUCSXDIR
 10
1.0
 20
0.0
 30
0.0
  9
$PUCSYDIR
 10
0.0
 20
1.0
 30
0.0
  9
$USERI1
 70
     0
  9
$USERI2
 70
     1
  9
$USERI3
 70
     1
  9
$USERI4
 70
     0
  9
$USERI5
 70
     0
  9
$USERR1
 40
0.0
  9
$USERR2
 40
0.0
  9
$USERR3
 40
0.0
  9
$USERR4
 40
0.0
  9
$USERR5
 40
0.0
  9
$WORLDVIEW
 70
     1
  9
$SHADEDGE
 70
     3
  9
$SHADEDIF
 70
    70
  9
$TILEMODE
 70
     1
  9
$MAXACTVP
 70
    16
  9
$PLIMCHECK
 70
     0
  9
$PEXTMIN
 10
1.0000000000000000E+020
 20
1.0000000000000000E+020
 30
1.0000000000000000E+020
  9
$PEXTMAX
 10
-1.0000000000000000E+020
 20
-1.0000000000000000E+020
 30
-1.0000000000000000E+020
  9
$PLIMMIN
 10
0.0
 20
0.0
  9
$PLIMMAX
 10
12.0
 20
9.0
  9
$UNITMODE
 70
     0
  9
$VISRETAIN
 70
     0
  9
$PLINEGEN
 70
     0
  9
$PSLTSCALE
 70
     0
  0
ENDSEC
  0
SECTION
  2
TABLES
  0
TABLE
  2
VPORT
 70
     1
  0
VPORT
  2
*ACTIVE
 70
     0
 10
0.0
 20
0.0
 11
1.0
 21
1.0
 12
187.49427839065231
 22
195.4707302194528
 13
0.0
 23
0.0
 14
10.0
 24
10.0
 15
10.0
 25
10.0
 16
0.0
 26
0.0
 36
1.0
 17
0.0
 27
0.0
 37
0.0
 40
400.64228292689018
 41
1.9089595375722539
 42
50.0
 43
0.0
 44
0.0
 50
0.0
 51
0.0
 71
     0
 72
   500
 73
     1
 74
     0
 75
     0
 76
     0
 77
     0
 78
     2
  0
ENDTAB
  0
TABLE
  2
LTYPE
 70
     4
  0
LTYPE
  2
CONTINUOUS
 70
     0
  3
Solid Line
 72
    65
 73
     0
 40
0.0
  0
LTYPE
  2
CENTER
 70
     0
  3
____ _ ____ _ ____ _ ____ _ ____ _ ____ _ ____
 72
    65
 73
     4
 40
2.0
 49
1.25
 49
-0.25
 49
0.25
 49
-0.25
  0
LTYPE
  2
HIDDEN
 70
     0
  3
_ _ _ _ _ _ _ _ _ _ _ _ _ _ _ _ _ _ _ _ _ _ _
 72
    65
 73
     2
 40
0.375
 49
0.25
 49
-0.125
  0
LTYPE
  2
PHANTOM2
 70
     0
  3
___ _ _ ___ _ _ ___ _ _ ___ _ _
 72
    65
 73
     6
 40
1.25
 49
0.625
 49
-0.125
 49
0.125
 49
-0.125
 49
0.125
 49
-0.125
  0
ENDTAB
  0
TABLE
  2
LAYER
 70
     5
  0
LAYER
  2
0
 70
     0
 62
     7
  6
CONTINUOUS
  0
LAYER
  2
1
 70
     0
 62
     1
  6
CENTER
  0
LAYER
  2
3
 70
     0
 62
     3
  6
CONTINUOUS
  0
LAYER
  2
2
 70
     0
 62
     2
  6
HIDDEN
  0
LAYER
  2
4
 70
     0
 62
     4
  6
CONTINUOUS
  0
ENDTAB
  0
TABLE
  2
STYLE
 70
     2
  0
STYLE
  2
STANDARD
 70
     0
 40
0.0
 41
1.0
 50
0.0
 71
     0
 42
4.000000000000048
  3
TXT
  4
BIGFONT
  0
STYLE
  2
STANDARD1
 70
     0
 40
0.0
 41
1.0
 50
0.0
 71
     0
 42
3.0
  3
txt
  4

  0
ENDTAB
  0
TABLE
  2
VIEW
 70
     1
  0
VIEW
  2
ALL
 70
     0
 40
270.0
 10
220.99159663865549
 20
135.0
 41
0.0
 11
0.0
 21
0.0
 31
1.0
 12
0.0
 22
0.0
 32
0.0
 42
0.0
 43
0.0
 44
0.0
 50
0.0
 71
     0
  0
ENDTAB
  0
TABLE
  2
UCS
 70
     0
  0
ENDTAB
  0
TABLE
  2
APPID
 70
     3
  0
APPID
  2
ACAD
 70
     0
  0
APPID
  2
ACAD_MLEADERVER
 70
     0
  0
APPID
  2
ACAD_NAV_VCDISPLAY
 70
     0
  0
ENDTAB
  0
TABLE
  2
DIMSTYLE
 70
     1
  0
DIMSTYLE
  2
STANDARD
 70
     0
  3

  4

  5

  6

  7

 40
1.0
 41
0.18
 42
0.0625
 43
0.38
 44
0.18
 45
0.0
 46
0.0
 47
0.0
 48
0.0
140
0.18
141
0.09
142
0.0
143
25.399999999999999
144
1.0
145
0.0
146
1.0
147
0.09
 71
     0
 72
     0
 73
     1
 74
     1
 75
     0
 76
     0
 77
     0
 78
     0
170
     0
171
     2
172
     0
173
     0
174
     0
175
     0
176
     0
177
     0
178
     0
  0
ENDTAB
  0
ENDSEC
  0
SECTION
  2
BLOCKS
  0
BLOCK
  8
0
  2
$MODEL_SPACE
 70
     0
 10
0.0
 20
0.0
 30
0.0
  3
$MODEL_SPACE
  1

  0
ENDBLK
  5
163
  8
0
  0
BLOCK
 67
     1
  8
0
  2
$PAPER_SPACE
 70
     0
 10
0.0
 20
0.0
 30
0.0
  3
$PAPER_SPACE
  1

  0
ENDBLK
  5
161
 67
     1
  8
0
  0
BLOCK
  8
0
  2
KIPP-LOGO3
 70
     0
 10
0.0
 20
0.0
 30
0.0
  3
KIPP-LOGO3
  1

  0
POLYLINE
  5
1B9
  8
3
 66
     1
 10
0.0
 20
0.0
 30
0.0
 70
     1
  0
VERTEX
  5
1BA
  8
3
 10
3.0758528956400961
 20
2.197037782600062
 30
0.0
 42
1.0000000552842581
  0
VERTEX
  5
1BB
  8
3
 10
2.3225827987486691
 20
2.197037782600062
 30
0.0
 42
1.0000000552842581
  0
SEQEND
  5
1BC
  8
3
  0
LINE
  5
1BD
  8
3
 10
2.6161365865077921
 20
0.0184625023747742
 30
0.0
 11
3.2011684728116299
 21
0.3304795084035277
 31
0.0
  0
LINE
  5
1BE
  8
3
 10
3.2011684728116299
 20
0.3304795084035277
 30
0.0
 11
3.2011684728116299
 21
-0.5649525726686308
 31
0.0
  0
LINE
  5
1BF
  8
3
 10
3.2011684728116299
 20
-0.5649525726686308
 30
0.0
 11
3.7977367384943501
 21
-0.5649525726686308
 31
0.0
  0
LINE
  5
1C0
  8
3
 10
3.7977367384943501
 20
-0.5649525726686308
 30
0.0
 11
3.7977367384943501
 21
0.5021800645942847
 31
0.0
  0
LINE
  5
1C1
  8
3
 10
3.7977367384943501
 20
0.5021800645942847
 30
0.0
 11
3.9546680086801009
 21
0.5649525726686308
 31
0.0
  0
LINE
  5
1C2
  8
3
 10
3.9546680086801009
 20
0.5649525726686308
 30
0.0
 11
3.9546680086801009
 21
0.156931270185737
 31
0.0
  0
ARC
  5
1C3
  8
3
 10
4.111599278865838
 20
0.156931270185737
 30
0.0
 40
0.1569312701857254
 50
180.0
 51
298.07248693585808
  0
LINE
  5
1C4
  8
3
 10
4.1854492883650201
 20
0.0184625023747742
 30
0.0
 11
4.7704811746688591
 21
0.3304795084035277
 31
0.0
  0
LINE
  5
1C5
  8
3
 10
4.7704811746688591
 20
0.3304795084035561
 30
0.0
 11
4.7704811746688591
 21
-0.5649525726686308
 31
0.0
  0
LINE
  5
1C6
  8
3
 10
4.7704811746688591
 20
-0.5649525726686308
 30
0.0
 11
5.367049440351507
 21
-0.5649525726686308
 31
0.0
  0
LINE
  5
1C7
  8
3
 10
5.367049440351507
 20
-0.5649525726686308
 30
0.0
 11
5.367049440351507
 21
0.5021800645942847
 31
0.0
  0
LINE
  5
1C8
  8
3
 10
5.367049440351507
 20
0.5021800645942847
 30
0.0
 11
5.5239807105372591
 21
0.5649525726686308
 31
0.0
  0
LINE
  5
1C9
  8
3
 10
5.5239807105372591
 20
0.5649525726686308
 30
0.0
 11
5.5239807105372591
 21
0.156931270185737
 31
0.0
  0
ARC
  5
1CA
  8
3
 10
5.6809119807229811
 20
0.1569312701857655
 30
0.0
 40
0.1569312701857254
 50
180.00000000000651
 51
298.07248693585518
  0
LINE
  5
1CB
  8
3
 10
5.7547619902221641
 20
0.0184625023747742
 30
0.0
 11
6.3400233155029611
 21
0.3306018758579228
 31
0.0
  0
LINE
  5
1CC
  8
3
 10
6.3400233155029611
 20
0.3306018758579228
 30
0.0
 11
6.3400233155029611
 21
1.1072006771710501
 31
0.0
  0
ARC
  5
1CD
  8
3
 10
8.9531369709060584
 20
-3.9016692513080491
 30
0.0
 40
5.6495257266850381
 50
117.55092529523679
 51
119.7271455112872
  0
LINE
  5
1CE
  8
3
 10
6.1517057912801363
 20
1.0043601291885691
 30
0.0
 11
6.1517057912801363
 21
1.412381431671462
 31
0.0
  0
ARC
  5
1CF
  8
3
 10
5.9947745210943992
 20
1.412381431671462
 30
0.0
 40
0.1569312701857254
 50
0.0
 51
104.6488905276798
  0
ARC
  5
1D0
  8
3
 10
7.3838242690494118
 20
-3.9016692513089311
 30
0.0
 40
5.6495257266860834
 50
104.64889052767739
 51
110.9149203627637
  0
LINE
  5
1D1
  8
3
 10
5.367049440351507
 20
1.37561795205778
 30
0.0
 11
5.367049440351507
 21
1.5693127018571991
 31
0.0
  0
LINE
  5
1D2
  8
3
 10
5.367049440351507
 20
1.5693127018571991
 30
0.0
 11
4.7704811746688591
 21
1.5693127018571991
 31
0.0
  0
LINE
  5
1D3
  8
3
 10
4.7704811746688591
 20
1.5693127018571991
 30
0.0
 11
4.7704811746688591
 21
1.107080972803004
 31
0.0
  0
ARC
  5
1D4
  8
3
 10
7.3838242690502076
 20
-3.90166925131021
 30
0.0
 40
5.649525726687588
 50
117.55354984774431
 51
119.7271455112879
  0
LINE
  5
1D5
  8
3
 10
4.5823930894229363
 20
1.0043601291885691
 30
0.0
 11
4.5823930894229363
 21
1.412381431671462
 31
0.0
  0
ARC
  5
1D6
  8
3
 10
4.4254618192372126
 20
1.412381431671462
 30
0.0
 40
0.1569312701857254
 50
0.0
 51
104.6488905276679
  0
ARC
  5
1D7
  8
3
 10
5.8145115671922554
 20
-3.9016692513089022
 30
0.0
 40
5.6495257266860497
 50
104.6488905276782
 51
110.9149203627637
  0
LINE
  5
1D8
  8
3
 10
3.7977367384943501
 20
1.37561795205778
 30
0.0
 11
3.7977367384943501
 21
1.5693127018571991
 31
0.0
  0
LINE
  5
1D9
  8
3
 10
3.7977367384943501
 20
1.5693127018571991
 30
0.0
 11
3.2011684728116019
 21
1.5693127018571431
 31
0.0
  0
LINE
  5
1DA
  8
3
 10
3.2011684728116299
 20
1.5693127018571991
 30
0.0
 11
3.2011684728116019
 21
1.107080972803004
 31
0.0
  0
ARC
  5
1DB
  8
3
 10
5.8145115671930512
 20
-3.9016692513081628
 30
0.0
 40
5.6495257266858268
 50
117.5535498477545
 51
119.7271455112981
  0
LINE
  5
1DC
  8
3
 10
3.0130803875657932
 20
1.0043601291885691
 30
0.0
 11
3.0130803875657932
 21
1.5693127018571991
 31
0.0
  0
LINE
  5
1DD
  8
3
 10
3.0130803875657932
 20
1.5693127018571991
 30
0.0
 11
2.3853553068229161
 21
1.5693127018571991
 31
0.0
  0
LINE
  5
1DE
  8
3
 10
2.3853553068229161
 20
1.5693127018571991
 30
0.0
 11
2.3853553068229161
 21
1.090701043997313
 31
0.0
  0
ARC
  5
1DF
  8
3
 10
5.0298552162644654
 20
-3.9016692513081059
 30
0.0
 40
5.649525726685753
 50
117.9105394925511
 51
119.7271455112981
  0
LINE
  5
1E0
  8
3
 10
2.2284240366372212
 20
1.0043601291885691
 30
0.0
 11
2.2284240366372212
 21
1.443767685708621
 31
0.0
  0
ARC
  5
1E1
  8
3
 10
2.1028790204886709
 20
1.443767685708621
 30
0.0
 40
0.1255450161485537
 50
0.0
 51
90.0
  0
LINE
  5
1E2
  8
3
 10
2.1028790204886709
 20
1.5693127018571991
 30
0.0
 11
1.8097270704588191
 21
1.5693127018571991
 31
0.0
  0
LINE
  5
1E3
  8
3
 10
1.8097270704588191
 20
1.5693127018571991
 30
0.0
 11
2.5123801253116929
 21
3.6099653469931918
 31
0.0
  0
ARC
  5
1E4
  8
3
 10
2.660761556364704
 20
3.5588735229821959
 30
0.0
 40
0.1569312701857129
 50
89.999999999975572
 51
160.99999999997911
  0
LINE
  5
1E5
  8
3
 10
2.6607615563647609
 20
3.715804793167933
 30
0.0
 11
2.844375955124121
 21
3.715804793167933
 31
0.0
  0
LINE
  5
1E6
  8
3
 10
2.844375955124121
 20
3.715804793167933
 30
0.0
 11
2.844375955124121
 21
3.778577301242279
 31
0.0
  0
LINE
  5
1E7
  8
3
 10
2.844375955124121
 20
3.778577301242279
 30
0.0
 11
4.2492588619588361
 21
3.7113721105961011
 31
0.0
  0
ARC
  5
1E8
  8
3
 10
4.2567573867955844
 20
3.8681241303195288
 30
0.0
 40
0.1569312701856951
 50
267.26123748850301
 51
0.0000000000130276
  0
LINE
  5
1E9
  8
3
 10
4.4136886569812779
 20
3.8681241303195288
 30
0.0
 11
4.4136886569812779
 21
4.1912105367592281
 31
0.0
  0
ARC
  5
1EA
  8
3
 10
4.2567573867955844
 20
4.1912105367592849
 30
0.0
 40
0.1569312701856921
 50
359.99999999998698
 51
92.738762511496958
  0
LINE
  5
1EB
  8
3
 10
4.2492588619588361
 20
4.3479625564826838
 30
0.0
 11
2.844375955124121
 21
4.2807573658365641
 31
0.0
  0
LINE
  5
1EC
  8
3
 10
2.844375955124121
 20
4.2807573658365641
 30
0.0
 11
2.844375955124121
 21
4.3435298739108239
 31
0.0
  0
LINE
  5
1ED
  8
3
 10
2.844375955124121
 20
4.3435298739108239
 30
0.0
 11
2.3913370976348309
 21
4.3435298739108239
 31
0.0
  0
ARC
  5
1EE
  8
3
 10
2.391337097634803
 20
4.0296673335393791
 30
0.0
 40
0.3138625403714175
 50
89.999999999993491
 51
160.9999999999946
  0
LINE
  5
1EF
  8
3
 10
2.0945742355288242
 20
4.1318509815613416
 30
0.0
 11
1.255450161485768
 21
1.694857718005806
 31
0.0
  0
LINE
  5
1F0
  8
3
 10
1.255450161485768
 20
1.694857718005806
 30
0.0
 11
1.255450161485768
 21
2.9057599854969851
 31
0.0
  0
ARC
  5
1F1
  8
3
 10
1.5065401937828391
 20
2.9057599854969851
 30
0.0
 40
0.2510900322970742
 50
120.0000000000114
 51
180.00000000001461
  0
LINE
  5
1F2
  8
3
 10
1.3809951776342611
 20
3.123210332103326
 30
0.0
 11
-0.1255450161485498
 21
3.123210332103326
 31
0.0
  0
ARC
  5
1F3
  8
3
 10
-0.2510900322971139
 20
2.9057599854969558
 30
0.0
 40
0.2510900322971151
 50
359.99999999999682
 51
60.000000000000973
  0
LINE
  5
1F4
  8
3
 10
-0.0000000000000284
 20
2.9057599854969558
 30
0.0
 11
0.0
 21
0.0
 31
0.0
  0
LINE
  5
1F5
  8
3
 10
0.0
 20
0.0
 30
0.0
 11
1.255450161485768
 21
0.0
 31
0.0
  0
LINE
  5
1F6
  8
3
 10
1.255450161485768
 20
0.0
 30
0.0
 11
1.255450161485768
 21
0.7532700968914412
 31
0.0
  0
LINE
  5
1F7
  8
3
 10
1.255450161485768
 20
0.7532700968914412
 30
0.0
 11
1.412381431671462
 21
0.7532700968914412
 31
0.0
  0
LINE
  5
1F8
  8
3
 10
1.412381431671462
 20
0.7532700968914412
 30
0.0
 11
1.412381431671462
 21
0.156931270185737
 31
0.0
  0
ARC
  5
1F9
  8
3
 10
1.5693127018571851
 20
0.156931270185737
 30
0.0
 40
0.1569312701857254
 50
180.0
 51
298.07248693585808
  0
LINE
  5
1FA
  8
3
 10
1.6431627113563669
 20
0.0184625023747742
 30
0.0
 11
2.3853553068229161
 21
0.3578391601283499
 31
0.0
  0
LINE
  5
1FB
  8
3
 10
2.3853553068229161
 20
0.3578391601283499
 30
0.0
 11
2.3853553068229161
 21
0.156931270185737
 31
0.0
  0
ARC
  5
1FC
  8
3
 10
2.54228657700861
 20
0.156931270185737
 30
0.0
 40
0.1569312701856921
 50
180.0
 51
298.07248693585808
  0
ENDBLK
  5
1FD
  8
0
  0
ENDSEC
  0
SECTION
  2
ENTITIES
  0
LINE
  5
1FF
  8
0
 10
176.74999999999989
 20
202.7189848477191
 30
0.0
 11
176.74999999999989
 21
201.95957991230429
 31
0.0
  0
LINE
  5
200
  8
2
 10
364.98458070519177
 20
153.11141743122681
 30
0.0
 11
362.98458070519911
 21
155.11141743121939
 31
0.0
  0
LINE
  5
201
  8
2
 10
362.98458070519911
 20
155.11141743121939
 30
0.0
 11
362.98458070519911
 21
182.11141743122681
 31
0.0
  0
LINE
  5
202
  8
2
 10
362.98458070519911
 20
182.1114174312267
 30
0.0
 11
356.06708070519909
 21
186.10523791834601
 31
0.0
  0
LINE
  5
203
  8
2
 10
362.98458070519911
 20
176.73639909762571
 30
0.0
 11
364.06708070519898
 21
176.11141743122801
 31
0.0
  0
LINE
  5
204
  8
2
 10
364.06708070519898
 20
176.11141743122801
 30
0.0
 11
364.06708070519898
 21
154.02891743121941
 31
0.0
  0
LINE
  5
205
  8
2
 10
348.06708070519898
 20
176.11141743122801
 30
0.0
 11
348.06708070519898
 21
154.02891743121941
 31
0.0
  0
LINE
  5
206
  8
2
 10
349.14958070519913
 20
176.73639909762571
 30
0.0
 11
348.06708070519898
 21
176.11141743122801
 31
0.0
  0
LINE
  5
207
  8
2
 10
349.14958070519913
 20
182.1114174312267
 30
0.0
 11
356.06708070519909
 21
186.10523791834601
 31
0.0
  0
LINE
  5
208
  8
2
 10
349.14958070519913
 20
155.11141743121939
 30
0.0
 11
349.14958070519901
 21
182.11141743122681
 31
0.0
  0
LINE
  5
209
  8
2
 10
347.14958070520652
 20
153.11141743122681
 30
0.0
 11
349.14958070519913
 21
155.11141743121939
 31
0.0
  0
LINE
  5
20A
  8
2
 10
349.14958070519913
 20
182.1114174312267
 30
0.0
 11
362.98458070519911
 21
182.1114174312267
 31
0.0
  0
LINE
  5
20B
  8
2
 10
348.06708070519898
 20
176.11141743122801
 30
0.0
 11
364.06708070519898
 21
176.11141743122801
 31
0.0
  0
LINE
  5
20C
  8
2
 10
349.14958070519913
 20
155.11141743121939
 30
0.0
 11
362.98458070519911
 21
155.11141743121939
 31
0.0
  0
CIRCLE
  5
20D
  8
0
 10
170.0
 20
78.480122467198044
 30
0.0
 40
15.199999999999999
  0
LINE
  5
20E
  8
0
 10
365.61764535906792
 20
193.16043383679749
 30
0.0
 11
365.61764535906792
 21
184.86141743122681
 31
0.0
  0
LINE
  5
20F
  8
0
 10
346.51651605132997
 20
193.16043383679539
 30
0.0
 11
346.51651605132997
 21
184.86141743122681
 31
0.0
  0
LINE
  5
210
  8
0
 10
362.82005642573779
 20
212.42825447537859
 30
0.0
 11
365.61764535906968
 21
193.1604338367857
 31
0.0
  0
LINE
  5
211
  8
0
 10
349.31410498466062
 20
212.42825447537851
 30
0.0
 11
346.5165160513298
 21
193.16043383679369
 31
0.0
  0
POLYLINE
  5
212
  8
0
 66
     1
 10
0.0
 20
0.0
 30
0.0
  0
VERTEX
  5
3CB
  8
0
 10
347.66929779930069
 20
202.7468797646109
 30
0.0
 42
0.0082534392916998
  0
VERTEX
  5
3CC
  8
0
 10
346.84879193483721
 20
202.53827165062
 30
0.0
 42
0.0790115129248418
  0
VERTEX
  5
3CD
  8
0
 10
343.59147620485521
 20
201.07124031382961
 30
0.0
 42
0.2526621698913585
  0
VERTEX
  5
3CE
  8
0
 10
343.03045170428169
 20
200.0318885933431
 30
0.0
 42
0.2526621698913785
  0
SEQEND
  5
3CF
  8
0
  0
POLYLINE
  5
213
  8
0
 66
     1
 10
0.0
 20
0.0
 30
0.0
  0
VERTEX
  5
3D0
  8
0
 10
369.10370970611649
 20
200.0318885933431
 30
0.0
 42
0.2526621698914001
  0
VERTEX
  5
3D1
  8
0
 10
368.5426852055428
 20
201.07124031382961
 30
0.0
 42
0.0790115129248478
  0
VERTEX
  5
3D2
  8
0
 10
365.28536947556108
 20
202.53827165061989
 30
0.0
 42
0.0082534392917004
  0
VERTEX
  5
3D3
  8
0
 10
364.4648636110976
 20
202.74687976461109
 30
0.0
 42
0.028044593723474
  0
SEQEND
  5
3D4
  8
0
  0
LINE
  5
214
  8
0
 10
371.5670807051992
 20
186.06141743118999
 30
0.0
 11
369.10370970610188
 21
200.0318885933431
 31
0.0
  0
LINE
  5
215
  8
0
 10
340.5670807051992
 20
186.06141743118999
 30
0.0
 11
343.03045170429641
 21
200.0318885933431
 31
0.0
  0
LINE
  5
216
  8
0
 10
365.61764535906792
 20
186.06141743123851
 30
0.0
 11
371.5670807051992
 21
186.06141743123851
 31
0.0
  0
LINE
  5
217
  8
0
 10
371.5670807051992
 20
184.86141743122681
 30
0.0
 11
371.5670807051992
 21
186.06141743123851
 31
0.0
  0
LINE
  5
218
  8
0
 10
340.5670807051992
 20
184.86141743122681
 30
0.0
 11
340.5670807051992
 21
186.06141743123851
 31
0.0
  0
LINE
  5
219
  8
0
 10
340.5670807051992
 20
186.06141743123851
 30
0.0
 11
346.51651605132997
 21
186.06141743123851
 31
0.0
  0
POLYLINE
  5
21A
  8
0
 66
     1
 10
0.0
 20
0.0
 30
0.0
  0
VERTEX
  5
3D5
  8
0
 10
346.516516051331
 20
193.16043384780039
 30
0.0
 42
0.1116651807927631
  0
VERTEX
  5
3D6
  8
0
 10
347.2212703158865
 20
190.04412400379439
 30
0.0
 42
0.1030075168863887
  0
VERTEX
  5
3D7
  8
0
 10
349.31381167428839
 20
187.2921430624628
 30
0.0
 42
0.0927394853467179
  0
VERTEX
  5
3D8
  8
0
 10
352.64141487890919
 20
185.340447891726
 30
0.0
 42
0.1036496084117412
  0
VERTEX
  5
3D9
  8
0
 10
356.06708070519909
 20
184.86141743122681
 30
0.0
 42
0.0865895480681093
  0
VERTEX
  5
3DA
  8
0
 10
359.78084468785198
 20
185.50942229939901
 30
0.0
 42
0.0927394853467145
  0
VERTEX
  5
3DB
  8
0
 10
362.8203497361099
 20
187.2921430624628
 30
0.0
 42
0.1030075168863772
  0
VERTEX
  5
3DC
  8
0
 10
364.91289109451191
 20
190.04412400379439
 30
0.0
 42
0.1116651807927633
  0
VERTEX
  5
3DD
  8
0
 10
365.61764535906758
 20
193.16043384780039
 30
0.0
 42
0.1116651807927583
  0
SEQEND
  5
3DE
  8
0
  0
LINE
  5
21B
  8
0
 10
340.5670807051992
 20
184.86141743122681
 30
0.0
 11
371.5670807051992
 21
184.86141743122681
 31
0.0
  0
LINE
  5
21C
  8
0
 10
341.2030907050389
 20
165.6114174312269
 30
0.0
 11
340.86708070519921
 21
184.86141743126521
 31
0.0
  0
LINE
  5
21D
  8
0
 10
370.93107070535939
 20
165.6114174312269
 30
0.0
 11
371.26708070519908
 21
184.86141743126521
 31
0.0
  0
LINE
  5
21E
  8
0
 10
367.06708070519193
 20
153.1114174312269
 30
0.0
 11
367.5670807051992
 21
153.6114174312342
 31
0.0
  0
LINE
  5
21F
  8
0
 10
367.5670807051992
 20
153.6114174312342
 30
0.0
 11
367.5670807051992
 21
165.1114174312269
 31
0.0
  0
LINE
  5
220
  8
0
 10
370.43107070535939
 20
165.1114174312269
 30
0.0
 11
370.93107070535939
 21
165.6114174312269
 31
0.0
  0
LINE
  5
221
  8
0
 10
341.7030907050389
 20
165.1114174312269
 30
0.0
 11
341.2030907050389
 21
165.6114174312269
 31
0.0
  0
LINE
  5
222
  8
0
 10
344.5670807051992
 20
153.6114174312342
 30
0.0
 11
344.5670807051992
 21
165.1114174312269
 31
0.0
  0
LINE
  5
223
  8
0
 10
345.06708070520642
 20
153.1114174312269
 30
0.0
 11
344.5670807051992
 21
153.6114174312342
 31
0.0
  0
LINE
  5
224
  8
0
 10
341.7030907050389
 20
165.1114174312269
 30
0.0
 11
370.43107070535939
 21
165.1114174312269
 31
0.0
  0
LINE
  5
225
  8
0
 10
367.06708070519193
 20
153.1114174312269
 30
0.0
 11
345.06708070520642
 21
153.1114174312269
 31
0.0
  0
LINE
  5
226
  8
0
 10
341.2030907050389
 20
165.6114174312269
 30
0.0
 11
370.72943977078103
 21
165.6114174312269
 31
0.0
  0
LINE
  5
227
  8
0
 10
344.5670807051992
 20
153.6114174312342
 30
0.0
 11
367.5670807051992
 21
153.6114174312342
 31
0.0
  0
LINE
  5
228
  8
1
 10
356.06708070519909
 20
237.09465963092291
 30
0.0
 11
356.06708070519909
 21
148.11141743122681
 31
0.0
  0
LINE
  5
229
  8
1
 10
372.0670807051992
 20
221.1114174312269
 30
0.0
 11
340.06708070519909
 21
221.1114174312269
 31
0.0
  0
CIRCLE
  5
22A
  8
0
 10
356.06708070519909
 20
221.1114174312269
 30
0.0
 40
11.0
  0
CIRCLE
  5
22B
  8
0
 10
170.0
 20
78.480122467198044
 30
0.0
 40
14.864000000000001
  0
CIRCLE
  5
22C
  8
0
 10
170.0
 20
78.480122467198044
 30
0.0
 40
14.364000000000001
  0
CIRCLE
  5
22D
  8
0
 10
170.0
 20
78.480122467198044
 30
0.0
 40
11.5
  0
CIRCLE
  5
22E
  8
0
 10
170.0
 20
78.480122467198044
 30
0.0
 40
11.0
  0
CIRCLE
  5
22F
  8
0
 10
170.0
 20
78.480122467198044
 30
0.0
 40
6.9175000000000004
  0
CIRCLE
  5
230
  8
3
 10
170.0
 20
78.480122467198044
 30
0.0
 40
8.0
  0
CIRCLE
  5
231
  8
0
 10
170.0
 20
78.480122467198044
 30
0.0
 40
15.5
  0
ARC
  5
232
  8
0
 10
251.22265726620321
 20
78.480122467198044
 30
0.0
 40
10.6973352025769
 50
326.5273253427381
 51
33.472674657261813
  0
ARC
  5
233
  8
0
 10
269.0
 20
78.480122467198044
 30
0.0
 40
11.0
 50
212.55447473314621
 51
147.44552526685379
  0
LINE
  5
234
  8
1
 10
149.5
 20
78.480122467198044
 30
0.0
 11
285.0
 21
78.480122467198044
 31
0.0
  0
LINE
  5
235
  8
1
 10
170.0
 20
98.980122467198044
 30
0.0
 11
170.0
 21
57.980122467198044
 31
0.0
  0
LINE
  5
236
  8
1
 10
269.0
 20
94.480122467198029
 30
0.0
 11
269.0
 21
62.480122467198044
 31
0.0
  0
LINE
  5
237
  8
0
 10
260.14582825169339
 20
84.380122467198134
 30
0.0
 11
182.27457267435881
 21
87.945050658256164
 31
0.0
  0
LINE
  5
238
  8
0
 10
260.14582825169339
 20
72.580122467198066
 30
0.0
 11
182.27457267435881
 21
69.015194276140051
 31
0.0
  0
INSERT
  5
239
  8
4
  2
KIPP-LOGO3
 10
188.65999999999991
 20
301.22896481170181
 30
0.0
 41
1.332807570977919
 42
1.332807570977919
 43
1.332807570977919
  0
POLYLINE
  5
23A
  8
0
 10
74.297127146041746
 20
201.50721346809954
 30
0.0
 66
     1
 70
     8
  0
VERTEX
  8
0
  5
421
 10
74.2971
 20
201.507
 30
0.000000
  70
    32
  0
VERTEX
  8
0
  5
422
 10
74.1217
 20
201.439
 30
0.000000
  70
    32
  0
VERTEX
  8
0
  5
423
 10
73.9547
 20
201.370
 30
0.000000
  70
    32
  0
VERTEX
  8
0
  5
424
 10
73.7962
 20
201.299
 30
0.000000
  70
    32
  0
VERTEX
  8
0
  5
425
 10
73.6465
 20
201.226
 30
0.000000
  70
    32
  0
VERTEX
  8
0
  5
426
 10
73.5057
 20
201.152
 30
0.000000
  70
    32
  0
VERTEX
  8
0
  5
427
 10
73.3740
 20
201.076
 30
0.000000
  70
    32
  0
VERTEX
  8
0
  5
428
 10
73.2516
 20
200.999
 30
0.000000
  70
    32
  0
VERTEX
  8
0
  5
429
 10
73.1386
 20
200.922
 30
0.000000
  70
    32
  0
VERTEX
  8
0
  5
42A
 10
73.0351
 20
200.843
 30
0.000000
  70
    32
  0
VERTEX
  8
0
  5
42B
 10
72.9413
 20
200.763
 30
0.000000
  70
    32
  0
VERTEX
  8
0
  5
42C
 10
72.8573
 20
200.682
 30
0.000000
  70
    32
  0
VERTEX
  8
0
  5
42D
 10
72.7832
 20
200.600
 30
0.000000
  70
    32
  0
VERTEX
  8
0
  5
42E
 10
72.7191
 20
200.518
 30
0.000000
  70
    32
  0
VERTEX
  8
0
  5
42F
 10
72.6650
 20
200.435
 30
0.000000
  70
    32
  0
VERTEX
  8
0
  5
430
 10
72.6211
 20
200.351
 30
0.000000
  70
    32
  0
VERTEX
  8
0
  5
431
 10
72.5873
 20
200.268
 30
0.000000
  70
    32
  0
VERTEX
  8
0
  5
432
 10
72.5637
 20
200.183
 30
0.000000
  70
    32
  0
VERTEX
  8
0
  5
433
 10
72.5504
 20
200.099
 30
0.000000
  70
    32
  0
VERTEX
  8
0
  5
434
 10
72.5473
 20
200.015
 30
0.000000
  70
    32
  0
VERTEX
  8
0
  5
435
 10
72.5545
 20
199.931
 30
0.000000
  70
    32
  0
VERTEX
  8
0
  5
436
 10
72.5720
 20
199.846
 30
0.000000
  70
    32
  0
VERTEX
  8
0
  5
437
 10
72.5997
 20
199.762
 30
0.000000
  70
    32
  0
VERTEX
  8
0
  5
438
 10
72.6376
 20
199.679
 30
0.000000
  70
    32
  0
VERTEX
  8
0
  5
439
 10
72.6856
 20
199.595
 30
0.000000
  70
    32
  0
VERTEX
  8
0
  5
43A
 10
72.7438
 20
199.513
 30
0.000000
  70
    32
  0
VERTEX
  8
0
  5
43B
 10
72.8119
 20
199.431
 30
0.000000
  70
    32
  0
VERTEX
  8
0
  5
43C
 10
72.8901
 20
199.349
 30
0.000000
  70
    32
  0
VERTEX
  8
0
  5
43D
 10
72.9780
 20
199.269
 30
0.000000
  70
    32
  0
VERTEX
  8
0
  5
43E
 10
73.0757
 20
199.189
 30
0.000000
  70
    32
  0
VERTEX
  8
0
  5
43F
 10
73.1831
 20
199.111
 30
0.000000
  70
    32
  0
VERTEX
  8
0
  5
440
 10
73.2999
 20
199.033
 30
0.000000
  70
    32
  0
VERTEX
  8
0
  5
441
 10
73.4261
 20
198.957
 30
0.000000
  70
    32
  0
VERTEX
  8
0
  5
442
 10
73.5615
 20
198.882
 30
0.000000
  70
    32
  0
VERTEX
  8
0
  5
443
 10
73.7059
 20
198.808
 30
0.000000
  70
    32
  0
VERTEX
  8
0
  5
444
 10
73.8592
 20
198.736
 30
0.000000
  70
    32
  0
VERTEX
  8
0
  5
445
 10
74.0211
 20
198.666
 30
0.000000
  70
    32
  0
VERTEX
  8
0
  5
446
 10
74.1916
 20
198.597
 30
0.000000
  70
    32
  0
VERTEX
  8
0
  5
447
 10
74.3703
 20
198.530
 30
0.000000
  70
    32
  0
VERTEX
  8
0
  5
448
 10
74.5571
 20
198.464
 30
0.000000
  70
    32
  0
VERTEX
  8
0
  5
449
 10
74.7517
 20
198.401
 30
0.000000
  70
    32
  0
VERTEX
  8
0
  5
44A
 10
74.9540
 20
198.339
 30
0.000000
  70
    32
  0
VERTEX
  8
0
  5
44B
 10
75.1635
 20
198.280
 30
0.000000
  70
    32
  0
VERTEX
  8
0
  5
44C
 10
75.3802
 20
198.223
 30
0.000000
  70
    32
  0
VERTEX
  8
0
  5
44D
 10
75.6038
 20
198.167
 30
0.000000
  70
    32
  0
VERTEX
  8
0
  5
44E
 10
75.8339
 20
198.115
 30
0.000000
  70
    32
  0
VERTEX
  8
0
  5
44F
 10
76.0703
 20
198.064
 30
0.000000
  70
    32
  0
VERTEX
  8
0
  5
450
 10
76.3127
 20
198.016
 30
0.000000
  70
    32
  0
VERTEX
  8
0
  5
451
 10
76.5608
 20
197.970
 30
0.000000
  70
    32
  0
VERTEX
  8
0
  5
452
 10
76.8144
 20
197.927
 30
0.000000
  70
    32
  0
VERTEX
  8
0
  5
453
 10
77.0730
 20
197.886
 30
0.000000
  70
    32
  0
VERTEX
  8
0
  5
454
 10
77.3365
 20
197.848
 30
0.000000
  70
    32
  0
VERTEX
  8
0
  5
455
 10
77.6044
 20
197.812
 30
0.000000
  70
    32
  0
VERTEX
  8
0
  5
456
 10
77.8765
 20
197.780
 30
0.000000
  70
    32
  0
VERTEX
  8
0
  5
457
 10
78.1524
 20
197.750
 30
0.000000
  70
    32
  0
VERTEX
  8
0
  5
458
 10
78.4318
 20
197.722
 30
0.000000
  70
    32
  0
VERTEX
  8
0
  5
459
 10
78.7144
 20
197.698
 30
0.000000
  70
    32
  0
VERTEX
  8
0
  5
45A
 10
78.9998
 20
197.676
 30
0.000000
  70
    32
  0
VERTEX
  8
0
  5
45B
 10
79.2877
 20
197.657
 30
0.000000
  70
    32
  0
VERTEX
  8
0
  5
45C
 10
79.5776
 20
197.641
 30
0.000000
  70
    32
  0
VERTEX
  8
0
  5
45D
 10
79.8694
 20
197.628
 30
0.000000
  70
    32
  0
VERTEX
  8
0
  5
45E
 10
80.1626
 20
197.618
 30
0.000000
  70
    32
  0
VERTEX
  8
0
  5
45F
 10
80.4568
 20
197.610
 30
0.000000
  70
    32
  0
VERTEX
  8
0
  5
460
 10
80.7518
 20
197.606
 30
0.000000
  70
    32
  0
VERTEX
  8
0
  5
461
 10
81.0471
 20
197.604
 30
0.000000
  70
    32
  0
VERTEX
  8
0
  5
462
 10
81.3424
 20
197.606
 30
0.000000
  70
    32
  0
VERTEX
  8
0
  5
463
 10
81.6374
 20
197.610
 30
0.000000
  70
    32
  0
VERTEX
  8
0
  5
464
 10
81.9317
 20
197.618
 30
0.000000
  70
    32
  0
VERTEX
  8
0
  5
465
 10
82.2248
 20
197.628
 30
0.000000
  70
    32
  0
VERTEX
  8
0
  5
466
 10
82.5166
 20
197.641
 30
0.000000
  70
    32
  0
VERTEX
  8
0
  5
467
 10
82.8066
 20
197.657
 30
0.000000
  70
    32
  0
VERTEX
  8
0
  5
468
 10
83.0945
 20
197.676
 30
0.000000
  70
    32
  0
VERTEX
  8
0
  5
469
 10
83.3798
 20
197.698
 30
0.000000
  70
    32
  0
VERTEX
  8
0
  5
46A
 10
83.6624
 20
197.722
 30
0.000000
  70
    32
  0
VERTEX
  8
0
  5
46B
 10
83.9418
 20
197.750
 30
0.000000
  70
    32
  0
VERTEX
  8
0
  5
46C
 10
84.2178
 20
197.780
 30
0.000000
  70
    32
  0
VERTEX
  8
0
  5
46D
 10
84.4898
 20
197.812
 30
0.000000
  70
    32
  0
VERTEX
  8
0
  5
46E
 10
84.7578
 20
197.848
 30
0.000000
  70
    32
  0
VERTEX
  8
0
  5
46F
 10
85.0212
 20
197.886
 30
0.000000
  70
    32
  0
VERTEX
  8
0
  5
470
 10
85.2799
 20
197.927
 30
0.000000
  70
    32
  0
VERTEX
  8
0
  5
471
 10
85.5334
 20
197.970
 30
0.000000
  70
    32
  0
VERTEX
  8
0
  5
472
 10
85.7816
 20
198.016
 30
0.000000
  70
    32
  0
VERTEX
  8
0
  5
473
 10
86.0240
 20
198.064
 30
0.000000
  70
    32
  0
VERTEX
  8
0
  5
474
 10
86.2604
 20
198.115
 30
0.000000
  70
    32
  0
VERTEX
  8
0
  5
475
 10
86.4905
 20
198.167
 30
0.000000
  70
    32
  0
VERTEX
  8
0
  5
476
 10
86.7140
 20
198.223
 30
0.000000
  70
    32
  0
VERTEX
  8
0
  5
477
 10
86.9307
 20
198.280
 30
0.000000
  70
    32
  0
VERTEX
  8
0
  5
478
 10
87.1403
 20
198.339
 30
0.000000
  70
    32
  0
VERTEX
  8
0
  5
479
 10
87.3425
 20
198.401
 30
0.000000
  70
    32
  0
VERTEX
  8
0
  5
47A
 10
87.5371
 20
198.464
 30
0.000000
  70
    32
  0
VERTEX
  8
0
  5
47B
 10
87.7239
 20
198.530
 30
0.000000
  70
    32
  0
VERTEX
  8
0
  5
47C
 10
87.9027
 20
198.597
 30
0.000000
  70
    32
  0
VERTEX
  8
0
  5
47D
 10
88.0731
 20
198.666
 30
0.000000
  70
    32
  0
VERTEX
  8
0
  5
47E
 10
88.2351
 20
198.736
 30
0.000000
  70
    32
  0
VERTEX
  8
0
  5
47F
 10
88.3884
 20
198.808
 30
0.000000
  70
    32
  0
VERTEX
  8
0
  5
480
 10
88.5328
 20
198.882
 30
0.000000
  70
    32
  0
VERTEX
  8
0
  5
481
 10
88.6682
 20
198.957
 30
0.000000
  70
    32
  0
VERTEX
  8
0
  5
482
 10
88.7944
 20
199.033
 30
0.000000
  70
    32
  0
VERTEX
  8
0
  5
483
 10
88.9112
 20
199.111
 30
0.000000
  70
    32
  0
VERTEX
  8
0
  5
484
 10
89.0185
 20
199.189
 30
0.000000
  70
    32
  0
VERTEX
  8
0
  5
485
 10
89.1162
 20
199.269
 30
0.000000
  70
    32
  0
VERTEX
  8
0
  5
486
 10
89.2042
 20
199.349
 30
0.000000
  70
    32
  0
VERTEX
  8
0
  5
487
 10
89.2823
 20
199.431
 30
0.000000
  70
    32
  0
VERTEX
  8
0
  5
488
 10
89.3505
 20
199.513
 30
0.000000
  70
    32
  0
VERTEX
  8
0
  5
489
 10
89.4086
 20
199.595
 30
0.000000
  70
    32
  0
VERTEX
  8
0
  5
48A
 10
89.4567
 20
199.679
 30
0.000000
  70
    32
  0
VERTEX
  8
0
  5
48B
 10
89.4946
 20
199.762
 30
0.000000
  70
    32
  0
VERTEX
  8
0
  5
48C
 10
89.5223
 20
199.846
 30
0.000000
  70
    32
  0
VERTEX
  8
0
  5
48D
 10
89.5397
 20
199.931
 30
0.000000
  70
    32
  0
VERTEX
  8
0
  5
48E
 10
89.5469
 20
200.015
 30
0.000000
  70
    32
  0
VERTEX
  8
0
  5
48F
 10
89.5439
 20
200.099
 30
0.000000
  70
    32
  0
VERTEX
  8
0
  5
490
 10
89.5305
 20
200.183
 30
0.000000
  70
    32
  0
VERTEX
  8
0
  5
491
 10
89.5070
 20
200.268
 30
0.000000
  70
    32
  0
VERTEX
  8
0
  5
492
 10
89.4732
 20
200.351
 30
0.000000
  70
    32
  0
VERTEX
  8
0
  5
493
 10
89.4293
 20
200.435
 30
0.000000
  70
    32
  0
VERTEX
  8
0
  5
494
 10
89.3752
 20
200.518
 30
0.000000
  70
    32
  0
VERTEX
  8
0
  5
495
 10
89.3110
 20
200.600
 30
0.000000
  70
    32
  0
VERTEX
  8
0
  5
496
 10
89.2369
 20
200.682
 30
0.000000
  70
    32
  0
VERTEX
  8
0
  5
497
 10
89.1529
 20
200.763
 30
0.000000
  70
    32
  0
VERTEX
  8
0
  5
498
 10
89.0592
 20
200.843
 30
0.000000
  70
    32
  0
VERTEX
  8
0
  5
499
 10
88.9557
 20
200.922
 30
0.000000
  70
    32
  0
VERTEX
  8
0
  5
49A
 10
88.8427
 20
200.999
 30
0.000000
  70
    32
  0
VERTEX
  8
0
  5
49B
 10
88.7203
 20
201.076
 30
0.000000
  70
    32
  0
VERTEX
  8
0
  5
49C
 10
88.5886
 20
201.152
 30
0.000000
  70
    32
  0
VERTEX
  8
0
  5
49D
 10
88.4478
 20
201.226
 30
0.000000
  70
    32
  0
VERTEX
  8
0
  5
49E
 10
88.2981
 20
201.299
 30
0.000000
  70
    32
  0
VERTEX
  8
0
  5
49F
 10
88.1396
 20
201.370
 30
0.000000
  70
    32
  0
VERTEX
  8
0
  5
4A0
 10
87.9725
 20
201.439
 30
0.000000
  70
    32
  0
VERTEX
  8
0
  5
4A1
 10
87.7971
 20
201.507
 30
0.000000
  70
    32
  0
SEQEND
  8
0
  5
4A2
  0
POLYLINE
  5
23B
  8
0
 10
75.270320877961382
 20
203.31542624188683
 30
0.0
 66
     1
 70
     8
  0
VERTEX
  8
0
  5
4A3
 10
75.2703
 20
203.315
 30
0.000000
  70
    32
  0
VERTEX
  8
0
  5
4A4
 10
74.7857
 20
203.245
 30
0.000000
  70
    32
  0
VERTEX
  8
0
  5
4A5
 10
74.3121
 20
203.168
 30
0.000000
  70
    32
  0
VERTEX
  8
0
  5
4A6
 10
73.8503
 20
203.086
 30
0.000000
  70
    32
  0
VERTEX
  8
0
  5
4A7
 10
73.4011
 20
202.999
 30
0.000000
  70
    32
  0
VERTEX
  8
0
  5
4A8
 10
72.9654
 20
202.906
 30
0.000000
  70
    32
  0
VERTEX
  8
0
  5
4A9
 10
72.5438
 20
202.808
 30
0.000000
  70
    32
  0
VERTEX
  8
0
  5
4AA
 10
72.1373
 20
202.706
 30
0.000000
  70
    32
  0
VERTEX
  8
0
  5
4AB
 10
71.7463
 20
202.598
 30
0.000000
  70
    32
  0
VERTEX
  8
0
  5
4AC
 10
71.3717
 20
202.487
 30
0.000000
  70
    32
  0
VERTEX
  8
0
  5
4AD
 10
71.0141
 20
202.371
 30
0.000000
  70
    32
  0
VERTEX
  8
0
  5
4AE
 10
70.6741
 20
202.250
 30
0.000000
  70
    32
  0
VERTEX
  8
0
  5
4AF
 10
70.3523
 20
202.126
 30
0.000000
  70
    32
  0
VERTEX
  8
0
  5
4B0
 10
70.0494
 20
201.999
 30
0.000000
  70
    32
  0
VERTEX
  8
0
  5
4B1
 10
69.7657
 20
201.867
 30
0.000000
  70
    32
  0
VERTEX
  8
0
  5
4B2
 10
69.5018
 20
201.733
 30
0.000000
  70
    32
  0
VERTEX
  8
0
  5
4B3
 10
69.2583
 20
201.596
 30
0.000000
  70
    32
  0
VERTEX
  8
0
  5
4B4
 10
69.0354
 20
201.455
 30
0.000000
  70
    32
  0
VERTEX
  8
0
  5
4B5
 10
68.8337
 20
201.313
 30
0.000000
  70
    32
  0
VERTEX
  8
0
  5
4B6
 10
68.6534
 20
201.168
 30
0.000000
  70
    32
  0
VERTEX
  8
0
  5
4B7
 10
68.4948
 20
201.021
 30
0.000000
  70
    32
  0
VERTEX
  8
0
  5
4B8
 10
68.3583
 20
200.872
 30
0.000000
  70
    32
  0
VERTEX
  8
0
  5
4B9
 10
68.2441
 20
200.722
 30
0.000000
  70
    32
  0
VERTEX
  8
0
  5
4BA
 10
68.1524
 20
200.571
 30
0.000000
  70
    32
  0
VERTEX
  8
0
  5
4BB
 10
68.0834
 20
200.419
 30
0.000000
  70
    32
  0
VERTEX
  8
0
  5
4BC
 10
68.0371
 20
200.266
 30
0.000000
  70
    32
  0
VERTEX
  8
0
  5
4BD
 10
68.0136
 20
200.112
 30
0.000000
  70
    32
  0
VERTEX
  8
0
  5
4BE
 10
68.0131
 20
199.959
 30
0.000000
  70
    32
  0
VERTEX
  8
0
  5
4BF
 10
68.0355
 20
199.805
 30
0.000000
  70
    32
  0
VERTEX
  8
0
  5
4C0
 10
68.0807
 20
199.652
 30
0.000000
  70
    32
  0
VERTEX
  8
0
  5
4C1
 10
68.1486
 20
199.500
 30
0.000000
  70
    32
  0
VERTEX
  8
0
  5
4C2
 10
68.2393
 20
199.349
 30
0.000000
  70
    32
  0
VERTEX
  8
0
  5
4C3
 10
68.3524
 20
199.199
 30
0.000000
  70
    32
  0
VERTEX
  8
0
  5
4C4
 10
68.4879
 20
199.050
 30
0.000000
  70
    32
  0
VERTEX
  8
0
  5
4C5
 10
68.6454
 20
198.903
 30
0.000000
  70
    32
  0
VERTEX
  8
0
  5
4C6
 10
68.8247
 20
198.758
 30
0.000000
  70
    32
  0
VERTEX
  8
0
  5
4C7
 10
69.0254
 20
198.615
 30
0.000000
  70
    32
  0
VERTEX
  8
0
  5
4C8
 10
69.2473
 20
198.475
 30
0.000000
  70
    32
  0
VERTEX
  8
0
  5
4C9
 10
69.4899
 20
198.337
 30
0.000000
  70
    32
  0
VERTEX
  8
0
  5
4CA
 10
69.7528
 20
198.203
 30
0.000000
  70
    32
  0
VERTEX
  8
0
  5
4CB
 10
70.0355
 20
198.071
 30
0.000000
  70
    32
  0
VERTEX
  8
0
  5
4CC
 10
70.3376
 20
197.943
 30
0.000000
  70
    32
  0
VERTEX
  8
0
  5
4CD
 10
70.6585
 20
197.819
 30
0.000000
  70
    32
  0
VERTEX
  8
0
  5
4CE
 10
70.9976
 20
197.699
 30
0.000000
  70
    32
  0
VERTEX
  8
0
  5
4CF
 10
71.3544
 20
197.582
 30
0.000000
  70
    32
  0
VERTEX
  8
0
  5
4D0
 10
71.7282
 20
197.470
 30
0.000000
  70
    32
  0
VERTEX
  8
0
  5
4D1
 10
72.1184
 20
197.363
 30
0.000000
  70
    32
  0
VERTEX
  8
0
  5
4D2
 10
72.5243
 20
197.260
 30
0.000000
  70
    32
  0
VERTEX
  8
0
  5
4D3
 10
72.9451
 20
197.162
 30
0.000000
  70
    32
  0
VERTEX
  8
0
  5
4D4
 10
73.3802
 20
197.069
 30
0.000000
  70
    32
  0
VERTEX
  8
0
  5
4D5
 10
73.8288
 20
196.982
 30
0.000000
  70
    32
  0
VERTEX
  8
0
  5
4D6
 10
74.2900
 20
196.900
 30
0.000000
  70
    32
  0
VERTEX
  8
0
  5
4D7
 10
74.7631
 20
196.823
 30
0.000000
  70
    32
  0
VERTEX
  8
0
  5
4D8
 10
75.2472
 20
196.752
 30
0.000000
  70
    32
  0
VERTEX
  8
0
  5
4D9
 10
75.7415
 20
196.686
 30
0.000000
  70
    32
  0
VERTEX
  8
0
  5
4DA
 10
76.2451
 20
196.627
 30
0.000000
  70
    32
  0
VERTEX
  8
0
  5
4DB
 10
76.7572
 20
196.573
 30
0.000000
  70
    32
  0
VERTEX
  8
0
  5
4DC
 10
77.2768
 20
196.526
 30
0.000000
  70
    32
  0
VERTEX
  8
0
  5
4DD
 10
77.8030
 20
196.484
 30
0.000000
  70
    32
  0
VERTEX
  8
0
  5
4DE
 10
78.3350
 20
196.449
 30
0.000000
  70
    32
  0
VERTEX
  8
0
  5
4DF
 10
78.8717
 20
196.420
 30
0.000000
  70
    32
  0
VERTEX
  8
0
  5
4E0
 10
79.4122
 20
196.398
 30
0.000000
  70
    32
  0
VERTEX
  8
0
  5
4E1
 10
79.9556
 20
196.382
 30
0.000000
  70
    32
  0
VERTEX
  8
0
  5
4E2
 10
80.5009
 20
196.372
 30
0.000000
  70
    32
  0
VERTEX
  8
0
  5
4E3
 10
81.0471
 20
196.369
 30
0.000000
  70
    32
  0
VERTEX
  8
0
  5
4E4
 10
81.5934
 20
196.372
 30
0.000000
  70
    32
  0
VERTEX
  8
0
  5
4E5
 10
82.1387
 20
196.382
 30
0.000000
  70
    32
  0
VERTEX
  8
0
  5
4E6
 10
82.6821
 20
196.398
 30
0.000000
  70
    32
  0
VERTEX
  8
0
  5
4E7
 10
83.2226
 20
196.420
 30
0.000000
  70
    32
  0
VERTEX
  8
0
  5
4E8
 10
83.7593
 20
196.449
 30
0.000000
  70
    32
  0
VERTEX
  8
0
  5
4E9
 10
84.2912
 20
196.484
 30
0.000000
  70
    32
  0
VERTEX
  8
0
  5
4EA
 10
84.8174
 20
196.526
 30
0.000000
  70
    32
  0
VERTEX
  8
0
  5
4EB
 10
85.3370
 20
196.573
 30
0.000000
  70
    32
  0
VERTEX
  8
0
  5
4EC
 10
85.8491
 20
196.627
 30
0.000000
  70
    32
  0
VERTEX
  8
0
  5
4ED
 10
86.3527
 20
196.686
 30
0.000000
  70
    32
  0
VERTEX
  8
0
  5
4EE
 10
86.8471
 20
196.752
 30
0.000000
  70
    32
  0
VERTEX
  8
0
  5
4EF
 10
87.3312
 20
196.823
 30
0.000000
  70
    32
  0
VERTEX
  8
0
  5
4F0
 10
87.8043
 20
196.900
 30
0.000000
  70
    32
  0
VERTEX
  8
0
  5
4F1
 10
88.2655
 20
196.982
 30
0.000000
  70
    32
  0
VERTEX
  8
0
  5
4F2
 10
88.7140
 20
197.069
 30
0.000000
  70
    32
  0
VERTEX
  8
0
  5
4F3
 10
89.1491
 20
197.162
 30
0.000000
  70
    32
  0
VERTEX
  8
0
  5
4F4
 10
89.5700
 20
197.260
 30
0.000000
  70
    32
  0
VERTEX
  8
0
  5
4F5
 10
89.9758
 20
197.363
 30
0.000000
  70
    32
  0
VERTEX
  8
0
  5
4F6
 10
90.3660
 20
197.470
 30
0.000000
  70
    32
  0
VERTEX
  8
0
  5
4F7
 10
90.7398
 20
197.582
 30
0.000000
  70
    32
  0
VERTEX
  8
0
  5
4F8
 10
91.0966
 20
197.699
 30
0.000000
  70
    32
  0
VERTEX
  8
0
  5
4F9
 10
91.4358
 20
197.819
 30
0.000000
  70
    32
  0
VERTEX
  8
0
  5
4FA
 10
91.7567
 20
197.943
 30
0.000000
  70
    32
  0
VERTEX
  8
0
  5
4FB
 10
92.0587
 20
198.071
 30
0.000000
  70
    32
  0
VERTEX
  8
0
  5
4FC
 10
92.3415
 20
198.203
 30
0.000000
  70
    32
  0
VERTEX
  8
0
  5
4FD
 10
92.6044
 20
198.337
 30
0.000000
  70
    32
  0
VERTEX
  8
0
  5
4FE
 10
92.8470
 20
198.475
 30
0.000000
  70
    32
  0
VERTEX
  8
0
  5
4FF
 10
93.0688
 20
198.615
 30
0.000000
  70
    32
  0
VERTEX
  8
0
  5
500
 10
93.2696
 20
198.758
 30
0.000000
  70
    32
  0
VERTEX
  8
0
  5
501
 10
93.4489
 20
198.903
 30
0.000000
  70
    32
  0
VERTEX
  8
0
  5
502
 10
93.6064
 20
199.050
 30
0.000000
  70
    32
  0
VERTEX
  8
0
  5
503
 10
93.7418
 20
199.199
 30
0.000000
  70
    32
  0
VERTEX
  8
0
  5
504
 10
93.8550
 20
199.349
 30
0.000000
  70
    32
  0
VERTEX
  8
0
  5
505
 10
93.9456
 20
199.500
 30
0.000000
  70
    32
  0
VERTEX
  8
0
  5
506
 10
94.0136
 20
199.652
 30
0.000000
  70
    32
  0
VERTEX
  8
0
  5
507
 10
94.0588
 20
199.805
 30
0.000000
  70
    32
  0
VERTEX
  8
0
  5
508
 10
94.0812
 20
199.959
 30
0.000000
  70
    32
  0
VERTEX
  8
0
  5
509
 10
94.0806
 20
200.112
 30
0.000000
  70
    32
  0
VERTEX
  8
0
  5
50A
 10
94.0572
 20
200.266
 30
0.000000
  70
    32
  0
VERTEX
  8
0
  5
50B
 10
94.0109
 20
200.419
 30
0.000000
  70
    32
  0
VERTEX
  8
0
  5
50C
 10
93.9418
 20
200.571
 30
0.000000
  70
    32
  0
VERTEX
  8
0
  5
50D
 10
93.8501
 20
200.722
 30
0.000000
  70
    32
  0
VERTEX
  8
0
  5
50E
 10
93.7359
 20
200.872
 30
0.000000
  70
    32
  0
VERTEX
  8
0
  5
50F
 10
93.5994
 20
201.021
 30
0.000000
  70
    32
  0
VERTEX
  8
0
  5
510
 10
93.4409
 20
201.168
 30
0.000000
  70
    32
  0
VERTEX
  8
0
  5
511
 10
93.2606
 20
201.313
 30
0.000000
  70
    32
  0
VERTEX
  8
0
  5
512
 10
93.0588
 20
201.455
 30
0.000000
  70
    32
  0
VERTEX
  8
0
  5
513
 10
92.8360
 20
201.596
 30
0.000000
  70
    32
  0
VERTEX
  8
0
  5
514
 10
92.5924
 20
201.733
 30
0.000000
  70
    32
  0
VERTEX
  8
0
  5
515
 10
92.3286
 20
201.867
 30
0.000000
  70
    32
  0
VERTEX
  8
0
  5
516
 10
92.0449
 20
201.999
 30
0.000000
  70
    32
  0
VERTEX
  8
0
  5
517
 10
91.7419
 20
202.126
 30
0.000000
  70
    32
  0
VERTEX
  8
0
  5
518
 10
91.4202
 20
202.250
 30
0.000000
  70
    32
  0
VERTEX
  8
0
  5
519
 10
91.0802
 20
202.371
 30
0.000000
  70
    32
  0
VERTEX
  8
0
  5
51A
 10
90.7226
 20
202.487
 30
0.000000
  70
    32
  0
VERTEX
  8
0
  5
51B
 10
90.3479
 20
202.598
 30
0.000000
  70
    32
  0
VERTEX
  8
0
  5
51C
 10
89.9570
 20
202.706
 30
0.000000
  70
    32
  0
VERTEX
  8
0
  5
51D
 10
89.5504
 20
202.808
 30
0.000000
  70
    32
  0
VERTEX
  8
0
  5
51E
 10
89.1289
 20
202.906
 30
0.000000
  70
    32
  0
VERTEX
  8
0
  5
51F
 10
88.6931
 20
202.999
 30
0.000000
  70
    32
  0
VERTEX
  8
0
  5
520
 10
88.2440
 20
203.086
 30
0.000000
  70
    32
  0
VERTEX
  8
0
  5
521
 10
87.7822
 20
203.168
 30
0.000000
  70
    32
  0
VERTEX
  8
0
  5
522
 10
87.3086
 20
203.245
 30
0.000000
  70
    32
  0
VERTEX
  8
0
  5
523
 10
86.8239
 20
203.315
 30
0.000000
  70
    32
  0
SEQEND
  8
0
  5
524
  0
LINE
  5
23C
  8
0
 10
87.797127146042385
 20
202.7189848477191
 30
0.0
 11
74.297127146042385
 21
202.71898484771901
 31
0.0
  0
ARC
  5
23D
  8
0
 10
81.047127146042499
 20
192.79741743122679
 30
0.0
 40
12.0
 50
109.4670447595973
 51
124.2288663278127
  0
ARC
  5
23E
  8
0
 10
81.047127146042499
 20
192.79741743122679
 30
0.0
 40
12.0
 50
55.771133672187283
 51
70.532955240402714
  0
LINE
  5
23F
  8
0
 10
85.04630256104997
 20
204.1114174312269
 30
0.0
 11
77.047951731035013
 21
204.1114174312269
 31
0.0
  0
LINE
  5
240
  8
0
 10
74.297127146042385
 20
202.71898484771901
 30
0.0
 11
74.297127146042385
 21
198.5565637184024
 31
0.0
  0
LINE
  5
241
  8
0
 10
87.797127146042385
 20
202.7189848477191
 30
0.0
 11
87.797127146042385
 21
198.55656371841999
 31
0.0
  0
LINE
  5
242
  8
0
 10
176.74999999999989
 20
202.7189848477191
 30
0.0
 11
163.25
 21
202.7189848477189
 31
0.0
  0
ARC
  5
243
  8
0
 10
170.0
 20
192.79741743122671
 30
0.0
 40
12.0
 50
109.4670447595973
 51
124.2288663278127
  0
ARC
  5
244
  8
0
 10
170.0
 20
192.79741743122671
 30
0.0
 40
12.0
 50
55.771133672188078
 51
70.532955240402714
  0
LINE
  5
245
  8
0
 10
173.99917541500739
 20
204.11141743122681
 30
0.0
 11
166.00082458499261
 21
204.11141743122681
 31
0.0
  0
LINE
  5
246
  8
0
 10
163.25
 20
202.7189848477189
 30
0.0
 11
163.24999999999989
 21
198.10419727438159
 31
0.0
  0
ARC
  5
247
  8
0
 10
167.96000000000001
 20
303.16537426575923
 30
0.0
 40
0.5099999999999998
 50
103.34175822722121
 51
256.65824177277881
  0
ARC
  5
248
  8
0
 10
167.63636057704801
 20
304.53002212286788
 30
0.0
 40
0.8925000000000004
 50
283.34175822722119
 51
16.658241772777039
  0
ARC
  5
249
  8
0
 10
168.97999999999999
 20
304.93206608947952
 30
0.0
 40
0.5099999999999997
 50
43.341758227221433
 51
196.65824177277699
  0
ARC
  5
24A
  8
0
 10
170.0
 20
305.89466997997653
 30
0.0
 40
0.8924999999999984
 50
223.34175822722139
 51
316.65824177277852
  0
ARC
  5
24B
  8
0
 10
171.02000000000001
 20
304.93206608947952
 30
0.0
 40
0.5100000000000003
 50
343.3417582272229
 51
136.65824177277861
  0
ARC
  5
24C
  8
0
 10
167.63636057704801
 20
301.80072640865058
 30
0.0
 40
0.8925000000000011
 50
343.3417582272229
 51
76.658241772778837
  0
ARC
  5
24D
  8
0
 10
168.97999999999999
 20
301.39868244203899
 30
0.0
 40
0.5100000000000002
 50
163.3417582272229
 51
316.65824177277852
  0
ARC
  5
24E
  8
0
 10
170.0
 20
300.43607855154198
 30
0.0
 40
0.8925000000000002
 50
43.341758227221433
 51
136.65824177277511
  0
ARC
  5
24F
  8
0
 10
171.02000000000001
 20
301.39868244203899
 30
0.0
 40
0.5099999999999997
 50
223.34175822722139
 51
16.658241772777039
  0
ARC
  5
250
  8
0
 10
172.36363942295219
 20
301.80072640865058
 30
0.0
 40
0.8925000000000002
 50
103.34175822722121
 51
196.65824177277699
  0
ARC
  5
251
  8
0
 10
172.03999999999991
 20
303.16537426575923
 30
0.0
 40
0.5100000000000005
 50
283.34175822722119
 51
76.658241772778837
  0
ARC
  5
252
  8
0
 10
172.36363942295219
 20
304.53002212286788
 30
0.0
 40
0.8925000000000011
 50
163.3417582272229
 51
256.65824177277881
  0
CIRCLE
  5
253
  8
0
 10
170.0
 20
303.16537426575923
 30
0.0
 40
6.75
  0
CIRCLE
  5
254
  8
0
 10
170.0
 20
303.16537426575923
 30
0.0
 40
3.999175415007485
  0
LINE
  5
255
  8
0
 10
166.19999999999999
 20
302.49037426575933
 30
0.0
 11
168.2028780817954
 21
302.49037426575933
 31
0.0
  0
LINE
  5
256
  8
0
 10
166.19999999999999
 20
303.84037426575929
 30
0.0
 11
168.2028780817954
 21
303.84037426575929
 31
0.0
  0
LINE
  5
257
  8
0
 10
171.79712191820451
 20
302.49037426575933
 30
0.0
 11
173.7999999999999
 21
302.49037426575933
 31
0.0
  0
LINE
  5
258
  8
0
 10
171.79712191820451
 20
303.84037426575929
 30
0.0
 11
173.7999999999999
 21
303.84037426575929
 31
0.0
  0
LINE
  5
259
  8
0
 10
173.7999999999999
 20
303.84037426575929
 30
0.0
 11
173.7999999999999
 21
302.49037426575933
 31
0.0
  0
LINE
  5
25A
  8
0
 10
166.19999999999999
 20
303.84037426575929
 30
0.0
 11
166.19999999999999
 21
302.49037426575933
 31
0.0
  0
LINE
  5
25B
  8
2
 10
89.964627146035127
 20
153.1114174312269
 30
0.0
 11
87.964627146042517
 21
155.11141743121959
 31
0.0
  0
LINE
  5
25C
  8
2
 10
87.964627146042517
 20
155.11141743121959
 30
0.0
 11
87.964627146042403
 21
180.1114174312269
 31
0.0
  0
LINE
  5
25D
  8
2
 10
87.964627146042517
 20
180.1114174312269
 30
0.0
 11
81.047127146042499
 21
184.10523791834609
 31
0.0
  0
LINE
  5
25E
  8
2
 10
87.964627146042517
 20
176.73639909762591
 30
0.0
 11
89.047127146042484
 21
176.1114174312282
 31
0.0
  0
LINE
  5
25F
  8
2
 10
89.047127146042484
 20
176.1114174312282
 30
0.0
 11
89.047127146042484
 21
154.02891743121961
 31
0.0
  0
LINE
  5
260
  8
2
 10
73.047127146042484
 20
176.1114174312282
 30
0.0
 11
73.047127146042484
 21
154.02891743121961
 31
0.0
  0
LINE
  5
261
  8
2
 10
74.12962714604248
 20
176.73639909762591
 30
0.0
 11
73.047127146042484
 21
176.1114174312282
 31
0.0
  0
LINE
  5
262
  8
2
 10
74.12962714604248
 20
180.1114174312269
 30
0.0
 11
81.047127146042499
 21
184.10523791834609
 31
0.0
  0
LINE
  5
263
  8
2
 10
74.12962714604248
 20
155.11141743121959
 30
0.0
 11
74.129627146042367
 21
180.1114174312269
 31
0.0
  0
LINE
  5
264
  8
2
 10
72.129627146049756
 20
153.1114174312269
 30
0.0
 11
74.12962714604248
 21
155.11141743121959
 31
0.0
  0
LINE
  5
265
  8
2
 10
74.12962714604248
 20
180.1114174312269
 30
0.0
 11
87.964627146042517
 21
180.1114174312269
 31
0.0
  0
LINE
  5
266
  8
2
 10
73.047127146042484
 20
176.1114174312282
 30
0.0
 11
89.047127146042484
 21
176.11141743122809
 31
0.0
  0
LINE
  5
267
  8
2
 10
74.12962714604248
 20
155.11141743121959
 30
0.0
 11
87.964627146042517
 21
155.11141743121959
 31
0.0
  0
LINE
  5
268
  8
2
 10
163.0825000000001
 20
155.11141743121951
 30
0.0
 11
176.91749999999999
 21
155.11141743121951
 31
0.0
  0
LINE
  5
269
  8
2
 10
162.0
 20
176.11141743122809
 30
0.0
 11
178.0
 21
176.11141743122809
 31
0.0
  0
LINE
  5
26A
  8
2
 10
163.0825000000001
 20
180.11141743122681
 30
0.0
 11
176.91749999999999
 21
180.11141743122681
 31
0.0
  0
LINE
  5
26B
  8
2
 10
161.08250000000729
 20
153.11141743122681
 30
0.0
 11
163.0825000000001
 21
155.11141743121951
 31
0.0
  0
LINE
  5
26C
  8
2
 10
163.0825000000001
 20
155.11141743121951
 30
0.0
 11
163.0824999999999
 21
180.11141743122681
 31
0.0
  0
LINE
  5
26D
  8
2
 10
163.0825000000001
 20
180.11141743122681
 30
0.0
 11
170.0
 21
184.10523791834609
 31
0.0
  0
LINE
  5
26E
  8
2
 10
163.0825000000001
 20
176.73639909762591
 30
0.0
 11
162.0
 21
176.11141743122809
 31
0.0
  0
LINE
  5
26F
  8
2
 10
162.0
 20
176.11141743122809
 30
0.0
 11
162.0
 21
154.0289174312195
 31
0.0
  0
LINE
  5
270
  8
2
 10
178.0
 20
176.11141743122809
 30
0.0
 11
178.0
 21
154.0289174312195
 31
0.0
  0
LINE
  5
271
  8
2
 10
176.91749999999999
 20
176.73639909762591
 30
0.0
 11
178.0
 21
176.11141743122809
 31
0.0
  0
LINE
  5
272
  8
2
 10
176.91749999999999
 20
180.11141743122681
 30
0.0
 11
170.0
 21
184.10523791834609
 31
0.0
  0
LINE
  5
273
  8
2
 10
176.91749999999999
 20
155.11141743121951
 30
0.0
 11
176.9174999999999
 21
180.11141743122681
 31
0.0
  0
LINE
  5
274
  8
2
 10
178.9174999999926
 20
153.11141743122681
 30
0.0
 11
176.91749999999999
 21
155.11141743121951
 31
0.0
  0
POLYLINE
  5
275
  8
0
 66
     1
 10
0.0
 20
0.0
 30
0.0
  0
VERTEX
  5
3DF
  8
0
 10
86.901389804410201
 20
218.6179565724774
 30
0.0
 42
0.1074733419819939
  0
VERTEX
  5
3E0
  8
0
 10
86.464959504349395
 20
220.62491613811929
 30
0.0
 42
0.1017692295728794
  0
VERTEX
  5
3E1
  8
0
 10
85.186715970621549
 20
222.37405365740489
 30
0.0
 42
0.0946206036699918
  0
VERTEX
  5
3E2
  8
0
 10
83.313078201314966
 20
223.51812228757589
 30
0.0
 42
0.0901196891814401
  0
VERTEX
  5
3E3
  8
0
 10
81.047127146042499
 20
223.9298800115719
 30
0.0
 42
0.0901196891814506
  0
VERTEX
  5
3E4
  8
0
 10
78.781176090770259
 20
223.51812228757569
 30
0.0
 42
0.094620603670007
  0
VERTEX
  5
3E5
  8
0
 10
76.907538321463676
 20
222.37405365740489
 30
0.0
 42
0.101769229572882
  0
VERTEX
  5
3E6
  8
0
 10
75.62929478773583
 20
220.6249161381192
 30
0.0
 42
0.1074733419819977
  0
VERTEX
  5
3E7
  8
0
 10
75.19286448767491
 20
218.6179565724774
 30
0.0
 42
0.107473341981997
  0
SEQEND
  5
3E8
  8
0
  0
LINE
  5
276
  8
0
 10
86.901389804410201
 20
218.6179565724774
 30
0.0
 11
89.184499606835629
 21
202.8935055470896
 31
0.0
  0
LINE
  5
277
  8
0
 10
75.19286448767491
 20
218.6179565724774
 30
0.0
 11
72.909754685249368
 21
202.89350554708989
 31
0.0
  0
ARC
  5
278
  8
0
 10
81.047127146042499
 20
221.1114174312269
 30
0.0
 40
11.0
 50
307.87253538437369
 51
232.1274646156254
  0
LINE
  5
279
  8
1
 10
97.047127146042499
 20
221.1114174312269
 30
0.0
 11
65.047127146042499
 21
221.1114174312269
 31
0.0
  0
LINE
  5
27A
  8
1
 10
81.047127146042499
 20
237.09465963092291
 30
0.0
 11
81.047127146042385
 21
148.11141743122681
 31
0.0
  0
LINE
  5
27B
  8
0
 10
69.547127146042499
 20
153.61141743123409
 30
0.0
 11
92.547127146042499
 21
153.61141743123409
 31
0.0
  0
LINE
  5
27C
  8
0
 10
66.183137145882256
 20
165.6114174312269
 30
0.0
 11
95.70948621162438
 21
165.6114174312269
 31
0.0
  0
LINE
  5
27D
  8
0
 10
92.047127146035209
 20
153.11141743122681
 30
0.0
 11
70.047127146049775
 21
153.11141743122681
 31
0.0
  0
LINE
  5
27E
  8
0
 10
66.683137145882256
 20
165.1114174312269
 30
0.0
 11
95.411117146202741
 21
165.1114174312269
 31
0.0
  0
LINE
  5
27F
  8
0
 10
70.047127146049775
 20
153.11141743122681
 30
0.0
 11
69.547127146042499
 21
153.61141743123409
 31
0.0
  0
LINE
  5
280
  8
0
 10
69.547127146042499
 20
153.61141743123409
 30
0.0
 11
69.547127146042499
 21
165.1114174312269
 31
0.0
  0
LINE
  5
281
  8
0
 10
66.683137145882256
 20
165.1114174312269
 30
0.0
 11
66.183137145882256
 21
165.61141743122681
 31
0.0
  0
LINE
  5
282
  8
0
 10
95.411117146202741
 20
165.1114174312269
 30
0.0
 11
95.911117146202727
 21
165.61141743122681
 31
0.0
  0
LINE
  5
283
  8
0
 10
92.547127146042499
 20
153.61141743123409
 30
0.0
 11
92.547127146042499
 21
165.1114174312269
 31
0.0
  0
LINE
  5
284
  8
0
 10
92.047127146035209
 20
153.11141743122681
 30
0.0
 11
92.547127146042499
 21
153.61141743123409
 31
0.0
  0
LINE
  5
285
  8
0
 10
95.911117146202727
 20
165.61141743122681
 30
0.0
 11
96.24712714604243
 21
184.86141743126521
 31
0.0
  0
LINE
  5
286
  8
0
 10
66.183137145882256
 20
165.61141743122681
 30
0.0
 11
65.847127146042453
 21
184.86141743126521
 31
0.0
  0
LINE
  5
287
  8
0
 10
65.547127146042484
 20
184.86141743122681
 30
0.0
 11
96.547127146042513
 21
184.86141743122681
 31
0.0
  0
LINE
  5
288
  8
0
 10
65.547127146042484
 20
186.06141743123851
 30
0.0
 11
96.547127146033858
 21
186.06141743123851
 31
0.0
  0
LINE
  5
289
  8
0
 10
65.547127146042484
 20
184.86141743122681
 30
0.0
 11
65.547127146042484
 21
186.06141743123851
 31
0.0
  0
LINE
  5
28A
  8
0
 10
96.547127146042513
 20
184.86141743122681
 30
0.0
 11
96.547127146042513
 21
186.06141743123851
 31
0.0
  0
LINE
  5
28B
  8
0
 10
65.547127146042484
 20
186.06141743118999
 30
0.0
 11
68.01049814513965
 21
200.0318885933431
 31
0.0
  0
LINE
  5
28C
  8
0
 10
96.547127146042513
 20
186.06141743118999
 30
0.0
 11
94.083756146945234
 21
200.0318885933431
 31
0.0
  0
LINE
  5
28D
  8
0
 10
158.5
 20
153.61141743123409
 30
0.0
 11
181.5
 21
153.61141743123409
 31
0.0
  0
LINE
  5
28E
  8
0
 10
155.1360099998397
 20
165.6114174312269
 30
0.0
 11
184.6623590655818
 21
165.6114174312269
 31
0.0
  0
ARC
  5
28F
  8
0
 10
157.5863421727243
 20
194.92677795976601
 30
0.0
 40
1.5
 50
105.9384888797205
 51
169.99999999999969
  0
LINE
  5
290
  8
0
 10
154.5
 20
186.06141743127799
 30
0.0
 11
181.65570279206071
 21
186.06141743123851
 31
0.0
  0
ARC
  5
291
  8
0
 10
195.18519582763449
 20
195.71286594000151
 30
0.0
 40
15.0
 50
148.3829792102425
 51
189.7972463626748
  0
LINE
  5
292
  8
0
 10
181.8672951689027
 20
184.8614174312269
 30
0.0
 11
180.40395466332831
 21
193.1604338368025
 31
0.0
  0
LINE
  5
293
  8
0
 10
185.46917119255119
 20
194.75749047387609
 30
0.0
 11
181.8672951689027
 21
184.8614174312269
 31
0.0
  0
ARC
  5
294
  8
0
 10
158.69161588992191
 20
303.16537426575928
 30
0.0
 40
23.72001138741059
 50
336.25683855798388
 51
23.74316144201611
  0
ARC
  5
295
  8
0
 10
169.35926193718529
 20
303.16537426575928
 30
0.0
 40
13.05236534014713
 50
272.81376949536133
 51
87.186230504638687
  0
ARC
  5
296
  8
0
 10
169.32612037751329
 20
303.16537426575928
 30
0.0
 40
13.054034221386731
 50
87.040943296313245
 51
272.95905670368671
  0
LINE
  5
297
  8
0
 10
200.3702823197936
 20
207.97474029046151
 30
0.0
 11
200.2499999999915
 21
208.35622707076189
 31
0.0
  0
LINE
  5
298
  8
0
 10
188.78028231980221
 20
204.8692091502605
 30
0.0
 11
200.3702823197936
 21
207.97474029046151
 31
0.0
  0
LINE
  5
299
  8
0
 10
188.65999999999991
 20
205.25069593056151
 30
0.0
 11
188.78028231980221
 21
204.8692091502605
 31
0.0
  0
LINE
  5
29A
  8
0
 10
200.2499999999915
 20
208.35622707076189
 30
0.0
 11
258.37166403461731
 21
223.94663781189541
 31
0.0
  0
ARC
  5
29B
  8
0
 10
170.0
 20
303.16537426575928
 30
0.0
 40
15.5
 50
37.635831765054071
 51
322.36416823494602
  0
LINE
  5
29C
  8
0
 10
260.14582825169339
 20
297.26537426575919
 30
0.0
 11
180.40395466332831
 21
293.61480961189108
 31
0.0
  0
LINE
  5
29D
  8
0
 10
260.14582825169339
 20
309.06537426575932
 30
0.0
 11
180.40395466332831
 21
312.71593891962749
 31
0.0
  0
ARC
  5
29E
  8
0
 10
271.26542575078048
 20
303.16537426575928
 30
0.0
 40
12.89376171616329
 50
149.58728493767839
 51
210.41271506232161
  0
ARC
  5
29F
  8
0
 10
269.0
 20
303.16537426575928
 30
0.0
 40
11.0
 50
216.39701575852891
 51
143.60298424147109
  0
ARC
  5
2A0
  8
0
 10
244.79950826498469
 20
213.48103169690069
 30
0.0
 40
17.138620819347882
 50
357.3638742418463
 51
37.636125758153973
  0
ARC
  5
2A1
  8
0
 10
269.0
 20
221.1114174312269
 30
0.0
 40
11.0
 50
229.9364372123724
 51
165.06356278762229
  0
LINE
  5
2A2
  8
1
 10
284.25947121196589
 20
225.92271022331229
 30
0.0
 11
170.0
 21
189.88007953190311
 31
0.0
  0
LINE
  5
2A3
  8
0
 10
261.91999246877953
 20
212.6927777930272
 30
0.0
 11
185.5000000000116
 21
184.86141743122511
 31
0.0
  0
LINE
  5
2A4
  8
0
 10
182.41162727733251
 20
203.57644950544639
 30
0.0
 11
188.6600000000175
 21
205.25069593049619
 31
0.0
  0
LINE
  5
2A5
  8
0
 10
157.1744343518171
 20
196.3691135473029
 30
0.0
 11
182.41162727733251
 21
203.57644950544639
 31
0.0
  0
LINE
  5
2A6
  8
0
 10
154.5
 20
186.06141743118999
 30
0.0
 11
156.10913054320611
 21
195.1872502262664
 31
0.0
  0
LINE
  5
2A7
  8
0
 10
154.5
 20
184.8614174312269
 30
0.0
 11
154.5
 21
186.06141743118999
 31
0.0
  0
LINE
  5
2A8
  8
1
 10
264.18870720793871
 20
236.3708886432008
 30
0.0
 11
273.81129279207551
 21
205.8519462192572
 31
0.0
  0
LINE
  5
2A9
  8
1
 10
170.0
 20
209.1114174312269
 30
0.0
 11
170.0
 21
148.11141743122681
 31
0.0
  0
LINE
  5
2AA
  8
0
 10
180.9999999999927
 20
153.11141743122681
 30
0.0
 11
159.00000000000719
 21
153.11141743122681
 31
0.0
  0
LINE
  5
2AB
  8
0
 10
155.6360099998397
 20
165.1114174312269
 30
0.0
 11
184.36399000016019
 21
165.1114174312269
 31
0.0
  0
LINE
  5
2AC
  8
0
 10
159.00000000000719
 20
153.11141743122681
 30
0.0
 11
158.5
 21
153.61141743123409
 31
0.0
  0
LINE
  5
2AD
  8
0
 10
158.5
 20
153.61141743123409
 30
0.0
 11
158.5
 21
165.1114174312269
 31
0.0
  0
LINE
  5
2AE
  8
0
 10
155.6360099998397
 20
165.1114174312269
 30
0.0
 11
155.1360099998397
 21
165.61141743122681
 31
0.0
  0
LINE
  5
2AF
  8
0
 10
155.1360099998397
 20
165.61141743122681
 30
0.0
 11
154.80000000000001
 21
184.86141743126521
 31
0.0
  0
LINE
  5
2B0
  8
0
 10
154.5
 20
184.8614174312269
 30
0.0
 11
185.5
 21
184.8614174312269
 31
0.0
  0
LINE
  5
2B1
  8
0
 10
184.86399000016019
 20
165.61141743122681
 30
0.0
 11
185.1999999999999
 21
184.86141743126521
 31
0.0
  0
LINE
  5
2B2
  8
0
 10
184.36399000016019
 20
165.1114174312269
 30
0.0
 11
184.86399000016019
 21
165.61141743122681
 31
0.0
  0
LINE
  5
2B3
  8
0
 10
181.5
 20
153.61141743123409
 30
0.0
 11
181.5
 21
165.1114174312269
 31
0.0
  0
LINE
  5
2B4
  8
0
 10
180.9999999999927
 20
153.11141743122681
 30
0.0
 11
181.5
 21
153.61141743123409
 31
0.0
  0
LINE
  5
2B5
  8
1
 10
269.0
 20
319.16537426575928
 30
0.0
 11
269.0
 21
287.16537426575928
 31
0.0
  0
LINE
  5
2B6
  8
1
 10
170.0
 20
323.66537426575928
 30
0.0
 11
170.0
 21
282.66537426575928
 31
0.0
  0
LINE
  5
2B7
  8
1
 10
149.5
 20
303.16537426575928
 30
0.0
 11
285.0
 21
303.16537426575928
 31
0.0
  0
TEXT
  5
36A
  8
0
 62
     3
 10
0.0
 20
0.0
 30
0.0
 40
10.0
  1
KF16
  7
STANDARD1
  0
ENDSEC
  0
EOF
