  0
SECTION
  2
HEADER
  9
$ACADVER
  1
AC1009
  9
$INSBASE
 10
0.0
 20
0.0
 30
0.0
  9
$EXTMIN
 10
0.0
 20
-2.960436562073669
 30
0.0
  9
$EXTMAX
 10
215.8925148623962116
 20
149.7364371443169091
 30
0.0
  9
$LIMMIN
 10
0.0
 20
0.0
  9
$LIMMAX
 10
375.0
 20
270.0
  9
$ORTHOMODE
 70
     0
  9
$REGENMODE
 70
     1
  9
$FILLMODE
 70
     1
  9
$QTEXTMODE
 70
     0
  9
$MIRRTEXT
 70
     0
  9
$DRAGMODE
 70
     2
  9
$LTSCALE
 40
5.0
  9
$OSMODE
 70
    37
  9
$ATTMODE
 70
     1
  9
$TEXTSIZE
 40
0.2
  9
$TRACEWID
 40
0.05
  9
$TEXTSTYLE
  7
STANDARD
  9
$CLAYER
  8
0
  9
$CELTYPE
  6
BYLAYER
  9
$CECOLOR
 62
   256
  9
$DIMSCALE
 40
1.0
  9
$DIMASZ
 40
3.0
  9
$DIMEXO
 40
2.0
  9
$DIMDLI
 40
10.0
  9
$DIMRND
 40
0.0
  9
$DIMDLE
 40
0.0
  9
$DIMEXE
 40
2.0
  9
$DIMTP
 40
0.0
  9
$DIMTM
 40
0.0
  9
$DIMTXT
 40
3.2000000000000002
  9
$DIMCEN
 40
0.0
  9
$DIMTSZ
 40
0.0
  9
$DIMTOL
 70
     0
  9
$DIMLIM
 70
     0
  9
$DIMTIH
 70
     0
  9
$DIMTOH
 70
     0
  9
$DIMSE1
 70
     0
  9
$DIMSE2
 70
     0
  9
$DIMTAD
 70
     1
  9
$DIMZIN
 70
     8
  9
$DIMBLK
  1

  9
$DIMASO
 70
     0
  9
$DIMSHO
 70
     0
  9
$DIMPOST
  1

  9
$DIMAPOST
  1

  9
$DIMALT
 70
     0
  9
$DIMALTD
 70
     2
  9
$DIMALTF
 40
25.3999999999999986
  9
$DIMLFAC
 40
1.0
  9
$DIMTOFL
 70
     1
  9
$DIMTVP
 40
1.6000000000000001
  9
$DIMTIX
 70
     0
  9
$DIMSOXD
 70
     0
  9
$DIMSAH
 70
     0
  9
$DIMBLK1
  1

  9
$DIMBLK2
  1

  9
$DIMSTYLE
  2
STANDARD
  9
$DIMCLRD
 70
   256
  9
$DIMCLRE
 70
   256
  9
$DIMCLRT
 70
   256
  9
$DIMTFAC
 40
1.0
  9
$DIMGAP
 40
0.5
  9
$LUNITS
 70
     2
  9
$LUPREC
 70
     1
  9
$SKETCHINC
 40
0.1
  9
$FILLETRAD
 40
0.0
  9
$AUNITS
 70
     0
  9
$AUPREC
 70
     1
  9
$MENU
  1
E:\r13\win\SUPPORT\ACAD
  9
$ELEVATION
 40
0.0
  9
$PELEVATION
 40
0.0
  9
$THICKNESS
 40
0.0
  9
$LIMCHECK
 70
     0
  9
$BLIPMODE
 70
     0
  9
$CHAMFERA
 40
0.0
  9
$CHAMFERB
 40
0.0
  9
$SKPOLY
 70
     0
  9
$TDCREATE
 40
2449840.6171180559322238
  9
$TDUPDATE
 40
2460566.5217013889923692
  9
$TDINDWG
 40
0.4033468866
  9
$TDUSRTIMER
 40
0.4033468866
  9
$USRTIMER
 70
     1
  9
$ANGBASE
 50
0.0
  9
$ANGDIR
 70
     0
  9
$PDMODE
 70
     0
  9
$PDSIZE
 40
0.0
  9
$PLINEWID
 40
0.0
  9
$COORDS
 70
     1
  9
$SPLFRAME
 70
     0
  9
$SPLINETYPE
 70
     6
  9
$SPLINESEGS
 70
     8
  9
$ATTDIA
 70
     1
  9
$ATTREQ
 70
     1
  9
$HANDLING
 70
     1
  9
$HANDSEED
  5
296A
  9
$SURFTAB1
 70
     6
  9
$SURFTAB2
 70
     6
  9
$SURFTYPE
 70
     6
  9
$SURFU
 70
     6
  9
$SURFV
 70
     6
  9
$UCSNAME
  2

  9
$UCSORG
 10
0.0
 20
0.0
 30
0.0
  9
$UCSXDIR
 10
1.0
 20
0.0
 30
0.0
  9
$UCSYDIR
 10
0.0
 20
1.0
 30
0.0
  9
$PUCSNAME
  2

  9
$PUCSORG
 10
0.0
 20
0.0
 30
0.0
  9
$PUCSXDIR
 10
1.0
 20
0.0
 30
0.0
  9
$PUCSYDIR
 10
0.0
 20
1.0
 30
0.0
  9
$USERI1
 70
     0
  9
$USERI2
 70
     1
  9
$USERI3
 70
     0
  9
$USERI4
 70
     0
  9
$USERI5
 70
     0
  9
$USERR1
 40
0.0
  9
$USERR2
 40
0.0
  9
$USERR3
 40
0.0
  9
$USERR4
 40
0.0
  9
$USERR5
 40
0.0
  9
$WORLDVIEW
 70
     1
  9
$SHADEDGE
 70
     3
  9
$SHADEDIF
 70
    70
  9
$TILEMODE
 70
     1
  9
$MAXACTVP
 70
    16
  9
$PLIMCHECK
 70
     0
  9
$PEXTMIN
 10
1.0000000000000000E+20
 20
1.0000000000000000E+20
 30
1.0000000000000000E+20
  9
$PEXTMAX
 10
-1.0000000000000000E+20
 20
-1.0000000000000000E+20
 30
-1.0000000000000000E+20
  9
$PLIMMIN
 10
0.0
 20
0.0
  9
$PLIMMAX
 10
12.0
 20
9.0
  9
$UNITMODE
 70
     0
  9
$VISRETAIN
 70
     0
  9
$PLINEGEN
 70
     0
  9
$PSLTSCALE
 70
     0
  0
ENDSEC
  0
SECTION
  2
TABLES
  0
TABLE
  2
VPORT
 70
     1
  0
VPORT
  2
*ACTIVE
 70
     0
 10
0.0
 20
0.0
 11
1.0
 21
1.0
 12
158.2103703200189955
 22
73.3869346455645086
 13
0.0
 23
0.0
 14
10.0
 24
10.0
 15
10.0
 25
10.0
 16
0.0
 26
0.0
 36
1.0
 17
0.0
 27
0.0
 37
0.0
 40
147.3998046455884889
 41
2.3485221674876842
 42
50.0
 43
0.0
 44
0.0
 50
0.0
 51
0.0
 71
     0
 72
   100
 73
     1
 74
     0
 75
     0
 76
     0
 77
     0
 78
     0
  0
ENDTAB
  0
TABLE
  2
LTYPE
 70
     4
  0
LTYPE
  2
CONTINUOUS
 70
     0
  3
Solid Line
 72
    65
 73
     0
 40
0.0
  0
LTYPE
  2
CENTER
 70
     0
  3
____ _ ____ _ ____ _ ____ _ ____ _ ____ _ ____
 72
    65
 73
     4
 40
2.0
 49
1.25
 49
-0.25
 49
0.25
 49
-0.25
  0
LTYPE
  2
HIDDEN
 70
     0
  3
Hidden __ __ __ __ __ __ __ __ __ __ __ __ __ _
 72
    65
 73
     2
 40
0.375
 49
0.25
 49
-0.125
  0
LTYPE
  2
PHANTOM2
 70
     0
  3
___ _ _ ___ _ _ ___ _ _ ___ _ _
 72
    65
 73
     6
 40
1.25
 49
0.625
 49
-0.125
 49
0.125
 49
-0.125
 49
0.125
 49
-0.125
  0
ENDTAB
  0
TABLE
  2
LAYER
 70
     5
  0
LAYER
  2
0
 70
     0
 62
     7
  6
CONTINUOUS
  0
LAYER
  2
1
 70
     0
 62
     1
  6
CENTER
  0
LAYER
  2
3
 70
     0
 62
     3
  6
CONTINUOUS
  0
LAYER
  2
2
 70
     0
 62
     2
  6
HIDDEN
  0
LAYER
  2
DEFPOINTS
 70
     0
 62
     7
  6
CONTINUOUS
  0
ENDTAB
  0
TABLE
  2
STYLE
 70
     2
  0
STYLE
  2
STANDARD
 70
     0
 40
0.0
 41
1.0
 50
0.0
 71
     0
 42
0.2
  3
TXT
  4
BIGFONT
  0
STYLE
  2
STANDARD1
 70
     0
 40
0.0
 41
1.0
 50
0.0
 71
     0
 42
3.0
  3
txt
  4

  0
ENDTAB
  0
TABLE
  2
VIEW
 70
     1
  0
VIEW
  2
ALL
 70
     0
 40
270.0
 10
220.9915970000000129
 20
135.0
 41
0.0
 11
0.0
 21
0.0
 31
1.0
 12
0.0
 22
0.0
 32
0.0
 42
0.0
 43
0.0
 44
0.0
 50
0.0
 71
     0
  0
ENDTAB
  0
TABLE
  2
UCS
 70
     0
  0
ENDTAB
  0
TABLE
  2
APPID
 70
     7
  0
APPID
  2
ACAD
 70
     0
  0
APPID
  2
ACAD_EXEMPT_FROM_CAD_STANDARDS
 70
     0
  0
APPID
  2
ACAD_MLEADERVER
 70
     0
  0
APPID
  2
ACAD_NAV_VCDISPLAY
 70
     0
  0
APPID
  2
ACAD_DSTYLE_DIMJAG
 70
     0
  0
APPID
  2
ACAD_DSTYLE_DIMTALN
 70
     0
  0
APPID
  2
ACAD_DSTYLE_DIMRADIAL_EXTENSION
 70
     0
  0
ENDTAB
  0
TABLE
  2
DIMSTYLE
 70
     2
  0
DIMSTYLE
  2
STANDARD
 70
     0
  3

  4

  5

  6

  7

 40
1.0
 41
0.18
 42
0.0625
 43
0.38
 44
0.18
 45
0.0
 46
0.0
 47
0.0
 48
0.0
140
0.18
141
0.09
142
0.0
143
25.3999999999999986
144
1.0
145
0.0
146
1.0
147
0.09
 71
     0
 72
     0
 73
     1
 74
     1
 75
     0
 76
     0
 77
     0
 78
     0
170
     0
171
     2
172
     0
173
     0
174
     0
175
     0
176
     0
177
     0
178
     0
  0
DIMSTYLE
  2
ISO-25
 70
     0
  3

  4

  5

  6

  7

 40
1.0
 41
2.5
 42
0.625
 43
3.75
 44
1.25
 45
0.0
 46
0.0
 47
0.0
 48
0.0
140
2.5
141
2.5
142
0.0
143
0.03937007874016
144
1.0
145
0.0
146
1.0
147
0.625
 71
     0
 72
     0
 73
     0
 74
     0
 75
     0
 76
     0
 77
     1
 78
     8
170
     0
171
     3
172
     1
173
     0
174
     0
175
     0
176
     0
177
     0
178
     0
  0
ENDTAB
  0
ENDSEC
  0
SECTION
  2
BLOCKS
  0
BLOCK
  8
0
  2
$MODEL_SPACE
 70
     0
 10
0.0
 20
0.0
 30
0.0
  3
$MODEL_SPACE
  1

  0
ENDBLK
  5
E8
  8
0
  0
BLOCK
 67
     1
  8
0
  2
$PAPER_SPACE
 70
     0
 10
0.0
 20
0.0
 30
0.0
  3
$PAPER_SPACE
  1

  0
ENDBLK
  5
E6
 67
     1
  8
0
  0
ENDSEC
  0
SECTION
  2
ENTITIES
  0
TEXT
  5
10C7
  8
0
 62
     3
 10
0.0
 20
0.0
 30
0.0
 40
10.0
  1
KCLS08
  7
STANDARD1
  0
LINE
  5
2178
  8
0
 10
127.3925148623960979
 20
59.8659489106628868
 30
0.0
 11
127.3925148623960979
 21
65.4659489106629024
 31
0.0
  0
LINE
  5
2179
  8
0
 10
102.3925148623960979
 20
65.4659489106629024
 30
0.0
 11
102.3925148623960979
 21
59.8659489106628868
 31
0.0
  0
LINE
  5
217A
  8
0
 10
102.3925148623960979
 20
59.8659489106628868
 30
0.0
 11
103.5925148623961007
 21
58.6659489106629124
 31
0.0
  0
LINE
  5
217B
  8
0
 10
126.1925148623960951
 20
58.6659489106629124
 30
0.0
 11
127.3925148623960979
 21
59.8659489106628868
 31
0.0
  0
LINE
  5
217C
  8
0
 10
103.5925148623961007
 20
66.6659489106628911
 30
0.0
 11
102.3925148623960979
 21
65.4659489106629024
 31
0.0
  0
LINE
  5
217D
  8
0
 10
127.3925148623959984
 20
65.4659489106629024
 30
0.0
 11
126.1925148623960951
 21
66.6659489106628911
 31
0.0
  0
LINE
  5
217E
  8
0
 10
127.3925148623960979
 20
65.4659489106629024
 30
0.0
 11
122.0945978944083947
 21
65.4659489106629024
 31
0.0
  0
LINE
  5
217F
  8
0
 10
108.2592652816853018
 20
65.4659489106629024
 30
0.0
 11
102.3925148623960979
 21
65.4659489106629024
 31
0.0
  0
LINE
  5
2180
  8
0
 10
102.3925148623960979
 20
59.8659489106628868
 30
0.0
 11
127.3925148623959984
 21
59.8659489106628868
 31
0.0
  0
LINE
  5
2182
  8
0
 10
103.5925148623961007
 20
58.6659489106629124
 30
0.0
 11
126.1925148623960951
 21
58.6659489106629124
 31
0.0
  0
LINE
  5
2183
  8
0
 10
106.7340836406475972
 20
66.6659489106628911
 30
0.0
 11
103.5925148623961007
 21
66.6659489106628911
 31
0.0
  0
LINE
  5
2186
  8
0
 10
126.1925148623960951
 20
66.6659489106628911
 30
0.0
 11
123.7111099028008994
 21
66.6659489106628911
 31
0.0
  0
CIRCLE
  5
2189
  8
0
 10
114.8925148623960979
 20
76.9659489106629024
 30
0.0
 40
5.4999999999999707
  0
LINE
  5
218A
  8
0
 10
210.8925148623962116
 20
69.9115753760431886
 30
0.0
 11
210.8925148623962116
 21
70.7405073908390278
 31
0.0
  0
ARC
  5
218B
  8
0
 10
206.8927528625744969
 20
69.9111610709112767
 30
0.0
 40
3.9997620212789409
 50
239.7450321124426011
 51
0.0059348369737331
  0
ARC
  5
218D
  8
0
 10
179.2228438821504142
 20
40.4108245807411635
 30
0.0
 40
45.0548454213313789
 50
47.6240938545623393
 51
69.6799041508567711
  0
ARC
  5
218E
  8
0
 10
206.8925148623995938
 20
70.7405073908405484
 30
0.0
 40
3.9999999999965321
 50
359.9999999999789111
 51
47.6055162546049431
  0
ARC
  5
218F
  8
0
 10
173.3850990420154119
 20
12.4501704237165605
 30
0.0
 40
62.5173659596303821
 50
59.7523805698091905
 51
69.9009777584205807
  0
ARC
  5
2191
  8
0
 10
179.2625148623961024
 20
40.4759489106629005
 30
0.0
 40
44.9799999999999969
 50
69.6984848622356452
 51
70.5761661061481078
  0
ARC
  5
2192
  8
0
 10
173.3925148623960979
 20
12.4659489106627994
 30
0.0
 40
62.5000000000000924
 50
69.9023913788187201
 51
70.533717313291632
  0
ARC
  5
2194
  8
0
 10
179.2625148623961024
 20
40.4759489106629005
 30
0.0
 40
44.9799999999999827
 50
70.5761661061481078
 51
103.9847104878789992
  0
ARC
  5
2195
  8
0
 10
173.3925148623960979
 20
12.4659489106627994
 30
0.0
 40
62.5000000000000924
 50
70.533717313291632
 51
94.5885657357849254
  0
ARC
  5
2196
  8
0
 10
146.0325148623961127
 20
155.5559489106626927
 30
0.0
 40
74.8799999999997681
 50
270.0
 51
284.5006718642745227
  0
ARC
  5
2197
  8
0
 10
148.6025148623961059
 20
137.5359489106625972
 30
0.0
 40
65.0999999999997954
 50
267.7375049431411753
 51
279.0236081160373942
  0
ARC
  5
2199
  8
0
 10
179.2625148623961024
 20
40.4759489106629005
 30
0.0
 40
44.9799999999999969
 50
103.9847104878789992
 51
108.7800651717432032
  0
ARC
  5
219A
  8
0
 10
173.3925148623960979
 20
12.4659489106627994
 30
0.0
 40
62.5000000000000924
 50
94.5885657357849254
 51
103.4899015454239048
  0
ARC
  5
219B
  8
0
 10
136.3425148623960865
 20
57.4659489106630019
 30
0.0
 40
15.9899999999999096
 50
86.647953290490932
 51
118.3266634737098002
  0
ARC
  5
219C
  8
0
 10
114.8925148623960979
 20
75.4659489106629024
 30
0.0
 40
12.0
 50
58.9005622838647298
 51
270.0
  0
ARC
  5
219D
  8
0
 10
134.0039371129032872
 20
107.1480185962572023
 30
0.0
 40
25.0000000000005009
 50
238.9005622838647867
 51
256.0455571336796083
  0
ARC
  5
219E
  8
0
 10
133.7142947855024033
 20
62.8459430936946006
 30
0.0
 40
10.0100000000000193
 50
119.6964423578155987
 51
143.7429287487994998
  0
ARC
  5
219F
  8
0
 10
115.1661440954365929
 20
76.4630688625147457
 30
0.0
 40
12.9999999999999893
 50
268.793926302167506
 51
323.6948120829620734
  0
ARC
  5
21A1
  8
0
 10
148.6025148623961059
 20
137.5359489106625972
 30
0.0
 40
65.0999999999997954
 50
259.9816302489953159
 51
267.7375049431411753
  0
ARC
  5
21A2
  8
0
 10
146.0325148623961127
 20
155.5559489106626927
 30
0.0
 40
74.8799999999997965
 50
256.0455571336796083
 51
270.0
  0
LINE
  5
21A3
  8
0
 10
109.3925148623960979
 20
135.6864371443168125
 30
0.0
 11
109.3925148623960979
 21
126.6864371443167983
 31
0.0
  0
LINE
  5
21A4
  8
0
 10
120.3925148623960979
 20
126.6864371443167983
 30
0.0
 11
120.3925148623960979
 21
135.6864371443168125
 31
0.0
  0
LINE
  5
21A5
  8
0
 10
102.8925148623960979
 20
143.1864371443168125
 30
0.0
 11
102.8925148623960979
 21
135.6864371443168125
 31
0.0
  0
LINE
  5
21A6
  8
0
 10
102.8925148623960979
 20
126.6864371443168977
 30
0.0
 11
102.8925148623960979
 21
119.1864371443168977
 31
0.0
  0
ARC
  5
21A7
  8
0
 10
114.8925148623960979
 20
131.1864371443168977
 30
0.0
 40
12.5
 50
158.8998039759061953
 51
201.1001960240944868
  0
ARC
  5
21A8
  8
0
 10
114.8925148623960979
 20
131.1864371443168977
 30
0.0
 40
11.3000000000000096
 50
156.5324207029887873
 51
203.467579297014197
  0
ARC
  5
21A9
  8
0
 10
114.8736873292701972
 20
130.0039375744783001
 30
0.0
 40
11.3386027470344608
 50
252.5619932539181889
 51
287.4380067460817259
  0
ARC
  5
21AA
  8
0
 10
114.9113423955219986
 20
132.3689367141548985
 30
0.0
 40
11.3386027470350204
 50
72.5619932539182315
 51
107.4380067460817969
  0
ARC
  5
21B8
  8
0
 10
124.3925148623960979
 20
127.6864371443167983
 30
0.0
 40
0.9999999999999715
 50
269.9999999999968168
 51
0.0000000000016284
  0
LINE
  5
21B9
  8
0
 10
125.3925148623960979
 20
127.6864371443168977
 30
0.0
 11
125.3925148623960979
 21
134.6864371443168125
 31
0.0
  0
ARC
  5
21BA
  8
0
 10
124.3925148623957995
 20
134.6864371443163861
 30
0.0
 40
1.000000000000397
 50
0.0000000000260551
 51
89.9999999999837144
  0
LINE
  5
21BC
  8
0
 10
102.8925148623960979
 20
126.6864371443168977
 30
0.0
 11
124.3925148623960979
 21
126.6864371443168977
 31
0.0
  0
LINE
  5
21BD
  8
0
 10
124.3925148623960979
 20
135.6864371443168125
 30
0.0
 11
102.8925148623960979
 21
135.6864371443168125
 31
0.0
  0
ARC
  5
21C0
  8
0
 10
194.2877614887509878
 20
131.1933464785120123
 30
0.0
 40
16.6170707041975092
 50
272.0038197951852794
 51
337.0493286360746197
  0
LINE
  5
21C1
  8
0
 10
194.2207697100415089
 20
114.5864371443169034
 30
0.0
 11
194.8687960437650872
 21
114.5864371443169034
 31
0.0
  0
LINE
  5
21C2
  8
0
 10
168.3925148623960979
 20
118.1864371443168977
 30
0.0
 11
194.2207697100415089
 21
114.5864371443169034
 31
0.0
  0
LINE
  5
21C3
  8
0
 10
164.7818196575123011
 20
118.3479172518698022
 30
0.0
 11
168.3925148623960979
 21
118.1864371443168977
 31
0.0
  0
LINE
  5
21C5
  8
0
 10
168.3925148623962116
 20
144.1864371443168125
 30
0.0
 11
164.7818196575123011
 21
144.024957036763908
 31
0.0
  0
LINE
  5
21C6
  8
0
 10
194.2207697100415089
 20
147.786437144316892
 30
0.0
 11
168.3925148623962116
 21
144.1864371443168125
 31
0.0
  0
LINE
  5
21C7
  8
0
 10
194.8687960437650872
 20
147.786437144316892
 30
0.0
 11
194.2207697100415089
 21
147.786437144316892
 31
0.0
  0
ARC
  5
21C8
  8
0
 10
194.2884933281216036
 20
131.180591585697897
 30
0.0
 40
16.6159820040372388
 50
22.9482776151791192
 51
87.9985739535614755
  0
LINE
  5
21C9
  8
0
 10
146.0325148623961127
 20
119.1864371443168977
 30
0.0
 11
164.7818196575123011
 21
118.3479172518698022
 31
0.0
  0
LINE
  5
21CA
  8
0
 10
164.7818196575123011
 20
144.024957036763908
 30
0.0
 11
146.0325148623959137
 21
143.1864371443168125
 31
0.0
  0
LINE
  5
21CB
  8
0
 10
146.0325148623961127
 20
119.1864371443168977
 30
0.0
 11
102.8925148623960979
 21
119.1864371443168977
 31
0.0
  0
LINE
  5
21CC
  8
0
 10
102.8925148623960979
 20
143.1864371443168125
 30
0.0
 11
146.0325148623959137
 21
143.1864371443168125
 31
0.0
  0
LINE
  5
21CD
  8
0
 10
210.8925148623962116
 20
130.6101559629474025
 30
0.0
 11
210.8925148623962116
 21
131.7627183256857109
 31
0.0
  0
ARC
  5
21CE
  8
0
 10
194.2925148624103997
 20
131.1864371443137998
 30
0.0
 40
16.6099999999856216
 50
337.0648818854065212
 51
358.0117334541682226
  0
ARC
  5
21CF
  8
0
 10
194.2925148624169083
 20
131.1864371443213884
 30
0.0
 40
16.6099999999789993
 50
1.988266545827726
 51
22.9351181145967011
  0
LINE
  5
21D4
  8
0
 10
65.8633351350748626
 20
59.8659489106628868
 30
0.0
 11
65.8633351350748626
 21
63.3659310806718565
 31
0.0
  0
LINE
  5
21D5
  8
0
 10
40.8633351350748626
 20
63.3659310806718565
 30
0.0
 11
40.8633351350748626
 21
59.8659489106628868
 31
0.0
  0
LINE
  5
21D6
  8
0
 10
40.8633351350748626
 20
59.8659489106628868
 30
0.0
 11
42.0633351350748512
 21
58.6659489106629124
 31
0.0
  0
LINE
  5
21D7
  8
0
 10
64.663335135074874
 20
58.6659489106629124
 30
0.0
 11
65.8633351350748626
 21
59.8659489106628868
 31
0.0
  0
LINE
  5
21D8
  8
0
 10
57.3488972026750616
 20
71.4659489106628882
 30
0.0
 11
57.8633351350748626
 21
71.4659489106628882
 31
0.0
  0
LINE
  5
21D9
  8
0
 10
48.8633351350749194
 20
71.4659489106628882
 30
0.0
 11
49.3967175413777113
 21
71.4659489106628882
 31
0.0
  0
LINE
  5
21DA
  8
0
 10
49.3820396840867986
 20
82.4659489106629024
 30
0.0
 11
48.8633351350748626
 21
82.4659489106629024
 31
0.0
  0
LINE
  5
21DB
  8
0
 10
57.8633351350748626
 20
82.4659489106629024
 30
0.0
 11
57.3628107548797175
 21
82.4659489106630161
 31
0.0
  0
LINE
  5
21DC
  8
0
 10
48.8633351350748626
 20
87.4659489106628882
 30
0.0
 11
41.3633351350748626
 21
87.4659489106628882
 31
0.0
  0
LINE
  5
21DD
  8
0
 10
65.3633351350748626
 20
87.4659489106628882
 30
0.0
 11
57.8633351350748626
 21
87.4659489106628882
 31
0.0
  0
LINE
  5
21DE
  8
0
 10
41.2483977468816079
 20
72.4359489106629013
 30
0.0
 11
41.3633351350750331
 21
72.4359489106629013
 31
0.0
  0
LINE
  5
21DF
  8
0
 10
65.3633351350750331
 20
72.4359489106629013
 30
0.0
 11
65.4782725232680605
 21
72.4359489106629013
 31
0.0
  0
LINE
  5
21E0
  8
0
 10
67.8784200771597739
 20
85.4559489106628973
 30
0.0
 11
65.36333513507509
 21
85.4559489106628973
 31
0.0
  0
LINE
  5
21E1
  8
0
 10
57.86333513507509
 20
85.4559489106628973
 30
0.0
 11
48.8633351350750829
 21
85.4559489106628973
 31
0.0
  0
LINE
  5
21E2
  8
0
 10
41.3633351350750829
 20
85.4559489106628973
 30
0.0
 11
38.8482501929899016
 21
85.4559489106628973
 31
0.0
  0
LINE
  5
21E4
  8
0
 10
63.5799882073877072
 20
65.4659489106629024
 30
0.0
 11
43.146682062761947
 21
65.4659489106628882
 31
0.0
  0
ARC
  5
21E5
  8
0
 10
-76.1433733550013869
 20
-88.746447652757027
 30
0.0
 40
208.0963263013732103
 50
46.9678578841568211
 51
47.8220083137313878
  0
LINE
  5
21E6
  8
0
 10
40.8633351350748626
 20
59.8659489106628868
 30
0.0
 11
65.8633351350748057
 21
59.8659489106628868
 31
0.0
  0
LINE
  5
21E7
  8
0
 10
53.3633351350748626
 20
58.6659489106629124
 30
0.0
 11
64.663335135074874
 21
58.6659489106629124
 31
0.0
  0
LINE
  5
21E8
  8
0
 10
42.0633351350748512
 20
58.6659489106629124
 30
0.0
 11
53.3633351350748626
 21
58.6659489106629124
 31
0.0
  0
ARC
  5
21E9
  8
0
 10
47.7726241992456266
 20
28.8825032890957409
 30
0.0
 40
39.8524936538740135
 50
66.6312797029151938
 51
71.132525732169114
  0
ARC
  5
21EA
  8
0
 10
58.9464331885098503
 20
28.9022139959274504
 30
0.0
 40
39.8313801738103805
 50
108.8662806622239003
 51
113.3699139026921046
  0
POLYLINE
  5
21EB
  8
0
 66
     1
 10
0.0
 20
0.0
 30
0.0
 70
   128
  0
VERTEX
  5
231E
  8
0
 10
46.0665350664871127
 20
66.5936861204933734
 30
0.0
  0
VERTEX
  5
231F
  8
0
 10
46.3607403202905175
 20
66.6625617112180748
 30
0.0
  0
VERTEX
  5
2320
  8
0
 10
46.4235945059158368
 20
66.6659489106629053
 30
0.0
  0
SEQEND
  5
2321
  8
0
  0
LINE
  5
21EC
  8
0
 10
60.3030757642338173
 20
66.6659489106628911
 30
0.0
 11
46.4235945059158368
 21
66.6659489106628911
 31
0.0
  0
POLYLINE
  5
21ED
  8
0
 66
     1
 10
0.0
 20
0.0
 30
0.0
 70
   128
  0
VERTEX
  5
2322
  8
0
 10
60.3030757642338173
 20
66.6659489106629053
 30
0.0
  0
VERTEX
  5
2323
  8
0
 10
60.5210922454351135
 20
66.6345920687226112
 30
0.0
  0
VERTEX
  5
2324
  8
0
 10
60.6601352036625414
 20
66.5936861204934303
 30
0.0
  0
SEQEND
  5
2325
  8
0
  0
ARC
  5
21EE
  8
0
 10
53.3633351350748626
 20
86.3250003894292064
 30
0.0
 40
4.963167508410228
 50
246.0418231230038089
 51
293.9581768769962196
  0
ARC
  5
21EF
  8
0
 10
51.9236956395001812
 20
95.1703680249988651
 30
0.0
 40
13.8197770702371496
 50
284.4778852480214937
 51
293.1771136174609182
  0
POLYLINE
  5
21F0
  8
0
 66
     1
 10
0.0
 20
0.0
 30
0.0
 70
   128
  0
VERTEX
  5
2326
  8
0
 10
51.3479432376917018
 20
81.789448910662216
 30
0.0
  0
VERTEX
  5
2327
  8
0
 10
50.7415583115002775
 20
81.9585138018805139
 30
0.0
  0
VERTEX
  5
2328
  8
0
 10
50.1905345343497018
 20
82.1426668625830274
 30
0.0
  0
VERTEX
  5
2329
  8
0
 10
49.636701619083567
 20
82.3534480946107266
 30
0.0
  0
VERTEX
  5
232A
  8
0
 10
49.3928760557130815
 20
82.453540350445536
 30
0.0
  0
VERTEX
  5
232B
  8
0
 10
49.3820396840867986
 20
82.4659489106629024
 30
0.0
  0
SEQEND
  5
232C
  8
0
  0
ARC
  5
21F1
  8
0
 10
53.3633351350748626
 20
67.6068974318967548
 30
0.0
 40
4.963167508410085
 50
66.041823123003752
 51
113.9581768769962054
  0
ARC
  5
21F2
  8
0
 10
54.2387324481828088
 20
60.6523540489106523
 30
0.0
 40
11.8481619752532605
 50
104.1219351740390948
 51
114.1214543136221948
  0
POLYLINE
  5
21F3
  8
0
 66
     1
 10
0.0
 20
0.0
 30
0.0
 70
   128
  0
VERTEX
  5
232D
  8
0
 10
55.3787270324580234
 20
72.1424489106636031
 30
0.0
  0
VERTEX
  5
232E
  8
0
 10
55.9851119586493766
 20
71.9733840194452767
 30
0.0
  0
VERTEX
  5
232F
  8
0
 10
56.5361357358000305
 20
71.7892309587427775
 30
0.0
  0
VERTEX
  5
2330
  8
0
 10
57.0899686510661581
 20
71.5784497267150357
 30
0.0
  0
VERTEX
  5
2331
  8
0
 10
57.3337942144366366
 20
71.4783574708802547
 30
0.0
  0
VERTEX
  5
2332
  8
0
 10
57.3488972026750616
 20
71.4659489106628882
 30
0.0
  0
SEQEND
  5
2333
  8
0
  0
LINE
  5
21F4
  8
0
 10
48.8633351350748626
 20
66.6659489106628911
 30
0.0
 11
48.8633351350748626
 21
87.4659489106628882
 31
0.0
  0
LINE
  5
21F5
  8
0
 10
41.3633351350748626
 20
87.4659489106628882
 30
0.0
 11
41.3633351350748626
 21
63.8311800402707092
 31
0.0
  0
LINE
  5
21F6
  8
0
 10
65.3633351350748626
 20
63.8311800402707092
 30
0.0
 11
65.3633351350748626
 21
87.4659489106628882
 31
0.0
  0
LINE
  5
21F7
  8
0
 10
57.8633351350748626
 20
87.4659489106628882
 30
0.0
 11
57.8633351350748626
 21
66.6659489106628911
 31
0.0
  0
LINE
  5
21F8
  8
0
 10
56.8633351350748626
 20
68.4367782537294147
 30
0.0
 11
49.8633351350748626
 21
68.4367782537294147
 31
0.0
  0
ARC
  5
21F9
  8
0
 10
56.780514476421672
 20
67.3559195187445852
 30
0.0
 40
1.084027152101253
 50
357.2965376727727858
 51
85.6182805980540564
  0
ARC
  5
21FA
  8
0
 10
49.9682197860046813
 20
67.3364281673391361
 30
0.0
 40
1.1053375514383801
 50
95.4449454924524048
 51
181.6402362367234105
  0
POLYLINE
  5
21FB
  8
0
 66
     1
 10
0.0
 20
0.0
 30
0.0
 70
   128
  0
VERTEX
  5
2334
  8
0
 10
56.8633351350748626
 20
83.6779651914714577
 30
0.0
  0
VERTEX
  5
2335
  8
0
 10
57.1787845456590915
 20
83.6967618547517844
 30
0.0
  0
VERTEX
  5
2336
  8
0
 10
57.4584896952862323
 20
83.7509575528119967
 30
0.0
  0
VERTEX
  5
2337
  8
0
 10
57.6794913613376181
 20
83.8372006229002835
 30
0.0
  0
VERTEX
  5
2338
  8
0
 10
57.8221743110103716
 20
83.9532291834668172
 30
0.0
  0
VERTEX
  5
2339
  8
0
 10
57.8633351350748626
 20
84.06944493317134
 30
0.0
  0
SEQEND
  5
233A
  8
0
  0
POLYLINE
  5
21FC
  8
0
 66
     1
 10
0.0
 20
0.0
 30
0.0
 70
   128
  0
VERTEX
  5
233B
  8
0
 10
48.8633351350748626
 20
84.06944493317134
 30
0.0
  0
VERTEX
  5
233C
  8
0
 10
48.9265361245160193
 20
83.9268297212355492
 30
0.0
  0
VERTEX
  5
233D
  8
0
 10
49.1136875203695809
 20
83.8048198634690493
 30
0.0
  0
VERTEX
  5
233E
  8
0
 10
49.3924656326225815
 20
83.7215222921911391
 30
0.0
  0
VERTEX
  5
233F
  8
0
 10
49.7124517851042924
 20
83.6821689142537082
 30
0.0
  0
VERTEX
  5
2340
  8
0
 10
49.8633351350748129
 20
83.6779651914712161
 30
0.0
  0
SEQEND
  5
2341
  8
0
  0
LINE
  5
21FD
  8
0
 10
56.8633351350748626
 20
83.6779651914714577
 30
0.0
 11
49.8633351350748626
 21
83.6779651914714577
 31
0.0
  0
POLYLINE
  5
21FE
  8
0
 10
40.5248152426277457
 20
83.061273453083075
 30
0.0
 66
     1
 70
     8
  0
VERTEX
  8
0
  5
2352
 10
40.5248
 20
83.0613
 30
0.00000
  70
    32
  0
VERTEX
  8
0
  5
2353
 10
40.5312
 20
83.0243
 30
0.00000
  70
    32
  0
VERTEX
  8
0
  5
2354
 10
40.5376
 20
82.9877
 30
0.00000
  70
    32
  0
VERTEX
  8
0
  5
2355
 10
40.5441
 20
82.9513
 30
0.00000
  70
    32
  0
VERTEX
  8
0
  5
2356
 10
40.5505
 20
82.9153
 30
0.00000
  70
    32
  0
VERTEX
  8
0
  5
2357
 10
40.5569
 20
82.8795
 30
0.00000
  70
    32
  0
VERTEX
  8
0
  5
2358
 10
40.5633
 20
82.8440
 30
0.00000
  70
    32
  0
VERTEX
  8
0
  5
2359
 10
40.5698
 20
82.8087
 30
0.00000
  70
    32
  0
VERTEX
  8
0
  5
235A
 10
40.5762
 20
82.7738
 30
0.00000
  70
    32
  0
VERTEX
  8
0
  5
235B
 10
40.5826
 20
82.7391
 30
0.00000
  70
    32
  0
VERTEX
  8
0
  5
235C
 10
40.5891
 20
82.7048
 30
0.00000
  70
    32
  0
VERTEX
  8
0
  5
235D
 10
40.5955
 20
82.6707
 30
0.00000
  70
    32
  0
VERTEX
  8
0
  5
235E
 10
40.6020
 20
82.6369
 30
0.00000
  70
    32
  0
VERTEX
  8
0
  5
235F
 10
40.6084
 20
82.6033
 30
0.00000
  70
    32
  0
VERTEX
  8
0
  5
2360
 10
40.6149
 20
82.5701
 30
0.00000
  70
    32
  0
VERTEX
  8
0
  5
2361
 10
40.6213
 20
82.5372
 30
0.00000
  70
    32
  0
VERTEX
  8
0
  5
2362
 10
40.6278
 20
82.5045
 30
0.00000
  70
    32
  0
VERTEX
  8
0
  5
2363
 10
40.6342
 20
82.4721
 30
0.00000
  70
    32
  0
VERTEX
  8
0
  5
2364
 10
40.6407
 20
82.4400
 30
0.00000
  70
    32
  0
VERTEX
  8
0
  5
2365
 10
40.6472
 20
82.4082
 30
0.00000
  70
    32
  0
VERTEX
  8
0
  5
2366
 10
40.6536
 20
82.3767
 30
0.00000
  70
    32
  0
VERTEX
  8
0
  5
2367
 10
40.6601
 20
82.3455
 30
0.00000
  70
    32
  0
VERTEX
  8
0
  5
2368
 10
40.6666
 20
82.3145
 30
0.00000
  70
    32
  0
VERTEX
  8
0
  5
2369
 10
40.6731
 20
82.2839
 30
0.00000
  70
    32
  0
VERTEX
  8
0
  5
236A
 10
40.6796
 20
82.2535
 30
0.00000
  70
    32
  0
VERTEX
  8
0
  5
236B
 10
40.6860
 20
82.2234
 30
0.00000
  70
    32
  0
VERTEX
  8
0
  5
236C
 10
40.6925
 20
82.1936
 30
0.00000
  70
    32
  0
VERTEX
  8
0
  5
236D
 10
40.6990
 20
82.1641
 30
0.00000
  70
    32
  0
VERTEX
  8
0
  5
236E
 10
40.7055
 20
82.1349
 30
0.00000
  70
    32
  0
VERTEX
  8
0
  5
236F
 10
40.7120
 20
82.1059
 30
0.00000
  70
    32
  0
VERTEX
  8
0
  5
2370
 10
40.7185
 20
82.0773
 30
0.00000
  70
    32
  0
VERTEX
  8
0
  5
2371
 10
40.7250
 20
82.0489
 30
0.00000
  70
    32
  0
VERTEX
  8
0
  5
2372
 10
40.7315
 20
82.0208
 30
0.00000
  70
    32
  0
VERTEX
  8
0
  5
2373
 10
40.7380
 20
81.9930
 30
0.00000
  70
    32
  0
VERTEX
  8
0
  5
2374
 10
40.7445
 20
81.9655
 30
0.00000
  70
    32
  0
VERTEX
  8
0
  5
2375
 10
40.7510
 20
81.9383
 30
0.00000
  70
    32
  0
VERTEX
  8
0
  5
2376
 10
40.7575
 20
81.9114
 30
0.00000
  70
    32
  0
VERTEX
  8
0
  5
2377
 10
40.7640
 20
81.8848
 30
0.00000
  70
    32
  0
VERTEX
  8
0
  5
2378
 10
40.7705
 20
81.8584
 30
0.00000
  70
    32
  0
VERTEX
  8
0
  5
2379
 10
40.7771
 20
81.8323
 30
0.00000
  70
    32
  0
VERTEX
  8
0
  5
237A
 10
40.7836
 20
81.8066
 30
0.00000
  70
    32
  0
VERTEX
  8
0
  5
237B
 10
40.7901
 20
81.7811
 30
0.00000
  70
    32
  0
VERTEX
  8
0
  5
237C
 10
40.7966
 20
81.7559
 30
0.00000
  70
    32
  0
VERTEX
  8
0
  5
237D
 10
40.8032
 20
81.7310
 30
0.00000
  70
    32
  0
VERTEX
  8
0
  5
237E
 10
40.8097
 20
81.7064
 30
0.00000
  70
    32
  0
VERTEX
  8
0
  5
237F
 10
40.8162
 20
81.6820
 30
0.00000
  70
    32
  0
VERTEX
  8
0
  5
2380
 10
40.8228
 20
81.6580
 30
0.00000
  70
    32
  0
VERTEX
  8
0
  5
2381
 10
40.8293
 20
81.6342
 30
0.00000
  70
    32
  0
VERTEX
  8
0
  5
2382
 10
40.8358
 20
81.6108
 30
0.00000
  70
    32
  0
VERTEX
  8
0
  5
2383
 10
40.8424
 20
81.5876
 30
0.00000
  70
    32
  0
VERTEX
  8
0
  5
2384
 10
40.8489
 20
81.5647
 30
0.00000
  70
    32
  0
VERTEX
  8
0
  5
2385
 10
40.8555
 20
81.5421
 30
0.00000
  70
    32
  0
VERTEX
  8
0
  5
2386
 10
40.8620
 20
81.5198
 30
0.00000
  70
    32
  0
VERTEX
  8
0
  5
2387
 10
40.8685
 20
81.4978
 30
0.00000
  70
    32
  0
VERTEX
  8
0
  5
2388
 10
40.8751
 20
81.4760
 30
0.00000
  70
    32
  0
VERTEX
  8
0
  5
2389
 10
40.8816
 20
81.4546
 30
0.00000
  70
    32
  0
VERTEX
  8
0
  5
238A
 10
40.8882
 20
81.4334
 30
0.00000
  70
    32
  0
VERTEX
  8
0
  5
238B
 10
40.8948
 20
81.4126
 30
0.00000
  70
    32
  0
VERTEX
  8
0
  5
238C
 10
40.9013
 20
81.3920
 30
0.00000
  70
    32
  0
VERTEX
  8
0
  5
238D
 10
40.9079
 20
81.3717
 30
0.00000
  70
    32
  0
VERTEX
  8
0
  5
238E
 10
40.9144
 20
81.3517
 30
0.00000
  70
    32
  0
VERTEX
  8
0
  5
238F
 10
40.9210
 20
81.3320
 30
0.00000
  70
    32
  0
VERTEX
  8
0
  5
2390
 10
40.9276
 20
81.3126
 30
0.00000
  70
    32
  0
VERTEX
  8
0
  5
2391
 10
40.9341
 20
81.2935
 30
0.00000
  70
    32
  0
VERTEX
  8
0
  5
2392
 10
40.9407
 20
81.2747
 30
0.00000
  70
    32
  0
VERTEX
  8
0
  5
2393
 10
40.9473
 20
81.2561
 30
0.00000
  70
    32
  0
VERTEX
  8
0
  5
2394
 10
40.9538
 20
81.2379
 30
0.00000
  70
    32
  0
VERTEX
  8
0
  5
2395
 10
40.9604
 20
81.2199
 30
0.00000
  70
    32
  0
VERTEX
  8
0
  5
2396
 10
40.9670
 20
81.2023
 30
0.00000
  70
    32
  0
VERTEX
  8
0
  5
2397
 10
40.9736
 20
81.1849
 30
0.00000
  70
    32
  0
VERTEX
  8
0
  5
2398
 10
40.9801
 20
81.1678
 30
0.00000
  70
    32
  0
VERTEX
  8
0
  5
2399
 10
40.9867
 20
81.1510
 30
0.00000
  70
    32
  0
VERTEX
  8
0
  5
239A
 10
40.9933
 20
81.1345
 30
0.00000
  70
    32
  0
VERTEX
  8
0
  5
239B
 10
40.9999
 20
81.1183
 30
0.00000
  70
    32
  0
VERTEX
  8
0
  5
239C
 10
41.0065
 20
81.1024
 30
0.00000
  70
    32
  0
VERTEX
  8
0
  5
239D
 10
41.0130
 20
81.0867
 30
0.00000
  70
    32
  0
VERTEX
  8
0
  5
239E
 10
41.0196
 20
81.0714
 30
0.00000
  70
    32
  0
VERTEX
  8
0
  5
239F
 10
41.0262
 20
81.0563
 30
0.00000
  70
    32
  0
VERTEX
  8
0
  5
23A0
 10
41.0328
 20
81.0416
 30
0.00000
  70
    32
  0
VERTEX
  8
0
  5
23A1
 10
41.0394
 20
81.0271
 30
0.00000
  70
    32
  0
VERTEX
  8
0
  5
23A2
 10
41.0460
 20
81.0129
 30
0.00000
  70
    32
  0
VERTEX
  8
0
  5
23A3
 10
41.0526
 20
80.9990
 30
0.00000
  70
    32
  0
VERTEX
  8
0
  5
23A4
 10
41.0592
 20
80.9855
 30
0.00000
  70
    32
  0
VERTEX
  8
0
  5
23A5
 10
41.0658
 20
80.9721
 30
0.00000
  70
    32
  0
VERTEX
  8
0
  5
23A6
 10
41.0724
 20
80.9591
 30
0.00000
  70
    32
  0
VERTEX
  8
0
  5
23A7
 10
41.0790
 20
80.9464
 30
0.00000
  70
    32
  0
VERTEX
  8
0
  5
23A8
 10
41.0856
 20
80.9340
 30
0.00000
  70
    32
  0
VERTEX
  8
0
  5
23A9
 10
41.0922
 20
80.9219
 30
0.00000
  70
    32
  0
VERTEX
  8
0
  5
23AA
 10
41.0988
 20
80.9100
 30
0.00000
  70
    32
  0
VERTEX
  8
0
  5
23AB
 10
41.1054
 20
80.8985
 30
0.00000
  70
    32
  0
VERTEX
  8
0
  5
23AC
 10
41.1120
 20
80.8872
 30
0.00000
  70
    32
  0
VERTEX
  8
0
  5
23AD
 10
41.1186
 20
80.8762
 30
0.00000
  70
    32
  0
VERTEX
  8
0
  5
23AE
 10
41.1252
 20
80.8656
 30
0.00000
  70
    32
  0
VERTEX
  8
0
  5
23AF
 10
41.1318
 20
80.8552
 30
0.00000
  70
    32
  0
VERTEX
  8
0
  5
23B0
 10
41.1384
 20
80.8451
 30
0.00000
  70
    32
  0
VERTEX
  8
0
  5
23B1
 10
41.1450
 20
80.8353
 30
0.00000
  70
    32
  0
VERTEX
  8
0
  5
23B2
 10
41.1516
 20
80.8258
 30
0.00000
  70
    32
  0
VERTEX
  8
0
  5
23B3
 10
41.1582
 20
80.8166
 30
0.00000
  70
    32
  0
VERTEX
  8
0
  5
23B4
 10
41.1648
 20
80.8076
 30
0.00000
  70
    32
  0
VERTEX
  8
0
  5
23B5
 10
41.1714
 20
80.7990
 30
0.00000
  70
    32
  0
VERTEX
  8
0
  5
23B6
 10
41.1780
 20
80.7907
 30
0.00000
  70
    32
  0
VERTEX
  8
0
  5
23B7
 10
41.1846
 20
80.7826
 30
0.00000
  70
    32
  0
VERTEX
  8
0
  5
23B8
 10
41.1913
 20
80.7749
 30
0.00000
  70
    32
  0
VERTEX
  8
0
  5
23B9
 10
41.1979
 20
80.7674
 30
0.00000
  70
    32
  0
VERTEX
  8
0
  5
23BA
 10
41.2045
 20
80.7602
 30
0.00000
  70
    32
  0
VERTEX
  8
0
  5
23BB
 10
41.2111
 20
80.7534
 30
0.00000
  70
    32
  0
VERTEX
  8
0
  5
23BC
 10
41.2177
 20
80.7468
 30
0.00000
  70
    32
  0
VERTEX
  8
0
  5
23BD
 10
41.2243
 20
80.7405
 30
0.00000
  70
    32
  0
VERTEX
  8
0
  5
23BE
 10
41.2309
 20
80.7345
 30
0.00000
  70
    32
  0
VERTEX
  8
0
  5
23BF
 10
41.2376
 20
80.7288
 30
0.00000
  70
    32
  0
VERTEX
  8
0
  5
23C0
 10
41.2442
 20
80.7234
 30
0.00000
  70
    32
  0
VERTEX
  8
0
  5
23C1
 10
41.2508
 20
80.7182
 30
0.00000
  70
    32
  0
VERTEX
  8
0
  5
23C2
 10
41.2574
 20
80.7134
 30
0.00000
  70
    32
  0
VERTEX
  8
0
  5
23C3
 10
41.2640
 20
80.7089
 30
0.00000
  70
    32
  0
VERTEX
  8
0
  5
23C4
 10
41.2706
 20
80.7046
 30
0.00000
  70
    32
  0
VERTEX
  8
0
  5
23C5
 10
41.2773
 20
80.7007
 30
0.00000
  70
    32
  0
VERTEX
  8
0
  5
23C6
 10
41.2839
 20
80.6970
 30
0.00000
  70
    32
  0
VERTEX
  8
0
  5
23C7
 10
41.2905
 20
80.6937
 30
0.00000
  70
    32
  0
VERTEX
  8
0
  5
23C8
 10
41.2971
 20
80.6906
 30
0.00000
  70
    32
  0
VERTEX
  8
0
  5
23C9
 10
41.3037
 20
80.6878
 30
0.00000
  70
    32
  0
VERTEX
  8
0
  5
23CA
 10
41.3104
 20
80.6853
 30
0.00000
  70
    32
  0
VERTEX
  8
0
  5
23CB
 10
41.3170
 20
80.6831
 30
0.00000
  70
    32
  0
VERTEX
  8
0
  5
23CC
 10
41.3236
 20
80.6812
 30
0.00000
  70
    32
  0
VERTEX
  8
0
  5
23CD
 10
41.3302
 20
80.6796
 30
0.00000
  70
    32
  0
VERTEX
  8
0
  5
23CE
 10
41.3368
 20
80.6783
 30
0.00000
  70
    32
  0
VERTEX
  8
0
  5
23CF
 10
41.3435
 20
80.6773
 30
0.00000
  70
    32
  0
VERTEX
  8
0
  5
23D0
 10
41.3501
 20
80.6765
 30
0.00000
  70
    32
  0
VERTEX
  8
0
  5
23D1
 10
41.3567
 20
80.6761
 30
0.00000
  70
    32
  0
VERTEX
  8
0
  5
23D2
 10
41.3633
 20
80.6759
 30
0.00000
  70
    32
  0
SEQEND
  8
0
  5
23D3
  0
POLYLINE
  5
2201
  8
0
 10
65.3633351350748484
 20
80.6759489106628962
 30
0.0
 66
     1
 70
     8
  0
VERTEX
  8
0
  5
23D4
 10
65.3633
 20
80.6759
 30
0.00000
  70
    32
  0
VERTEX
  8
0
  5
23D5
 10
65.3700
 20
80.6761
 30
0.00000
  70
    32
  0
VERTEX
  8
0
  5
23D6
 10
65.3766
 20
80.6765
 30
0.00000
  70
    32
  0
VERTEX
  8
0
  5
23D7
 10
65.3832
 20
80.6773
 30
0.00000
  70
    32
  0
VERTEX
  8
0
  5
23D8
 10
65.3898
 20
80.6783
 30
0.00000
  70
    32
  0
VERTEX
  8
0
  5
23D9
 10
65.3964
 20
80.6796
 30
0.00000
  70
    32
  0
VERTEX
  8
0
  5
23DA
 10
65.4031
 20
80.6812
 30
0.00000
  70
    32
  0
VERTEX
  8
0
  5
23DB
 10
65.4097
 20
80.6831
 30
0.00000
  70
    32
  0
VERTEX
  8
0
  5
23DC
 10
65.4163
 20
80.6853
 30
0.00000
  70
    32
  0
VERTEX
  8
0
  5
23DD
 10
65.4229
 20
80.6878
 30
0.00000
  70
    32
  0
VERTEX
  8
0
  5
23DE
 10
65.4295
 20
80.6906
 30
0.00000
  70
    32
  0
VERTEX
  8
0
  5
23DF
 10
65.4362
 20
80.6937
 30
0.00000
  70
    32
  0
VERTEX
  8
0
  5
23E0
 10
65.4428
 20
80.6970
 30
0.00000
  70
    32
  0
VERTEX
  8
0
  5
23E1
 10
65.4494
 20
80.7007
 30
0.00000
  70
    32
  0
VERTEX
  8
0
  5
23E2
 10
65.4560
 20
80.7046
 30
0.00000
  70
    32
  0
VERTEX
  8
0
  5
23E3
 10
65.4626
 20
80.7089
 30
0.00000
  70
    32
  0
VERTEX
  8
0
  5
23E4
 10
65.4693
 20
80.7134
 30
0.00000
  70
    32
  0
VERTEX
  8
0
  5
23E5
 10
65.4759
 20
80.7182
 30
0.00000
  70
    32
  0
VERTEX
  8
0
  5
23E6
 10
65.4825
 20
80.7234
 30
0.00000
  70
    32
  0
VERTEX
  8
0
  5
23E7
 10
65.4891
 20
80.7288
 30
0.00000
  70
    32
  0
VERTEX
  8
0
  5
23E8
 10
65.4957
 20
80.7345
 30
0.00000
  70
    32
  0
VERTEX
  8
0
  5
23E9
 10
65.5023
 20
80.7405
 30
0.00000
  70
    32
  0
VERTEX
  8
0
  5
23EA
 10
65.5090
 20
80.7468
 30
0.00000
  70
    32
  0
VERTEX
  8
0
  5
23EB
 10
65.5156
 20
80.7534
 30
0.00000
  70
    32
  0
VERTEX
  8
0
  5
23EC
 10
65.5222
 20
80.7602
 30
0.00000
  70
    32
  0
VERTEX
  8
0
  5
23ED
 10
65.5288
 20
80.7674
 30
0.00000
  70
    32
  0
VERTEX
  8
0
  5
23EE
 10
65.5354
 20
80.7749
 30
0.00000
  70
    32
  0
VERTEX
  8
0
  5
23EF
 10
65.5420
 20
80.7826
 30
0.00000
  70
    32
  0
VERTEX
  8
0
  5
23F0
 10
65.5486
 20
80.7907
 30
0.00000
  70
    32
  0
VERTEX
  8
0
  5
23F1
 10
65.5553
 20
80.7990
 30
0.00000
  70
    32
  0
VERTEX
  8
0
  5
23F2
 10
65.5619
 20
80.8076
 30
0.00000
  70
    32
  0
VERTEX
  8
0
  5
23F3
 10
65.5685
 20
80.8166
 30
0.00000
  70
    32
  0
VERTEX
  8
0
  5
23F4
 10
65.5751
 20
80.8258
 30
0.00000
  70
    32
  0
VERTEX
  8
0
  5
23F5
 10
65.5817
 20
80.8353
 30
0.00000
  70
    32
  0
VERTEX
  8
0
  5
23F6
 10
65.5883
 20
80.8451
 30
0.00000
  70
    32
  0
VERTEX
  8
0
  5
23F7
 10
65.5949
 20
80.8552
 30
0.00000
  70
    32
  0
VERTEX
  8
0
  5
23F8
 10
65.6015
 20
80.8656
 30
0.00000
  70
    32
  0
VERTEX
  8
0
  5
23F9
 10
65.6081
 20
80.8762
 30
0.00000
  70
    32
  0
VERTEX
  8
0
  5
23FA
 10
65.6147
 20
80.8872
 30
0.00000
  70
    32
  0
VERTEX
  8
0
  5
23FB
 10
65.6213
 20
80.8985
 30
0.00000
  70
    32
  0
VERTEX
  8
0
  5
23FC
 10
65.6279
 20
80.9100
 30
0.00000
  70
    32
  0
VERTEX
  8
0
  5
23FD
 10
65.6345
 20
80.9219
 30
0.00000
  70
    32
  0
VERTEX
  8
0
  5
23FE
 10
65.6411
 20
80.9340
 30
0.00000
  70
    32
  0
VERTEX
  8
0
  5
23FF
 10
65.6477
 20
80.9464
 30
0.00000
  70
    32
  0
VERTEX
  8
0
  5
2400
 10
65.6543
 20
80.9591
 30
0.00000
  70
    32
  0
VERTEX
  8
0
  5
2401
 10
65.6609
 20
80.9721
 30
0.00000
  70
    32
  0
VERTEX
  8
0
  5
2402
 10
65.6675
 20
80.9855
 30
0.00000
  70
    32
  0
VERTEX
  8
0
  5
2403
 10
65.6741
 20
80.9990
 30
0.00000
  70
    32
  0
VERTEX
  8
0
  5
2404
 10
65.6807
 20
81.0129
 30
0.00000
  70
    32
  0
VERTEX
  8
0
  5
2405
 10
65.6873
 20
81.0271
 30
0.00000
  70
    32
  0
VERTEX
  8
0
  5
2406
 10
65.6939
 20
81.0416
 30
0.00000
  70
    32
  0
VERTEX
  8
0
  5
2407
 10
65.7005
 20
81.0563
 30
0.00000
  70
    32
  0
VERTEX
  8
0
  5
2408
 10
65.7070
 20
81.0714
 30
0.00000
  70
    32
  0
VERTEX
  8
0
  5
2409
 10
65.7136
 20
81.0867
 30
0.00000
  70
    32
  0
VERTEX
  8
0
  5
240A
 10
65.7202
 20
81.1024
 30
0.00000
  70
    32
  0
VERTEX
  8
0
  5
240B
 10
65.7268
 20
81.1183
 30
0.00000
  70
    32
  0
VERTEX
  8
0
  5
240C
 10
65.7334
 20
81.1345
 30
0.00000
  70
    32
  0
VERTEX
  8
0
  5
240D
 10
65.7400
 20
81.1510
 30
0.00000
  70
    32
  0
VERTEX
  8
0
  5
240E
 10
65.7465
 20
81.1678
 30
0.00000
  70
    32
  0
VERTEX
  8
0
  5
240F
 10
65.7531
 20
81.1849
 30
0.00000
  70
    32
  0
VERTEX
  8
0
  5
2410
 10
65.7597
 20
81.2023
 30
0.00000
  70
    32
  0
VERTEX
  8
0
  5
2411
 10
65.7663
 20
81.2199
 30
0.00000
  70
    32
  0
VERTEX
  8
0
  5
2412
 10
65.7728
 20
81.2379
 30
0.00000
  70
    32
  0
VERTEX
  8
0
  5
2413
 10
65.7794
 20
81.2561
 30
0.00000
  70
    32
  0
VERTEX
  8
0
  5
2414
 10
65.7860
 20
81.2747
 30
0.00000
  70
    32
  0
VERTEX
  8
0
  5
2415
 10
65.7925
 20
81.2935
 30
0.00000
  70
    32
  0
VERTEX
  8
0
  5
2416
 10
65.7991
 20
81.3126
 30
0.00000
  70
    32
  0
VERTEX
  8
0
  5
2417
 10
65.8057
 20
81.3320
 30
0.00000
  70
    32
  0
VERTEX
  8
0
  5
2418
 10
65.8122
 20
81.3517
 30
0.00000
  70
    32
  0
VERTEX
  8
0
  5
2419
 10
65.8188
 20
81.3717
 30
0.00000
  70
    32
  0
VERTEX
  8
0
  5
241A
 10
65.8254
 20
81.3920
 30
0.00000
  70
    32
  0
VERTEX
  8
0
  5
241B
 10
65.8319
 20
81.4126
 30
0.00000
  70
    32
  0
VERTEX
  8
0
  5
241C
 10
65.8385
 20
81.4334
 30
0.00000
  70
    32
  0
VERTEX
  8
0
  5
241D
 10
65.8450
 20
81.4546
 30
0.00000
  70
    32
  0
VERTEX
  8
0
  5
241E
 10
65.8516
 20
81.4760
 30
0.00000
  70
    32
  0
VERTEX
  8
0
  5
241F
 10
65.8581
 20
81.4978
 30
0.00000
  70
    32
  0
VERTEX
  8
0
  5
2420
 10
65.8647
 20
81.5198
 30
0.00000
  70
    32
  0
VERTEX
  8
0
  5
2421
 10
65.8712
 20
81.5421
 30
0.00000
  70
    32
  0
VERTEX
  8
0
  5
2422
 10
65.8778
 20
81.5647
 30
0.00000
  70
    32
  0
VERTEX
  8
0
  5
2423
 10
65.8843
 20
81.5876
 30
0.00000
  70
    32
  0
VERTEX
  8
0
  5
2424
 10
65.8908
 20
81.6108
 30
0.00000
  70
    32
  0
VERTEX
  8
0
  5
2425
 10
65.8974
 20
81.6342
 30
0.00000
  70
    32
  0
VERTEX
  8
0
  5
2426
 10
65.9039
 20
81.6580
 30
0.00000
  70
    32
  0
VERTEX
  8
0
  5
2427
 10
65.9104
 20
81.6820
 30
0.00000
  70
    32
  0
VERTEX
  8
0
  5
2428
 10
65.9170
 20
81.7064
 30
0.00000
  70
    32
  0
VERTEX
  8
0
  5
2429
 10
65.9235
 20
81.7310
 30
0.00000
  70
    32
  0
VERTEX
  8
0
  5
242A
 10
65.9300
 20
81.7559
 30
0.00000
  70
    32
  0
VERTEX
  8
0
  5
242B
 10
65.9366
 20
81.7811
 30
0.00000
  70
    32
  0
VERTEX
  8
0
  5
242C
 10
65.9431
 20
81.8066
 30
0.00000
  70
    32
  0
VERTEX
  8
0
  5
242D
 10
65.9496
 20
81.8323
 30
0.00000
  70
    32
  0
VERTEX
  8
0
  5
242E
 10
65.9561
 20
81.8584
 30
0.00000
  70
    32
  0
VERTEX
  8
0
  5
242F
 10
65.9626
 20
81.8848
 30
0.00000
  70
    32
  0
VERTEX
  8
0
  5
2430
 10
65.9691
 20
81.9114
 30
0.00000
  70
    32
  0
VERTEX
  8
0
  5
2431
 10
65.9757
 20
81.9383
 30
0.00000
  70
    32
  0
VERTEX
  8
0
  5
2432
 10
65.9822
 20
81.9655
 30
0.00000
  70
    32
  0
VERTEX
  8
0
  5
2433
 10
65.9887
 20
81.9930
 30
0.00000
  70
    32
  0
VERTEX
  8
0
  5
2434
 10
65.9952
 20
82.0208
 30
0.00000
  70
    32
  0
VERTEX
  8
0
  5
2435
 10
66.0017
 20
82.0489
 30
0.00000
  70
    32
  0
VERTEX
  8
0
  5
2436
 10
66.0082
 20
82.0773
 30
0.00000
  70
    32
  0
VERTEX
  8
0
  5
2437
 10
66.0147
 20
82.1059
 30
0.00000
  70
    32
  0
VERTEX
  8
0
  5
2438
 10
66.0212
 20
82.1349
 30
0.00000
  70
    32
  0
VERTEX
  8
0
  5
2439
 10
66.0277
 20
82.1641
 30
0.00000
  70
    32
  0
VERTEX
  8
0
  5
243A
 10
66.0341
 20
82.1936
 30
0.00000
  70
    32
  0
VERTEX
  8
0
  5
243B
 10
66.0406
 20
82.2234
 30
0.00000
  70
    32
  0
VERTEX
  8
0
  5
243C
 10
66.0471
 20
82.2535
 30
0.00000
  70
    32
  0
VERTEX
  8
0
  5
243D
 10
66.0536
 20
82.2839
 30
0.00000
  70
    32
  0
VERTEX
  8
0
  5
243E
 10
66.0601
 20
82.3145
 30
0.00000
  70
    32
  0
VERTEX
  8
0
  5
243F
 10
66.0666
 20
82.3455
 30
0.00000
  70
    32
  0
VERTEX
  8
0
  5
2440
 10
66.0730
 20
82.3767
 30
0.00000
  70
    32
  0
VERTEX
  8
0
  5
2441
 10
66.0795
 20
82.4082
 30
0.00000
  70
    32
  0
VERTEX
  8
0
  5
2442
 10
66.0860
 20
82.4400
 30
0.00000
  70
    32
  0
VERTEX
  8
0
  5
2443
 10
66.0924
 20
82.4721
 30
0.00000
  70
    32
  0
VERTEX
  8
0
  5
2444
 10
66.0989
 20
82.5045
 30
0.00000
  70
    32
  0
VERTEX
  8
0
  5
2445
 10
66.1053
 20
82.5372
 30
0.00000
  70
    32
  0
VERTEX
  8
0
  5
2446
 10
66.1118
 20
82.5701
 30
0.00000
  70
    32
  0
VERTEX
  8
0
  5
2447
 10
66.1183
 20
82.6033
 30
0.00000
  70
    32
  0
VERTEX
  8
0
  5
2448
 10
66.1247
 20
82.6369
 30
0.00000
  70
    32
  0
VERTEX
  8
0
  5
2449
 10
66.1311
 20
82.6707
 30
0.00000
  70
    32
  0
VERTEX
  8
0
  5
244A
 10
66.1376
 20
82.7048
 30
0.00000
  70
    32
  0
VERTEX
  8
0
  5
244B
 10
66.1440
 20
82.7391
 30
0.00000
  70
    32
  0
VERTEX
  8
0
  5
244C
 10
66.1505
 20
82.7738
 30
0.00000
  70
    32
  0
VERTEX
  8
0
  5
244D
 10
66.1569
 20
82.8087
 30
0.00000
  70
    32
  0
VERTEX
  8
0
  5
244E
 10
66.1633
 20
82.8440
 30
0.00000
  70
    32
  0
VERTEX
  8
0
  5
244F
 10
66.1698
 20
82.8795
 30
0.00000
  70
    32
  0
VERTEX
  8
0
  5
2450
 10
66.1762
 20
82.9153
 30
0.00000
  70
    32
  0
VERTEX
  8
0
  5
2451
 10
66.1826
 20
82.9513
 30
0.00000
  70
    32
  0
VERTEX
  8
0
  5
2452
 10
66.1890
 20
82.9877
 30
0.00000
  70
    32
  0
VERTEX
  8
0
  5
2453
 10
66.1954
 20
83.0243
 30
0.00000
  70
    32
  0
VERTEX
  8
0
  5
2454
 10
66.2019
 20
83.0613
 30
0.00000
  70
    32
  0
SEQEND
  8
0
  5
2455
  0
POLYLINE
  5
2202
  8
0
 10
40.7917619541325678
 20
73.2416395568472183
 30
0.0
 66
     1
 70
     8
  0
VERTEX
  8
0
  5
2456
 10
40.7918
 20
73.2416
 30
0.00000
  70
    32
  0
VERTEX
  8
0
  5
2457
 10
40.7962
 20
73.2260
 30
0.00000
  70
    32
  0
VERTEX
  8
0
  5
2458
 10
40.8006
 20
73.2105
 30
0.00000
  70
    32
  0
VERTEX
  8
0
  5
2459
 10
40.8050
 20
73.1952
 30
0.00000
  70
    32
  0
VERTEX
  8
0
  5
245A
 10
40.8095
 20
73.1800
 30
0.00000
  70
    32
  0
VERTEX
  8
0
  5
245B
 10
40.8139
 20
73.1650
 30
0.00000
  70
    32
  0
VERTEX
  8
0
  5
245C
 10
40.8183
 20
73.1501
 30
0.00000
  70
    32
  0
VERTEX
  8
0
  5
245D
 10
40.8228
 20
73.1354
 30
0.00000
  70
    32
  0
VERTEX
  8
0
  5
245E
 10
40.8272
 20
73.1208
 30
0.00000
  70
    32
  0
VERTEX
  8
0
  5
245F
 10
40.8316
 20
73.1064
 30
0.00000
  70
    32
  0
VERTEX
  8
0
  5
2460
 10
40.8361
 20
73.0921
 30
0.00000
  70
    32
  0
VERTEX
  8
0
  5
2461
 10
40.8405
 20
73.0780
 30
0.00000
  70
    32
  0
VERTEX
  8
0
  5
2462
 10
40.8449
 20
73.0641
 30
0.00000
  70
    32
  0
VERTEX
  8
0
  5
2463
 10
40.8494
 20
73.0503
 30
0.00000
  70
    32
  0
VERTEX
  8
0
  5
2464
 10
40.8538
 20
73.0366
 30
0.00000
  70
    32
  0
VERTEX
  8
0
  5
2465
 10
40.8583
 20
73.0231
 30
0.00000
  70
    32
  0
VERTEX
  8
0
  5
2466
 10
40.8627
 20
73.0097
 30
0.00000
  70
    32
  0
VERTEX
  8
0
  5
2467
 10
40.8671
 20
72.9966
 30
0.00000
  70
    32
  0
VERTEX
  8
0
  5
2468
 10
40.8716
 20
72.9835
 30
0.00000
  70
    32
  0
VERTEX
  8
0
  5
2469
 10
40.8760
 20
72.9706
 30
0.00000
  70
    32
  0
VERTEX
  8
0
  5
246A
 10
40.8805
 20
72.9579
 30
0.00000
  70
    32
  0
VERTEX
  8
0
  5
246B
 10
40.8849
 20
72.9453
 30
0.00000
  70
    32
  0
VERTEX
  8
0
  5
246C
 10
40.8894
 20
72.9329
 30
0.00000
  70
    32
  0
VERTEX
  8
0
  5
246D
 10
40.8938
 20
72.9206
 30
0.00000
  70
    32
  0
VERTEX
  8
0
  5
246E
 10
40.8982
 20
72.9085
 30
0.00000
  70
    32
  0
VERTEX
  8
0
  5
246F
 10
40.9027
 20
72.8965
 30
0.00000
  70
    32
  0
VERTEX
  8
0
  5
2470
 10
40.9071
 20
72.8847
 30
0.00000
  70
    32
  0
VERTEX
  8
0
  5
2471
 10
40.9116
 20
72.8730
 30
0.00000
  70
    32
  0
VERTEX
  8
0
  5
2472
 10
40.9160
 20
72.8615
 30
0.00000
  70
    32
  0
VERTEX
  8
0
  5
2473
 10
40.9205
 20
72.8501
 30
0.00000
  70
    32
  0
VERTEX
  8
0
  5
2474
 10
40.9250
 20
72.8389
 30
0.00000
  70
    32
  0
VERTEX
  8
0
  5
2475
 10
40.9294
 20
72.8279
 30
0.00000
  70
    32
  0
VERTEX
  8
0
  5
2476
 10
40.9339
 20
72.8170
 30
0.00000
  70
    32
  0
VERTEX
  8
0
  5
2477
 10
40.9383
 20
72.8062
 30
0.00000
  70
    32
  0
VERTEX
  8
0
  5
2478
 10
40.9428
 20
72.7956
 30
0.00000
  70
    32
  0
VERTEX
  8
0
  5
2479
 10
40.9472
 20
72.7852
 30
0.00000
  70
    32
  0
VERTEX
  8
0
  5
247A
 10
40.9517
 20
72.7749
 30
0.00000
  70
    32
  0
VERTEX
  8
0
  5
247B
 10
40.9561
 20
72.7648
 30
0.00000
  70
    32
  0
VERTEX
  8
0
  5
247C
 10
40.9606
 20
72.7548
 30
0.00000
  70
    32
  0
VERTEX
  8
0
  5
247D
 10
40.9651
 20
72.7450
 30
0.00000
  70
    32
  0
VERTEX
  8
0
  5
247E
 10
40.9695
 20
72.7353
 30
0.00000
  70
    32
  0
VERTEX
  8
0
  5
247F
 10
40.9740
 20
72.7258
 30
0.00000
  70
    32
  0
VERTEX
  8
0
  5
2480
 10
40.9784
 20
72.7164
 30
0.00000
  70
    32
  0
VERTEX
  8
0
  5
2481
 10
40.9829
 20
72.7072
 30
0.00000
  70
    32
  0
VERTEX
  8
0
  5
2482
 10
40.9874
 20
72.6981
 30
0.00000
  70
    32
  0
VERTEX
  8
0
  5
2483
 10
40.9918
 20
72.6892
 30
0.00000
  70
    32
  0
VERTEX
  8
0
  5
2484
 10
40.9963
 20
72.6805
 30
0.00000
  70
    32
  0
VERTEX
  8
0
  5
2485
 10
41.0007
 20
72.6719
 30
0.00000
  70
    32
  0
VERTEX
  8
0
  5
2486
 10
41.0052
 20
72.6634
 30
0.00000
  70
    32
  0
VERTEX
  8
0
  5
2487
 10
41.0097
 20
72.6551
 30
0.00000
  70
    32
  0
VERTEX
  8
0
  5
2488
 10
41.0141
 20
72.6470
 30
0.00000
  70
    32
  0
VERTEX
  8
0
  5
2489
 10
41.0186
 20
72.6390
 30
0.00000
  70
    32
  0
VERTEX
  8
0
  5
248A
 10
41.0231
 20
72.6312
 30
0.00000
  70
    32
  0
VERTEX
  8
0
  5
248B
 10
41.0275
 20
72.6235
 30
0.00000
  70
    32
  0
VERTEX
  8
0
  5
248C
 10
41.0320
 20
72.6160
 30
0.00000
  70
    32
  0
VERTEX
  8
0
  5
248D
 10
41.0365
 20
72.6086
 30
0.00000
  70
    32
  0
VERTEX
  8
0
  5
248E
 10
41.0409
 20
72.6014
 30
0.00000
  70
    32
  0
VERTEX
  8
0
  5
248F
 10
41.0454
 20
72.5944
 30
0.00000
  70
    32
  0
VERTEX
  8
0
  5
2490
 10
41.0499
 20
72.5874
 30
0.00000
  70
    32
  0
VERTEX
  8
0
  5
2491
 10
41.0544
 20
72.5807
 30
0.00000
  70
    32
  0
VERTEX
  8
0
  5
2492
 10
41.0588
 20
72.5741
 30
0.00000
  70
    32
  0
VERTEX
  8
0
  5
2493
 10
41.0633
 20
72.5676
 30
0.00000
  70
    32
  0
VERTEX
  8
0
  5
2494
 10
41.0678
 20
72.5614
 30
0.00000
  70
    32
  0
VERTEX
  8
0
  5
2495
 10
41.0722
 20
72.5552
 30
0.00000
  70
    32
  0
VERTEX
  8
0
  5
2496
 10
41.0767
 20
72.5492
 30
0.00000
  70
    32
  0
VERTEX
  8
0
  5
2497
 10
41.0812
 20
72.5434
 30
0.00000
  70
    32
  0
VERTEX
  8
0
  5
2498
 10
41.0857
 20
72.5377
 30
0.00000
  70
    32
  0
VERTEX
  8
0
  5
2499
 10
41.0901
 20
72.5322
 30
0.00000
  70
    32
  0
VERTEX
  8
0
  5
249A
 10
41.0946
 20
72.5268
 30
0.00000
  70
    32
  0
VERTEX
  8
0
  5
249B
 10
41.0991
 20
72.5216
 30
0.00000
  70
    32
  0
VERTEX
  8
0
  5
249C
 10
41.1036
 20
72.5166
 30
0.00000
  70
    32
  0
VERTEX
  8
0
  5
249D
 10
41.1080
 20
72.5116
 30
0.00000
  70
    32
  0
VERTEX
  8
0
  5
249E
 10
41.1125
 20
72.5069
 30
0.00000
  70
    32
  0
VERTEX
  8
0
  5
249F
 10
41.1170
 20
72.5023
 30
0.00000
  70
    32
  0
VERTEX
  8
0
  5
24A0
 10
41.1215
 20
72.4979
 30
0.00000
  70
    32
  0
VERTEX
  8
0
  5
24A1
 10
41.1259
 20
72.4936
 30
0.00000
  70
    32
  0
VERTEX
  8
0
  5
24A2
 10
41.1304
 20
72.4894
 30
0.00000
  70
    32
  0
VERTEX
  8
0
  5
24A3
 10
41.1349
 20
72.4854
 30
0.00000
  70
    32
  0
VERTEX
  8
0
  5
24A4
 10
41.1394
 20
72.4816
 30
0.00000
  70
    32
  0
VERTEX
  8
0
  5
24A5
 10
41.1438
 20
72.4779
 30
0.00000
  70
    32
  0
VERTEX
  8
0
  5
24A6
 10
41.1483
 20
72.4744
 30
0.00000
  70
    32
  0
VERTEX
  8
0
  5
24A7
 10
41.1528
 20
72.4711
 30
0.00000
  70
    32
  0
VERTEX
  8
0
  5
24A8
 10
41.1573
 20
72.4678
 30
0.00000
  70
    32
  0
VERTEX
  8
0
  5
24A9
 10
41.1618
 20
72.4648
 30
0.00000
  70
    32
  0
VERTEX
  8
0
  5
24AA
 10
41.1662
 20
72.4619
 30
0.00000
  70
    32
  0
VERTEX
  8
0
  5
24AB
 10
41.1707
 20
72.4591
 30
0.00000
  70
    32
  0
VERTEX
  8
0
  5
24AC
 10
41.1752
 20
72.4565
 30
0.00000
  70
    32
  0
VERTEX
  8
0
  5
24AD
 10
41.1797
 20
72.4541
 30
0.00000
  70
    32
  0
VERTEX
  8
0
  5
24AE
 10
41.1842
 20
72.4518
 30
0.00000
  70
    32
  0
VERTEX
  8
0
  5
24AF
 10
41.1886
 20
72.4497
 30
0.00000
  70
    32
  0
VERTEX
  8
0
  5
24B0
 10
41.1931
 20
72.4477
 30
0.00000
  70
    32
  0
VERTEX
  8
0
  5
24B1
 10
41.1976
 20
72.4459
 30
0.00000
  70
    32
  0
VERTEX
  8
0
  5
24B2
 10
41.2021
 20
72.4442
 30
0.00000
  70
    32
  0
VERTEX
  8
0
  5
24B3
 10
41.2066
 20
72.4427
 30
0.00000
  70
    32
  0
VERTEX
  8
0
  5
24B4
 10
41.2110
 20
72.4413
 30
0.00000
  70
    32
  0
VERTEX
  8
0
  5
24B5
 10
41.2155
 20
72.4401
 30
0.00000
  70
    32
  0
VERTEX
  8
0
  5
24B6
 10
41.2200
 20
72.4390
 30
0.00000
  70
    32
  0
VERTEX
  8
0
  5
24B7
 10
41.2245
 20
72.4381
 30
0.00000
  70
    32
  0
VERTEX
  8
0
  5
24B8
 10
41.2290
 20
72.4374
 30
0.00000
  70
    32
  0
VERTEX
  8
0
  5
24B9
 10
41.2334
 20
72.4368
 30
0.00000
  70
    32
  0
VERTEX
  8
0
  5
24BA
 10
41.2379
 20
72.4364
 30
0.00000
  70
    32
  0
VERTEX
  8
0
  5
24BB
 10
41.2424
 20
72.4361
 30
0.00000
  70
    32
  0
VERTEX
  8
0
  5
24BC
 10
41.2469
 20
72.4360
 30
0.00000
  70
    32
  0
VERTEX
  8
0
  5
24BD
 10
41.2514
 20
72.4360
 30
0.00000
  70
    32
  0
VERTEX
  8
0
  5
24BE
 10
41.2558
 20
72.4362
 30
0.00000
  70
    32
  0
VERTEX
  8
0
  5
24BF
 10
41.2603
 20
72.4365
 30
0.00000
  70
    32
  0
VERTEX
  8
0
  5
24C0
 10
41.2648
 20
72.4370
 30
0.00000
  70
    32
  0
VERTEX
  8
0
  5
24C1
 10
41.2693
 20
72.4376
 30
0.00000
  70
    32
  0
VERTEX
  8
0
  5
24C2
 10
41.2738
 20
72.4384
 30
0.00000
  70
    32
  0
VERTEX
  8
0
  5
24C3
 10
41.2782
 20
72.4394
 30
0.00000
  70
    32
  0
VERTEX
  8
0
  5
24C4
 10
41.2827
 20
72.4405
 30
0.00000
  70
    32
  0
VERTEX
  8
0
  5
24C5
 10
41.2872
 20
72.4417
 30
0.00000
  70
    32
  0
VERTEX
  8
0
  5
24C6
 10
41.2917
 20
72.4431
 30
0.00000
  70
    32
  0
VERTEX
  8
0
  5
24C7
 10
41.2962
 20
72.4447
 30
0.00000
  70
    32
  0
VERTEX
  8
0
  5
24C8
 10
41.3006
 20
72.4464
 30
0.00000
  70
    32
  0
VERTEX
  8
0
  5
24C9
 10
41.3051
 20
72.4483
 30
0.00000
  70
    32
  0
VERTEX
  8
0
  5
24CA
 10
41.3096
 20
72.4503
 30
0.00000
  70
    32
  0
VERTEX
  8
0
  5
24CB
 10
41.3141
 20
72.4525
 30
0.00000
  70
    32
  0
VERTEX
  8
0
  5
24CC
 10
41.3186
 20
72.4549
 30
0.00000
  70
    32
  0
VERTEX
  8
0
  5
24CD
 10
41.3230
 20
72.4573
 30
0.00000
  70
    32
  0
VERTEX
  8
0
  5
24CE
 10
41.3275
 20
72.4600
 30
0.00000
  70
    32
  0
VERTEX
  8
0
  5
24CF
 10
41.3320
 20
72.4628
 30
0.00000
  70
    32
  0
VERTEX
  8
0
  5
24D0
 10
41.3365
 20
72.4657
 30
0.00000
  70
    32
  0
VERTEX
  8
0
  5
24D1
 10
41.3409
 20
72.4688
 30
0.00000
  70
    32
  0
VERTEX
  8
0
  5
24D2
 10
41.3454
 20
72.4721
 30
0.00000
  70
    32
  0
VERTEX
  8
0
  5
24D3
 10
41.3499
 20
72.4755
 30
0.00000
  70
    32
  0
VERTEX
  8
0
  5
24D4
 10
41.3544
 20
72.4791
 30
0.00000
  70
    32
  0
VERTEX
  8
0
  5
24D5
 10
41.3589
 20
72.4828
 30
0.00000
  70
    32
  0
VERTEX
  8
0
  5
24D6
 10
41.3633
 20
72.4867
 30
0.00000
  70
    32
  0
SEQEND
  8
0
  5
24D7
  0
POLYLINE
  5
2203
  8
0
 10
65.3633351350748626
 20
72.4866975698518132
 30
0.0
 66
     1
 70
     8
  0
VERTEX
  8
0
  5
24D8
 10
65.3633
 20
72.4867
 30
0.00000
  70
    32
  0
VERTEX
  8
0
  5
24D9
 10
65.3678
 20
72.4828
 30
0.00000
  70
    32
  0
VERTEX
  8
0
  5
24DA
 10
65.3723
 20
72.4791
 30
0.00000
  70
    32
  0
VERTEX
  8
0
  5
24DB
 10
65.3768
 20
72.4755
 30
0.00000
  70
    32
  0
VERTEX
  8
0
  5
24DC
 10
65.3812
 20
72.4721
 30
0.00000
  70
    32
  0
VERTEX
  8
0
  5
24DD
 10
65.3857
 20
72.4688
 30
0.00000
  70
    32
  0
VERTEX
  8
0
  5
24DE
 10
65.3902
 20
72.4657
 30
0.00000
  70
    32
  0
VERTEX
  8
0
  5
24DF
 10
65.3947
 20
72.4628
 30
0.00000
  70
    32
  0
VERTEX
  8
0
  5
24E0
 10
65.3992
 20
72.4600
 30
0.00000
  70
    32
  0
VERTEX
  8
0
  5
24E1
 10
65.4036
 20
72.4573
 30
0.00000
  70
    32
  0
VERTEX
  8
0
  5
24E2
 10
65.4081
 20
72.4549
 30
0.00000
  70
    32
  0
VERTEX
  8
0
  5
24E3
 10
65.4126
 20
72.4525
 30
0.00000
  70
    32
  0
VERTEX
  8
0
  5
24E4
 10
65.4171
 20
72.4503
 30
0.00000
  70
    32
  0
VERTEX
  8
0
  5
24E5
 10
65.4216
 20
72.4483
 30
0.00000
  70
    32
  0
VERTEX
  8
0
  5
24E6
 10
65.4260
 20
72.4464
 30
0.00000
  70
    32
  0
VERTEX
  8
0
  5
24E7
 10
65.4305
 20
72.4447
 30
0.00000
  70
    32
  0
VERTEX
  8
0
  5
24E8
 10
65.4350
 20
72.4431
 30
0.00000
  70
    32
  0
VERTEX
  8
0
  5
24E9
 10
65.4395
 20
72.4417
 30
0.00000
  70
    32
  0
VERTEX
  8
0
  5
24EA
 10
65.4440
 20
72.4405
 30
0.00000
  70
    32
  0
VERTEX
  8
0
  5
24EB
 10
65.4484
 20
72.4394
 30
0.00000
  70
    32
  0
VERTEX
  8
0
  5
24EC
 10
65.4529
 20
72.4384
 30
0.00000
  70
    32
  0
VERTEX
  8
0
  5
24ED
 10
65.4574
 20
72.4376
 30
0.00000
  70
    32
  0
VERTEX
  8
0
  5
24EE
 10
65.4619
 20
72.4370
 30
0.00000
  70
    32
  0
VERTEX
  8
0
  5
24EF
 10
65.4664
 20
72.4365
 30
0.00000
  70
    32
  0
VERTEX
  8
0
  5
24F0
 10
65.4708
 20
72.4362
 30
0.00000
  70
    32
  0
VERTEX
  8
0
  5
24F1
 10
65.4753
 20
72.4360
 30
0.00000
  70
    32
  0
VERTEX
  8
0
  5
24F2
 10
65.4798
 20
72.4360
 30
0.00000
  70
    32
  0
VERTEX
  8
0
  5
24F3
 10
65.4843
 20
72.4361
 30
0.00000
  70
    32
  0
VERTEX
  8
0
  5
24F4
 10
65.4888
 20
72.4364
 30
0.00000
  70
    32
  0
VERTEX
  8
0
  5
24F5
 10
65.4932
 20
72.4368
 30
0.00000
  70
    32
  0
VERTEX
  8
0
  5
24F6
 10
65.4977
 20
72.4374
 30
0.00000
  70
    32
  0
VERTEX
  8
0
  5
24F7
 10
65.5022
 20
72.4381
 30
0.00000
  70
    32
  0
VERTEX
  8
0
  5
24F8
 10
65.5067
 20
72.4390
 30
0.00000
  70
    32
  0
VERTEX
  8
0
  5
24F9
 10
65.5112
 20
72.4401
 30
0.00000
  70
    32
  0
VERTEX
  8
0
  5
24FA
 10
65.5156
 20
72.4413
 30
0.00000
  70
    32
  0
VERTEX
  8
0
  5
24FB
 10
65.5201
 20
72.4427
 30
0.00000
  70
    32
  0
VERTEX
  8
0
  5
24FC
 10
65.5246
 20
72.4442
 30
0.00000
  70
    32
  0
VERTEX
  8
0
  5
24FD
 10
65.5291
 20
72.4459
 30
0.00000
  70
    32
  0
VERTEX
  8
0
  5
24FE
 10
65.5336
 20
72.4477
 30
0.00000
  70
    32
  0
VERTEX
  8
0
  5
24FF
 10
65.5380
 20
72.4497
 30
0.00000
  70
    32
  0
VERTEX
  8
0
  5
2500
 10
65.5425
 20
72.4518
 30
0.00000
  70
    32
  0
VERTEX
  8
0
  5
2501
 10
65.5470
 20
72.4541
 30
0.00000
  70
    32
  0
VERTEX
  8
0
  5
2502
 10
65.5515
 20
72.4565
 30
0.00000
  70
    32
  0
VERTEX
  8
0
  5
2503
 10
65.5560
 20
72.4591
 30
0.00000
  70
    32
  0
VERTEX
  8
0
  5
2504
 10
65.5604
 20
72.4619
 30
0.00000
  70
    32
  0
VERTEX
  8
0
  5
2505
 10
65.5649
 20
72.4648
 30
0.00000
  70
    32
  0
VERTEX
  8
0
  5
2506
 10
65.5694
 20
72.4678
 30
0.00000
  70
    32
  0
VERTEX
  8
0
  5
2507
 10
65.5739
 20
72.4711
 30
0.00000
  70
    32
  0
VERTEX
  8
0
  5
2508
 10
65.5783
 20
72.4744
 30
0.00000
  70
    32
  0
VERTEX
  8
0
  5
2509
 10
65.5828
 20
72.4779
 30
0.00000
  70
    32
  0
VERTEX
  8
0
  5
250A
 10
65.5873
 20
72.4816
 30
0.00000
  70
    32
  0
VERTEX
  8
0
  5
250B
 10
65.5918
 20
72.4854
 30
0.00000
  70
    32
  0
VERTEX
  8
0
  5
250C
 10
65.5963
 20
72.4894
 30
0.00000
  70
    32
  0
VERTEX
  8
0
  5
250D
 10
65.6007
 20
72.4936
 30
0.00000
  70
    32
  0
VERTEX
  8
0
  5
250E
 10
65.6052
 20
72.4979
 30
0.00000
  70
    32
  0
VERTEX
  8
0
  5
250F
 10
65.6097
 20
72.5023
 30
0.00000
  70
    32
  0
VERTEX
  8
0
  5
2510
 10
65.6142
 20
72.5069
 30
0.00000
  70
    32
  0
VERTEX
  8
0
  5
2511
 10
65.6186
 20
72.5116
 30
0.00000
  70
    32
  0
VERTEX
  8
0
  5
2512
 10
65.6231
 20
72.5166
 30
0.00000
  70
    32
  0
VERTEX
  8
0
  5
2513
 10
65.6276
 20
72.5216
 30
0.00000
  70
    32
  0
VERTEX
  8
0
  5
2514
 10
65.6321
 20
72.5268
 30
0.00000
  70
    32
  0
VERTEX
  8
0
  5
2515
 10
65.6365
 20
72.5322
 30
0.00000
  70
    32
  0
VERTEX
  8
0
  5
2516
 10
65.6410
 20
72.5377
 30
0.00000
  70
    32
  0
VERTEX
  8
0
  5
2517
 10
65.6455
 20
72.5434
 30
0.00000
  70
    32
  0
VERTEX
  8
0
  5
2518
 10
65.6500
 20
72.5492
 30
0.00000
  70
    32
  0
VERTEX
  8
0
  5
2519
 10
65.6544
 20
72.5552
 30
0.00000
  70
    32
  0
VERTEX
  8
0
  5
251A
 10
65.6589
 20
72.5614
 30
0.00000
  70
    32
  0
VERTEX
  8
0
  5
251B
 10
65.6634
 20
72.5676
 30
0.00000
  70
    32
  0
VERTEX
  8
0
  5
251C
 10
65.6678
 20
72.5741
 30
0.00000
  70
    32
  0
VERTEX
  8
0
  5
251D
 10
65.6723
 20
72.5807
 30
0.00000
  70
    32
  0
VERTEX
  8
0
  5
251E
 10
65.6768
 20
72.5874
 30
0.00000
  70
    32
  0
VERTEX
  8
0
  5
251F
 10
65.6813
 20
72.5944
 30
0.00000
  70
    32
  0
VERTEX
  8
0
  5
2520
 10
65.6857
 20
72.6014
 30
0.00000
  70
    32
  0
VERTEX
  8
0
  5
2521
 10
65.6902
 20
72.6086
 30
0.00000
  70
    32
  0
VERTEX
  8
0
  5
2522
 10
65.6947
 20
72.6160
 30
0.00000
  70
    32
  0
VERTEX
  8
0
  5
2523
 10
65.6991
 20
72.6235
 30
0.00000
  70
    32
  0
VERTEX
  8
0
  5
2524
 10
65.7036
 20
72.6312
 30
0.00000
  70
    32
  0
VERTEX
  8
0
  5
2525
 10
65.7081
 20
72.6390
 30
0.00000
  70
    32
  0
VERTEX
  8
0
  5
2526
 10
65.7125
 20
72.6470
 30
0.00000
  70
    32
  0
VERTEX
  8
0
  5
2527
 10
65.7170
 20
72.6551
 30
0.00000
  70
    32
  0
VERTEX
  8
0
  5
2528
 10
65.7215
 20
72.6634
 30
0.00000
  70
    32
  0
VERTEX
  8
0
  5
2529
 10
65.7259
 20
72.6719
 30
0.00000
  70
    32
  0
VERTEX
  8
0
  5
252A
 10
65.7304
 20
72.6805
 30
0.00000
  70
    32
  0
VERTEX
  8
0
  5
252B
 10
65.7348
 20
72.6892
 30
0.00000
  70
    32
  0
VERTEX
  8
0
  5
252C
 10
65.7393
 20
72.6981
 30
0.00000
  70
    32
  0
VERTEX
  8
0
  5
252D
 10
65.7438
 20
72.7072
 30
0.00000
  70
    32
  0
VERTEX
  8
0
  5
252E
 10
65.7482
 20
72.7164
 30
0.00000
  70
    32
  0
VERTEX
  8
0
  5
252F
 10
65.7527
 20
72.7258
 30
0.00000
  70
    32
  0
VERTEX
  8
0
  5
2530
 10
65.7572
 20
72.7353
 30
0.00000
  70
    32
  0
VERTEX
  8
0
  5
2531
 10
65.7616
 20
72.7450
 30
0.00000
  70
    32
  0
VERTEX
  8
0
  5
2532
 10
65.7661
 20
72.7548
 30
0.00000
  70
    32
  0
VERTEX
  8
0
  5
2533
 10
65.7705
 20
72.7648
 30
0.00000
  70
    32
  0
VERTEX
  8
0
  5
2534
 10
65.7750
 20
72.7749
 30
0.00000
  70
    32
  0
VERTEX
  8
0
  5
2535
 10
65.7794
 20
72.7852
 30
0.00000
  70
    32
  0
VERTEX
  8
0
  5
2536
 10
65.7839
 20
72.7956
 30
0.00000
  70
    32
  0
VERTEX
  8
0
  5
2537
 10
65.7884
 20
72.8062
 30
0.00000
  70
    32
  0
VERTEX
  8
0
  5
2538
 10
65.7928
 20
72.8170
 30
0.00000
  70
    32
  0
VERTEX
  8
0
  5
2539
 10
65.7973
 20
72.8279
 30
0.00000
  70
    32
  0
VERTEX
  8
0
  5
253A
 10
65.8017
 20
72.8389
 30
0.00000
  70
    32
  0
VERTEX
  8
0
  5
253B
 10
65.8062
 20
72.8501
 30
0.00000
  70
    32
  0
VERTEX
  8
0
  5
253C
 10
65.8106
 20
72.8615
 30
0.00000
  70
    32
  0
VERTEX
  8
0
  5
253D
 10
65.8151
 20
72.8730
 30
0.00000
  70
    32
  0
VERTEX
  8
0
  5
253E
 10
65.8195
 20
72.8847
 30
0.00000
  70
    32
  0
VERTEX
  8
0
  5
253F
 10
65.8240
 20
72.8965
 30
0.00000
  70
    32
  0
VERTEX
  8
0
  5
2540
 10
65.8284
 20
72.9085
 30
0.00000
  70
    32
  0
VERTEX
  8
0
  5
2541
 10
65.8329
 20
72.9206
 30
0.00000
  70
    32
  0
VERTEX
  8
0
  5
2542
 10
65.8373
 20
72.9329
 30
0.00000
  70
    32
  0
VERTEX
  8
0
  5
2543
 10
65.8418
 20
72.9453
 30
0.00000
  70
    32
  0
VERTEX
  8
0
  5
2544
 10
65.8462
 20
72.9579
 30
0.00000
  70
    32
  0
VERTEX
  8
0
  5
2545
 10
65.8507
 20
72.9706
 30
0.00000
  70
    32
  0
VERTEX
  8
0
  5
2546
 10
65.8551
 20
72.9835
 30
0.00000
  70
    32
  0
VERTEX
  8
0
  5
2547
 10
65.8595
 20
72.9966
 30
0.00000
  70
    32
  0
VERTEX
  8
0
  5
2548
 10
65.8640
 20
73.0097
 30
0.00000
  70
    32
  0
VERTEX
  8
0
  5
2549
 10
65.8684
 20
73.0231
 30
0.00000
  70
    32
  0
VERTEX
  8
0
  5
254A
 10
65.8729
 20
73.0366
 30
0.00000
  70
    32
  0
VERTEX
  8
0
  5
254B
 10
65.8773
 20
73.0503
 30
0.00000
  70
    32
  0
VERTEX
  8
0
  5
254C
 10
65.8817
 20
73.0641
 30
0.00000
  70
    32
  0
VERTEX
  8
0
  5
254D
 10
65.8862
 20
73.0780
 30
0.00000
  70
    32
  0
VERTEX
  8
0
  5
254E
 10
65.8906
 20
73.0921
 30
0.00000
  70
    32
  0
VERTEX
  8
0
  5
254F
 10
65.8950
 20
73.1064
 30
0.00000
  70
    32
  0
VERTEX
  8
0
  5
2550
 10
65.8995
 20
73.1208
 30
0.00000
  70
    32
  0
VERTEX
  8
0
  5
2551
 10
65.9039
 20
73.1354
 30
0.00000
  70
    32
  0
VERTEX
  8
0
  5
2552
 10
65.9083
 20
73.1501
 30
0.00000
  70
    32
  0
VERTEX
  8
0
  5
2553
 10
65.9128
 20
73.1650
 30
0.00000
  70
    32
  0
VERTEX
  8
0
  5
2554
 10
65.9172
 20
73.1800
 30
0.00000
  70
    32
  0
VERTEX
  8
0
  5
2555
 10
65.9216
 20
73.1952
 30
0.00000
  70
    32
  0
VERTEX
  8
0
  5
2556
 10
65.9261
 20
73.2105
 30
0.00000
  70
    32
  0
VERTEX
  8
0
  5
2557
 10
65.9305
 20
73.2260
 30
0.00000
  70
    32
  0
VERTEX
  8
0
  5
2558
 10
65.9349
 20
73.2416
 30
0.00000
  70
    32
  0
SEQEND
  8
0
  5
2559
  0
POLYLINE
  5
2204
  8
0
 10
40.7917619541317791
 20
73.2416395568515952
 30
0.0
 66
     1
 70
     8
  0
VERTEX
  8
0
  5
255A
 10
40.7918
 20
73.2416
 30
0.00000
  70
    32
  0
VERTEX
  8
0
  5
255B
 10
40.7885
 20
73.2593
 30
0.00000
  70
    32
  0
VERTEX
  8
0
  5
255C
 10
40.7852
 20
73.2769
 30
0.00000
  70
    32
  0
VERTEX
  8
0
  5
255D
 10
40.7819
 20
73.2943
 30
0.00000
  70
    32
  0
VERTEX
  8
0
  5
255E
 10
40.7786
 20
73.3117
 30
0.00000
  70
    32
  0
VERTEX
  8
0
  5
255F
 10
40.7753
 20
73.3290
 30
0.00000
  70
    32
  0
VERTEX
  8
0
  5
2560
 10
40.7720
 20
73.3462
 30
0.00000
  70
    32
  0
VERTEX
  8
0
  5
2561
 10
40.7686
 20
73.3633
 30
0.00000
  70
    32
  0
VERTEX
  8
0
  5
2562
 10
40.7653
 20
73.3803
 30
0.00000
  70
    32
  0
VERTEX
  8
0
  5
2563
 10
40.7620
 20
73.3973
 30
0.00000
  70
    32
  0
VERTEX
  8
0
  5
2564
 10
40.7587
 20
73.4141
 30
0.00000
  70
    32
  0
VERTEX
  8
0
  5
2565
 10
40.7554
 20
73.4309
 30
0.00000
  70
    32
  0
VERTEX
  8
0
  5
2566
 10
40.7521
 20
73.4475
 30
0.00000
  70
    32
  0
VERTEX
  8
0
  5
2567
 10
40.7488
 20
73.4641
 30
0.00000
  70
    32
  0
VERTEX
  8
0
  5
2568
 10
40.7455
 20
73.4806
 30
0.00000
  70
    32
  0
VERTEX
  8
0
  5
2569
 10
40.7422
 20
73.4970
 30
0.00000
  70
    32
  0
VERTEX
  8
0
  5
256A
 10
40.7389
 20
73.5133
 30
0.00000
  70
    32
  0
VERTEX
  8
0
  5
256B
 10
40.7355
 20
73.5295
 30
0.00000
  70
    32
  0
VERTEX
  8
0
  5
256C
 10
40.7322
 20
73.5456
 30
0.00000
  70
    32
  0
VERTEX
  8
0
  5
256D
 10
40.7289
 20
73.5617
 30
0.00000
  70
    32
  0
VERTEX
  8
0
  5
256E
 10
40.7256
 20
73.5776
 30
0.00000
  70
    32
  0
VERTEX
  8
0
  5
256F
 10
40.7223
 20
73.5935
 30
0.00000
  70
    32
  0
VERTEX
  8
0
  5
2570
 10
40.7190
 20
73.6092
 30
0.00000
  70
    32
  0
VERTEX
  8
0
  5
2571
 10
40.7156
 20
73.6249
 30
0.00000
  70
    32
  0
VERTEX
  8
0
  5
2572
 10
40.7123
 20
73.6405
 30
0.00000
  70
    32
  0
VERTEX
  8
0
  5
2573
 10
40.7090
 20
73.6560
 30
0.00000
  70
    32
  0
VERTEX
  8
0
  5
2574
 10
40.7057
 20
73.6714
 30
0.00000
  70
    32
  0
VERTEX
  8
0
  5
2575
 10
40.7024
 20
73.6867
 30
0.00000
  70
    32
  0
VERTEX
  8
0
  5
2576
 10
40.6990
 20
73.7019
 30
0.00000
  70
    32
  0
VERTEX
  8
0
  5
2577
 10
40.6957
 20
73.7171
 30
0.00000
  70
    32
  0
VERTEX
  8
0
  5
2578
 10
40.6924
 20
73.7321
 30
0.00000
  70
    32
  0
VERTEX
  8
0
  5
2579
 10
40.6891
 20
73.7471
 30
0.00000
  70
    32
  0
VERTEX
  8
0
  5
257A
 10
40.6857
 20
73.7619
 30
0.00000
  70
    32
  0
VERTEX
  8
0
  5
257B
 10
40.6824
 20
73.7767
 30
0.00000
  70
    32
  0
VERTEX
  8
0
  5
257C
 10
40.6791
 20
73.7914
 30
0.00000
  70
    32
  0
VERTEX
  8
0
  5
257D
 10
40.6757
 20
73.8060
 30
0.00000
  70
    32
  0
VERTEX
  8
0
  5
257E
 10
40.6724
 20
73.8205
 30
0.00000
  70
    32
  0
VERTEX
  8
0
  5
257F
 10
40.6691
 20
73.8349
 30
0.00000
  70
    32
  0
VERTEX
  8
0
  5
2580
 10
40.6658
 20
73.8492
 30
0.00000
  70
    32
  0
VERTEX
  8
0
  5
2581
 10
40.6624
 20
73.8634
 30
0.00000
  70
    32
  0
VERTEX
  8
0
  5
2582
 10
40.6591
 20
73.8776
 30
0.00000
  70
    32
  0
VERTEX
  8
0
  5
2583
 10
40.6558
 20
73.8916
 30
0.00000
  70
    32
  0
VERTEX
  8
0
  5
2584
 10
40.6524
 20
73.9056
 30
0.00000
  70
    32
  0
VERTEX
  8
0
  5
2585
 10
40.6491
 20
73.9195
 30
0.00000
  70
    32
  0
VERTEX
  8
0
  5
2586
 10
40.6457
 20
73.9332
 30
0.00000
  70
    32
  0
VERTEX
  8
0
  5
2587
 10
40.6424
 20
73.9469
 30
0.00000
  70
    32
  0
VERTEX
  8
0
  5
2588
 10
40.6391
 20
73.9605
 30
0.00000
  70
    32
  0
VERTEX
  8
0
  5
2589
 10
40.6357
 20
73.9740
 30
0.00000
  70
    32
  0
VERTEX
  8
0
  5
258A
 10
40.6324
 20
73.9874
 30
0.00000
  70
    32
  0
VERTEX
  8
0
  5
258B
 10
40.6291
 20
74.0008
 30
0.00000
  70
    32
  0
VERTEX
  8
0
  5
258C
 10
40.6257
 20
74.0140
 30
0.00000
  70
    32
  0
VERTEX
  8
0
  5
258D
 10
40.6224
 20
74.0271
 30
0.00000
  70
    32
  0
VERTEX
  8
0
  5
258E
 10
40.6190
 20
74.0402
 30
0.00000
  70
    32
  0
VERTEX
  8
0
  5
258F
 10
40.6157
 20
74.0532
 30
0.00000
  70
    32
  0
VERTEX
  8
0
  5
2590
 10
40.6123
 20
74.0660
 30
0.00000
  70
    32
  0
VERTEX
  8
0
  5
2591
 10
40.6090
 20
74.0788
 30
0.00000
  70
    32
  0
VERTEX
  8
0
  5
2592
 10
40.6057
 20
74.0915
 30
0.00000
  70
    32
  0
VERTEX
  8
0
  5
2593
 10
40.6023
 20
74.1041
 30
0.00000
  70
    32
  0
VERTEX
  8
0
  5
2594
 10
40.5990
 20
74.1166
 30
0.00000
  70
    32
  0
VERTEX
  8
0
  5
2595
 10
40.5956
 20
74.1290
 30
0.00000
  70
    32
  0
VERTEX
  8
0
  5
2596
 10
40.5923
 20
74.1414
 30
0.00000
  70
    32
  0
VERTEX
  8
0
  5
2597
 10
40.5889
 20
74.1536
 30
0.00000
  70
    32
  0
VERTEX
  8
0
  5
2598
 10
40.5856
 20
74.1657
 30
0.00000
  70
    32
  0
VERTEX
  8
0
  5
2599
 10
40.5822
 20
74.1778
 30
0.00000
  70
    32
  0
VERTEX
  8
0
  5
259A
 10
40.5789
 20
74.1898
 30
0.00000
  70
    32
  0
VERTEX
  8
0
  5
259B
 10
40.5755
 20
74.2016
 30
0.00000
  70
    32
  0
VERTEX
  8
0
  5
259C
 10
40.5722
 20
74.2134
 30
0.00000
  70
    32
  0
VERTEX
  8
0
  5
259D
 10
40.5688
 20
74.2251
 30
0.00000
  70
    32
  0
VERTEX
  8
0
  5
259E
 10
40.5655
 20
74.2367
 30
0.00000
  70
    32
  0
VERTEX
  8
0
  5
259F
 10
40.5621
 20
74.2482
 30
0.00000
  70
    32
  0
VERTEX
  8
0
  5
25A0
 10
40.5588
 20
74.2596
 30
0.00000
  70
    32
  0
VERTEX
  8
0
  5
25A1
 10
40.5554
 20
74.2710
 30
0.00000
  70
    32
  0
VERTEX
  8
0
  5
25A2
 10
40.5520
 20
74.2822
 30
0.00000
  70
    32
  0
VERTEX
  8
0
  5
25A3
 10
40.5487
 20
74.2933
 30
0.00000
  70
    32
  0
VERTEX
  8
0
  5
25A4
 10
40.5453
 20
74.3044
 30
0.00000
  70
    32
  0
VERTEX
  8
0
  5
25A5
 10
40.5420
 20
74.3154
 30
0.00000
  70
    32
  0
VERTEX
  8
0
  5
25A6
 10
40.5386
 20
74.3262
 30
0.00000
  70
    32
  0
VERTEX
  8
0
  5
25A7
 10
40.5353
 20
74.3370
 30
0.00000
  70
    32
  0
VERTEX
  8
0
  5
25A8
 10
40.5319
 20
74.3477
 30
0.00000
  70
    32
  0
VERTEX
  8
0
  5
25A9
 10
40.5285
 20
74.3583
 30
0.00000
  70
    32
  0
VERTEX
  8
0
  5
25AA
 10
40.5252
 20
74.3688
 30
0.00000
  70
    32
  0
VERTEX
  8
0
  5
25AB
 10
40.5218
 20
74.3792
 30
0.00000
  70
    32
  0
VERTEX
  8
0
  5
25AC
 10
40.5185
 20
74.3895
 30
0.00000
  70
    32
  0
VERTEX
  8
0
  5
25AD
 10
40.5151
 20
74.3998
 30
0.00000
  70
    32
  0
VERTEX
  8
0
  5
25AE
 10
40.5117
 20
74.4099
 30
0.00000
  70
    32
  0
VERTEX
  8
0
  5
25AF
 10
40.5084
 20
74.4200
 30
0.00000
  70
    32
  0
VERTEX
  8
0
  5
25B0
 10
40.5050
 20
74.4299
 30
0.00000
  70
    32
  0
VERTEX
  8
0
  5
25B1
 10
40.5017
 20
74.4398
 30
0.00000
  70
    32
  0
VERTEX
  8
0
  5
25B2
 10
40.4983
 20
74.4496
 30
0.00000
  70
    32
  0
VERTEX
  8
0
  5
25B3
 10
40.4949
 20
74.4593
 30
0.00000
  70
    32
  0
VERTEX
  8
0
  5
25B4
 10
40.4916
 20
74.4688
 30
0.00000
  70
    32
  0
VERTEX
  8
0
  5
25B5
 10
40.4882
 20
74.4784
 30
0.00000
  70
    32
  0
VERTEX
  8
0
  5
25B6
 10
40.4848
 20
74.4878
 30
0.00000
  70
    32
  0
VERTEX
  8
0
  5
25B7
 10
40.4815
 20
74.4971
 30
0.00000
  70
    32
  0
VERTEX
  8
0
  5
25B8
 10
40.4781
 20
74.5063
 30
0.00000
  70
    32
  0
VERTEX
  8
0
  5
25B9
 10
40.4747
 20
74.5155
 30
0.00000
  70
    32
  0
VERTEX
  8
0
  5
25BA
 10
40.4714
 20
74.5245
 30
0.00000
  70
    32
  0
VERTEX
  8
0
  5
25BB
 10
40.4680
 20
74.5335
 30
0.00000
  70
    32
  0
VERTEX
  8
0
  5
25BC
 10
40.4646
 20
74.5423
 30
0.00000
  70
    32
  0
VERTEX
  8
0
  5
25BD
 10
40.4612
 20
74.5511
 30
0.00000
  70
    32
  0
VERTEX
  8
0
  5
25BE
 10
40.4579
 20
74.5598
 30
0.00000
  70
    32
  0
VERTEX
  8
0
  5
25BF
 10
40.4545
 20
74.5684
 30
0.00000
  70
    32
  0
VERTEX
  8
0
  5
25C0
 10
40.4511
 20
74.5769
 30
0.00000
  70
    32
  0
VERTEX
  8
0
  5
25C1
 10
40.4478
 20
74.5853
 30
0.00000
  70
    32
  0
VERTEX
  8
0
  5
25C2
 10
40.4444
 20
74.5936
 30
0.00000
  70
    32
  0
VERTEX
  8
0
  5
25C3
 10
40.4410
 20
74.6018
 30
0.00000
  70
    32
  0
VERTEX
  8
0
  5
25C4
 10
40.4376
 20
74.6099
 30
0.00000
  70
    32
  0
VERTEX
  8
0
  5
25C5
 10
40.4343
 20
74.6180
 30
0.00000
  70
    32
  0
VERTEX
  8
0
  5
25C6
 10
40.4309
 20
74.6259
 30
0.00000
  70
    32
  0
VERTEX
  8
0
  5
25C7
 10
40.4275
 20
74.6338
 30
0.00000
  70
    32
  0
VERTEX
  8
0
  5
25C8
 10
40.4241
 20
74.6415
 30
0.00000
  70
    32
  0
VERTEX
  8
0
  5
25C9
 10
40.4208
 20
74.6492
 30
0.00000
  70
    32
  0
VERTEX
  8
0
  5
25CA
 10
40.4174
 20
74.6568
 30
0.00000
  70
    32
  0
VERTEX
  8
0
  5
25CB
 10
40.4140
 20
74.6643
 30
0.00000
  70
    32
  0
VERTEX
  8
0
  5
25CC
 10
40.4106
 20
74.6717
 30
0.00000
  70
    32
  0
VERTEX
  8
0
  5
25CD
 10
40.4073
 20
74.6790
 30
0.00000
  70
    32
  0
VERTEX
  8
0
  5
25CE
 10
40.4039
 20
74.6862
 30
0.00000
  70
    32
  0
VERTEX
  8
0
  5
25CF
 10
40.4005
 20
74.6933
 30
0.00000
  70
    32
  0
VERTEX
  8
0
  5
25D0
 10
40.3971
 20
74.7004
 30
0.00000
  70
    32
  0
VERTEX
  8
0
  5
25D1
 10
40.3938
 20
74.7073
 30
0.00000
  70
    32
  0
VERTEX
  8
0
  5
25D2
 10
40.3904
 20
74.7141
 30
0.00000
  70
    32
  0
VERTEX
  8
0
  5
25D3
 10
40.3870
 20
74.7209
 30
0.00000
  70
    32
  0
VERTEX
  8
0
  5
25D4
 10
40.3836
 20
74.7276
 30
0.00000
  70
    32
  0
VERTEX
  8
0
  5
25D5
 10
40.3802
 20
74.7341
 30
0.00000
  70
    32
  0
VERTEX
  8
0
  5
25D6
 10
40.3769
 20
74.7406
 30
0.00000
  70
    32
  0
VERTEX
  8
0
  5
25D7
 10
40.3735
 20
74.7470
 30
0.00000
  70
    32
  0
VERTEX
  8
0
  5
25D8
 10
40.3701
 20
74.7533
 30
0.00000
  70
    32
  0
VERTEX
  8
0
  5
25D9
 10
40.3667
 20
74.7595
 30
0.00000
  70
    32
  0
VERTEX
  8
0
  5
25DA
 10
40.3633
 20
74.7656
 30
0.00000
  70
    32
  0
SEQEND
  8
0
  5
25DB
  0
POLYLINE
  5
2206
  8
0
 10
40.5248152426272483
 20
83.0612734530870682
 30
0.0
 66
     1
 70
     8
  0
VERTEX
  8
0
  5
25DC
 10
40.5248
 20
83.0613
 30
0.00000
  70
    32
  0
VERTEX
  8
0
  5
25DD
 10
40.5236
 20
83.0707
 30
0.00000
  70
    32
  0
VERTEX
  8
0
  5
25DE
 10
40.5223
 20
83.0802
 30
0.00000
  70
    32
  0
VERTEX
  8
0
  5
25DF
 10
40.5211
 20
83.0896
 30
0.00000
  70
    32
  0
VERTEX
  8
0
  5
25E0
 10
40.5198
 20
83.0990
 30
0.00000
  70
    32
  0
VERTEX
  8
0
  5
25E1
 10
40.5186
 20
83.1084
 30
0.00000
  70
    32
  0
VERTEX
  8
0
  5
25E2
 10
40.5173
 20
83.1178
 30
0.00000
  70
    32
  0
VERTEX
  8
0
  5
25E3
 10
40.5161
 20
83.1271
 30
0.00000
  70
    32
  0
VERTEX
  8
0
  5
25E4
 10
40.5148
 20
83.1364
 30
0.00000
  70
    32
  0
VERTEX
  8
0
  5
25E5
 10
40.5136
 20
83.1458
 30
0.00000
  70
    32
  0
VERTEX
  8
0
  5
25E6
 10
40.5123
 20
83.1550
 30
0.00000
  70
    32
  0
VERTEX
  8
0
  5
25E7
 10
40.5111
 20
83.1643
 30
0.00000
  70
    32
  0
VERTEX
  8
0
  5
25E8
 10
40.5099
 20
83.1736
 30
0.00000
  70
    32
  0
VERTEX
  8
0
  5
25E9
 10
40.5086
 20
83.1828
 30
0.00000
  70
    32
  0
VERTEX
  8
0
  5
25EA
 10
40.5074
 20
83.1920
 30
0.00000
  70
    32
  0
VERTEX
  8
0
  5
25EB
 10
40.5061
 20
83.2012
 30
0.00000
  70
    32
  0
VERTEX
  8
0
  5
25EC
 10
40.5049
 20
83.2104
 30
0.00000
  70
    32
  0
VERTEX
  8
0
  5
25ED
 10
40.5036
 20
83.2196
 30
0.00000
  70
    32
  0
VERTEX
  8
0
  5
25EE
 10
40.5024
 20
83.2288
 30
0.00000
  70
    32
  0
VERTEX
  8
0
  5
25EF
 10
40.5011
 20
83.2379
 30
0.00000
  70
    32
  0
VERTEX
  8
0
  5
25F0
 10
40.4999
 20
83.2470
 30
0.00000
  70
    32
  0
VERTEX
  8
0
  5
25F1
 10
40.4986
 20
83.2561
 30
0.00000
  70
    32
  0
VERTEX
  8
0
  5
25F2
 10
40.4974
 20
83.2652
 30
0.00000
  70
    32
  0
VERTEX
  8
0
  5
25F3
 10
40.4961
 20
83.2742
 30
0.00000
  70
    32
  0
VERTEX
  8
0
  5
25F4
 10
40.4948
 20
83.2833
 30
0.00000
  70
    32
  0
VERTEX
  8
0
  5
25F5
 10
40.4936
 20
83.2923
 30
0.00000
  70
    32
  0
VERTEX
  8
0
  5
25F6
 10
40.4923
 20
83.3013
 30
0.00000
  70
    32
  0
VERTEX
  8
0
  5
25F7
 10
40.4911
 20
83.3103
 30
0.00000
  70
    32
  0
VERTEX
  8
0
  5
25F8
 10
40.4898
 20
83.3192
 30
0.00000
  70
    32
  0
VERTEX
  8
0
  5
25F9
 10
40.4886
 20
83.3282
 30
0.00000
  70
    32
  0
VERTEX
  8
0
  5
25FA
 10
40.4873
 20
83.3371
 30
0.00000
  70
    32
  0
VERTEX
  8
0
  5
25FB
 10
40.4861
 20
83.3460
 30
0.00000
  70
    32
  0
VERTEX
  8
0
  5
25FC
 10
40.4848
 20
83.3549
 30
0.00000
  70
    32
  0
VERTEX
  8
0
  5
25FD
 10
40.4836
 20
83.3638
 30
0.00000
  70
    32
  0
VERTEX
  8
0
  5
25FE
 10
40.4823
 20
83.3727
 30
0.00000
  70
    32
  0
VERTEX
  8
0
  5
25FF
 10
40.4811
 20
83.3815
 30
0.00000
  70
    32
  0
VERTEX
  8
0
  5
2600
 10
40.4798
 20
83.3903
 30
0.00000
  70
    32
  0
VERTEX
  8
0
  5
2601
 10
40.4786
 20
83.3991
 30
0.00000
  70
    32
  0
VERTEX
  8
0
  5
2602
 10
40.4773
 20
83.4079
 30
0.00000
  70
    32
  0
VERTEX
  8
0
  5
2603
 10
40.4760
 20
83.4167
 30
0.00000
  70
    32
  0
VERTEX
  8
0
  5
2604
 10
40.4748
 20
83.4254
 30
0.00000
  70
    32
  0
VERTEX
  8
0
  5
2605
 10
40.4735
 20
83.4341
 30
0.00000
  70
    32
  0
VERTEX
  8
0
  5
2606
 10
40.4723
 20
83.4428
 30
0.00000
  70
    32
  0
VERTEX
  8
0
  5
2607
 10
40.4710
 20
83.4515
 30
0.00000
  70
    32
  0
VERTEX
  8
0
  5
2608
 10
40.4698
 20
83.4602
 30
0.00000
  70
    32
  0
VERTEX
  8
0
  5
2609
 10
40.4685
 20
83.4689
 30
0.00000
  70
    32
  0
VERTEX
  8
0
  5
260A
 10
40.4672
 20
83.4775
 30
0.00000
  70
    32
  0
VERTEX
  8
0
  5
260B
 10
40.4660
 20
83.4861
 30
0.00000
  70
    32
  0
VERTEX
  8
0
  5
260C
 10
40.4647
 20
83.4947
 30
0.00000
  70
    32
  0
VERTEX
  8
0
  5
260D
 10
40.4635
 20
83.5033
 30
0.00000
  70
    32
  0
VERTEX
  8
0
  5
260E
 10
40.4622
 20
83.5119
 30
0.00000
  70
    32
  0
VERTEX
  8
0
  5
260F
 10
40.4610
 20
83.5204
 30
0.00000
  70
    32
  0
VERTEX
  8
0
  5
2610
 10
40.4597
 20
83.5289
 30
0.00000
  70
    32
  0
VERTEX
  8
0
  5
2611
 10
40.4584
 20
83.5374
 30
0.00000
  70
    32
  0
VERTEX
  8
0
  5
2612
 10
40.4572
 20
83.5459
 30
0.00000
  70
    32
  0
VERTEX
  8
0
  5
2613
 10
40.4559
 20
83.5544
 30
0.00000
  70
    32
  0
VERTEX
  8
0
  5
2614
 10
40.4547
 20
83.5628
 30
0.00000
  70
    32
  0
VERTEX
  8
0
  5
2615
 10
40.4534
 20
83.5713
 30
0.00000
  70
    32
  0
VERTEX
  8
0
  5
2616
 10
40.4521
 20
83.5797
 30
0.00000
  70
    32
  0
VERTEX
  8
0
  5
2617
 10
40.4509
 20
83.5881
 30
0.00000
  70
    32
  0
VERTEX
  8
0
  5
2618
 10
40.4496
 20
83.5965
 30
0.00000
  70
    32
  0
VERTEX
  8
0
  5
2619
 10
40.4484
 20
83.6048
 30
0.00000
  70
    32
  0
VERTEX
  8
0
  5
261A
 10
40.4471
 20
83.6132
 30
0.00000
  70
    32
  0
VERTEX
  8
0
  5
261B
 10
40.4458
 20
83.6215
 30
0.00000
  70
    32
  0
VERTEX
  8
0
  5
261C
 10
40.4446
 20
83.6298
 30
0.00000
  70
    32
  0
VERTEX
  8
0
  5
261D
 10
40.4433
 20
83.6381
 30
0.00000
  70
    32
  0
VERTEX
  8
0
  5
261E
 10
40.4420
 20
83.6463
 30
0.00000
  70
    32
  0
VERTEX
  8
0
  5
261F
 10
40.4408
 20
83.6546
 30
0.00000
  70
    32
  0
VERTEX
  8
0
  5
2620
 10
40.4395
 20
83.6628
 30
0.00000
  70
    32
  0
VERTEX
  8
0
  5
2621
 10
40.4383
 20
83.6710
 30
0.00000
  70
    32
  0
VERTEX
  8
0
  5
2622
 10
40.4370
 20
83.6792
 30
0.00000
  70
    32
  0
VERTEX
  8
0
  5
2623
 10
40.4357
 20
83.6874
 30
0.00000
  70
    32
  0
VERTEX
  8
0
  5
2624
 10
40.4345
 20
83.6956
 30
0.00000
  70
    32
  0
VERTEX
  8
0
  5
2625
 10
40.4332
 20
83.7037
 30
0.00000
  70
    32
  0
VERTEX
  8
0
  5
2626
 10
40.4319
 20
83.7118
 30
0.00000
  70
    32
  0
VERTEX
  8
0
  5
2627
 10
40.4307
 20
83.7199
 30
0.00000
  70
    32
  0
VERTEX
  8
0
  5
2628
 10
40.4294
 20
83.7280
 30
0.00000
  70
    32
  0
VERTEX
  8
0
  5
2629
 10
40.4281
 20
83.7361
 30
0.00000
  70
    32
  0
VERTEX
  8
0
  5
262A
 10
40.4269
 20
83.7441
 30
0.00000
  70
    32
  0
VERTEX
  8
0
  5
262B
 10
40.4256
 20
83.7521
 30
0.00000
  70
    32
  0
VERTEX
  8
0
  5
262C
 10
40.4244
 20
83.7602
 30
0.00000
  70
    32
  0
VERTEX
  8
0
  5
262D
 10
40.4231
 20
83.7681
 30
0.00000
  70
    32
  0
VERTEX
  8
0
  5
262E
 10
40.4218
 20
83.7761
 30
0.00000
  70
    32
  0
VERTEX
  8
0
  5
262F
 10
40.4206
 20
83.7841
 30
0.00000
  70
    32
  0
VERTEX
  8
0
  5
2630
 10
40.4193
 20
83.7920
 30
0.00000
  70
    32
  0
VERTEX
  8
0
  5
2631
 10
40.4180
 20
83.7999
 30
0.00000
  70
    32
  0
VERTEX
  8
0
  5
2632
 10
40.4168
 20
83.8078
 30
0.00000
  70
    32
  0
VERTEX
  8
0
  5
2633
 10
40.4155
 20
83.8157
 30
0.00000
  70
    32
  0
VERTEX
  8
0
  5
2634
 10
40.4142
 20
83.8236
 30
0.00000
  70
    32
  0
VERTEX
  8
0
  5
2635
 10
40.4129
 20
83.8314
 30
0.00000
  70
    32
  0
VERTEX
  8
0
  5
2636
 10
40.4117
 20
83.8392
 30
0.00000
  70
    32
  0
VERTEX
  8
0
  5
2637
 10
40.4104
 20
83.8470
 30
0.00000
  70
    32
  0
VERTEX
  8
0
  5
2638
 10
40.4091
 20
83.8548
 30
0.00000
  70
    32
  0
VERTEX
  8
0
  5
2639
 10
40.4079
 20
83.8626
 30
0.00000
  70
    32
  0
VERTEX
  8
0
  5
263A
 10
40.4066
 20
83.8703
 30
0.00000
  70
    32
  0
VERTEX
  8
0
  5
263B
 10
40.4053
 20
83.8781
 30
0.00000
  70
    32
  0
VERTEX
  8
0
  5
263C
 10
40.4041
 20
83.8858
 30
0.00000
  70
    32
  0
VERTEX
  8
0
  5
263D
 10
40.4028
 20
83.8935
 30
0.00000
  70
    32
  0
VERTEX
  8
0
  5
263E
 10
40.4015
 20
83.9011
 30
0.00000
  70
    32
  0
VERTEX
  8
0
  5
263F
 10
40.4003
 20
83.9088
 30
0.00000
  70
    32
  0
VERTEX
  8
0
  5
2640
 10
40.3990
 20
83.9164
 30
0.00000
  70
    32
  0
VERTEX
  8
0
  5
2641
 10
40.3977
 20
83.9241
 30
0.00000
  70
    32
  0
VERTEX
  8
0
  5
2642
 10
40.3964
 20
83.9317
 30
0.00000
  70
    32
  0
VERTEX
  8
0
  5
2643
 10
40.3952
 20
83.9392
 30
0.00000
  70
    32
  0
VERTEX
  8
0
  5
2644
 10
40.3939
 20
83.9468
 30
0.00000
  70
    32
  0
VERTEX
  8
0
  5
2645
 10
40.3926
 20
83.9544
 30
0.00000
  70
    32
  0
VERTEX
  8
0
  5
2646
 10
40.3914
 20
83.9619
 30
0.00000
  70
    32
  0
VERTEX
  8
0
  5
2647
 10
40.3901
 20
83.9694
 30
0.00000
  70
    32
  0
VERTEX
  8
0
  5
2648
 10
40.3888
 20
83.9769
 30
0.00000
  70
    32
  0
VERTEX
  8
0
  5
2649
 10
40.3875
 20
83.9843
 30
0.00000
  70
    32
  0
VERTEX
  8
0
  5
264A
 10
40.3863
 20
83.9918
 30
0.00000
  70
    32
  0
VERTEX
  8
0
  5
264B
 10
40.3850
 20
83.9992
 30
0.00000
  70
    32
  0
VERTEX
  8
0
  5
264C
 10
40.3837
 20
84.0066
 30
0.00000
  70
    32
  0
VERTEX
  8
0
  5
264D
 10
40.3825
 20
84.0140
 30
0.00000
  70
    32
  0
VERTEX
  8
0
  5
264E
 10
40.3812
 20
84.0214
 30
0.00000
  70
    32
  0
VERTEX
  8
0
  5
264F
 10
40.3799
 20
84.0288
 30
0.00000
  70
    32
  0
VERTEX
  8
0
  5
2650
 10
40.3786
 20
84.0361
 30
0.00000
  70
    32
  0
VERTEX
  8
0
  5
2651
 10
40.3774
 20
84.0434
 30
0.00000
  70
    32
  0
VERTEX
  8
0
  5
2652
 10
40.3761
 20
84.0507
 30
0.00000
  70
    32
  0
VERTEX
  8
0
  5
2653
 10
40.3748
 20
84.0580
 30
0.00000
  70
    32
  0
VERTEX
  8
0
  5
2654
 10
40.3735
 20
84.0653
 30
0.00000
  70
    32
  0
VERTEX
  8
0
  5
2655
 10
40.3723
 20
84.0725
 30
0.00000
  70
    32
  0
VERTEX
  8
0
  5
2656
 10
40.3710
 20
84.0798
 30
0.00000
  70
    32
  0
VERTEX
  8
0
  5
2657
 10
40.3697
 20
84.0870
 30
0.00000
  70
    32
  0
VERTEX
  8
0
  5
2658
 10
40.3684
 20
84.0942
 30
0.00000
  70
    32
  0
VERTEX
  8
0
  5
2659
 10
40.3672
 20
84.1013
 30
0.00000
  70
    32
  0
VERTEX
  8
0
  5
265A
 10
40.3659
 20
84.1085
 30
0.00000
  70
    32
  0
VERTEX
  8
0
  5
265B
 10
40.3646
 20
84.1156
 30
0.00000
  70
    32
  0
VERTEX
  8
0
  5
265C
 10
40.3633
 20
84.1228
 30
0.00000
  70
    32
  0
SEQEND
  8
0
  5
265D
  0
POLYLINE
  5
2207
  8
0
 10
66.3633351350748342
 20
84.122752917371173
 30
0.0
 66
     1
 70
     8
  0
VERTEX
  8
0
  5
265E
 10
66.3633
 20
84.1228
 30
0.00000
  70
    32
  0
VERTEX
  8
0
  5
265F
 10
66.3621
 20
84.1156
 30
0.00000
  70
    32
  0
VERTEX
  8
0
  5
2660
 10
66.3608
 20
84.1085
 30
0.00000
  70
    32
  0
VERTEX
  8
0
  5
2661
 10
66.3595
 20
84.1013
 30
0.00000
  70
    32
  0
VERTEX
  8
0
  5
2662
 10
66.3582
 20
84.0942
 30
0.00000
  70
    32
  0
VERTEX
  8
0
  5
2663
 10
66.3570
 20
84.0870
 30
0.00000
  70
    32
  0
VERTEX
  8
0
  5
2664
 10
66.3557
 20
84.0798
 30
0.00000
  70
    32
  0
VERTEX
  8
0
  5
2665
 10
66.3544
 20
84.0725
 30
0.00000
  70
    32
  0
VERTEX
  8
0
  5
2666
 10
66.3531
 20
84.0653
 30
0.00000
  70
    32
  0
VERTEX
  8
0
  5
2667
 10
66.3519
 20
84.0580
 30
0.00000
  70
    32
  0
VERTEX
  8
0
  5
2668
 10
66.3506
 20
84.0507
 30
0.00000
  70
    32
  0
VERTEX
  8
0
  5
2669
 10
66.3493
 20
84.0434
 30
0.00000
  70
    32
  0
VERTEX
  8
0
  5
266A
 10
66.3480
 20
84.0361
 30
0.00000
  70
    32
  0
VERTEX
  8
0
  5
266B
 10
66.3468
 20
84.0288
 30
0.00000
  70
    32
  0
VERTEX
  8
0
  5
266C
 10
66.3455
 20
84.0214
 30
0.00000
  70
    32
  0
VERTEX
  8
0
  5
266D
 10
66.3442
 20
84.0140
 30
0.00000
  70
    32
  0
VERTEX
  8
0
  5
266E
 10
66.3429
 20
84.0066
 30
0.00000
  70
    32
  0
VERTEX
  8
0
  5
266F
 10
66.3417
 20
83.9992
 30
0.00000
  70
    32
  0
VERTEX
  8
0
  5
2670
 10
66.3404
 20
83.9918
 30
0.00000
  70
    32
  0
VERTEX
  8
0
  5
2671
 10
66.3391
 20
83.9843
 30
0.00000
  70
    32
  0
VERTEX
  8
0
  5
2672
 10
66.3379
 20
83.9769
 30
0.00000
  70
    32
  0
VERTEX
  8
0
  5
2673
 10
66.3366
 20
83.9694
 30
0.00000
  70
    32
  0
VERTEX
  8
0
  5
2674
 10
66.3353
 20
83.9619
 30
0.00000
  70
    32
  0
VERTEX
  8
0
  5
2675
 10
66.3340
 20
83.9544
 30
0.00000
  70
    32
  0
VERTEX
  8
0
  5
2676
 10
66.3328
 20
83.9468
 30
0.00000
  70
    32
  0
VERTEX
  8
0
  5
2677
 10
66.3315
 20
83.9392
 30
0.00000
  70
    32
  0
VERTEX
  8
0
  5
2678
 10
66.3302
 20
83.9317
 30
0.00000
  70
    32
  0
VERTEX
  8
0
  5
2679
 10
66.3290
 20
83.9241
 30
0.00000
  70
    32
  0
VERTEX
  8
0
  5
267A
 10
66.3277
 20
83.9164
 30
0.00000
  70
    32
  0
VERTEX
  8
0
  5
267B
 10
66.3264
 20
83.9088
 30
0.00000
  70
    32
  0
VERTEX
  8
0
  5
267C
 10
66.3251
 20
83.9011
 30
0.00000
  70
    32
  0
VERTEX
  8
0
  5
267D
 10
66.3239
 20
83.8935
 30
0.00000
  70
    32
  0
VERTEX
  8
0
  5
267E
 10
66.3226
 20
83.8858
 30
0.00000
  70
    32
  0
VERTEX
  8
0
  5
267F
 10
66.3213
 20
83.8781
 30
0.00000
  70
    32
  0
VERTEX
  8
0
  5
2680
 10
66.3201
 20
83.8703
 30
0.00000
  70
    32
  0
VERTEX
  8
0
  5
2681
 10
66.3188
 20
83.8626
 30
0.00000
  70
    32
  0
VERTEX
  8
0
  5
2682
 10
66.3175
 20
83.8548
 30
0.00000
  70
    32
  0
VERTEX
  8
0
  5
2683
 10
66.3163
 20
83.8470
 30
0.00000
  70
    32
  0
VERTEX
  8
0
  5
2684
 10
66.3150
 20
83.8392
 30
0.00000
  70
    32
  0
VERTEX
  8
0
  5
2685
 10
66.3137
 20
83.8314
 30
0.00000
  70
    32
  0
VERTEX
  8
0
  5
2686
 10
66.3125
 20
83.8236
 30
0.00000
  70
    32
  0
VERTEX
  8
0
  5
2687
 10
66.3112
 20
83.8157
 30
0.00000
  70
    32
  0
VERTEX
  8
0
  5
2688
 10
66.3099
 20
83.8078
 30
0.00000
  70
    32
  0
VERTEX
  8
0
  5
2689
 10
66.3087
 20
83.7999
 30
0.00000
  70
    32
  0
VERTEX
  8
0
  5
268A
 10
66.3074
 20
83.7920
 30
0.00000
  70
    32
  0
VERTEX
  8
0
  5
268B
 10
66.3061
 20
83.7841
 30
0.00000
  70
    32
  0
VERTEX
  8
0
  5
268C
 10
66.3049
 20
83.7761
 30
0.00000
  70
    32
  0
VERTEX
  8
0
  5
268D
 10
66.3036
 20
83.7681
 30
0.00000
  70
    32
  0
VERTEX
  8
0
  5
268E
 10
66.3023
 20
83.7602
 30
0.00000
  70
    32
  0
VERTEX
  8
0
  5
268F
 10
66.3011
 20
83.7521
 30
0.00000
  70
    32
  0
VERTEX
  8
0
  5
2690
 10
66.2998
 20
83.7441
 30
0.00000
  70
    32
  0
VERTEX
  8
0
  5
2691
 10
66.2985
 20
83.7361
 30
0.00000
  70
    32
  0
VERTEX
  8
0
  5
2692
 10
66.2973
 20
83.7280
 30
0.00000
  70
    32
  0
VERTEX
  8
0
  5
2693
 10
66.2960
 20
83.7199
 30
0.00000
  70
    32
  0
VERTEX
  8
0
  5
2694
 10
66.2947
 20
83.7118
 30
0.00000
  70
    32
  0
VERTEX
  8
0
  5
2695
 10
66.2935
 20
83.7037
 30
0.00000
  70
    32
  0
VERTEX
  8
0
  5
2696
 10
66.2922
 20
83.6956
 30
0.00000
  70
    32
  0
VERTEX
  8
0
  5
2697
 10
66.2909
 20
83.6874
 30
0.00000
  70
    32
  0
VERTEX
  8
0
  5
2698
 10
66.2897
 20
83.6792
 30
0.00000
  70
    32
  0
VERTEX
  8
0
  5
2699
 10
66.2884
 20
83.6710
 30
0.00000
  70
    32
  0
VERTEX
  8
0
  5
269A
 10
66.2871
 20
83.6628
 30
0.00000
  70
    32
  0
VERTEX
  8
0
  5
269B
 10
66.2859
 20
83.6546
 30
0.00000
  70
    32
  0
VERTEX
  8
0
  5
269C
 10
66.2846
 20
83.6463
 30
0.00000
  70
    32
  0
VERTEX
  8
0
  5
269D
 10
66.2834
 20
83.6381
 30
0.00000
  70
    32
  0
VERTEX
  8
0
  5
269E
 10
66.2821
 20
83.6298
 30
0.00000
  70
    32
  0
VERTEX
  8
0
  5
269F
 10
66.2808
 20
83.6215
 30
0.00000
  70
    32
  0
VERTEX
  8
0
  5
26A0
 10
66.2796
 20
83.6132
 30
0.00000
  70
    32
  0
VERTEX
  8
0
  5
26A1
 10
66.2783
 20
83.6048
 30
0.00000
  70
    32
  0
VERTEX
  8
0
  5
26A2
 10
66.2771
 20
83.5965
 30
0.00000
  70
    32
  0
VERTEX
  8
0
  5
26A3
 10
66.2758
 20
83.5881
 30
0.00000
  70
    32
  0
VERTEX
  8
0
  5
26A4
 10
66.2745
 20
83.5797
 30
0.00000
  70
    32
  0
VERTEX
  8
0
  5
26A5
 10
66.2733
 20
83.5713
 30
0.00000
  70
    32
  0
VERTEX
  8
0
  5
26A6
 10
66.2720
 20
83.5628
 30
0.00000
  70
    32
  0
VERTEX
  8
0
  5
26A7
 10
66.2708
 20
83.5544
 30
0.00000
  70
    32
  0
VERTEX
  8
0
  5
26A8
 10
66.2695
 20
83.5459
 30
0.00000
  70
    32
  0
VERTEX
  8
0
  5
26A9
 10
66.2682
 20
83.5374
 30
0.00000
  70
    32
  0
VERTEX
  8
0
  5
26AA
 10
66.2670
 20
83.5289
 30
0.00000
  70
    32
  0
VERTEX
  8
0
  5
26AB
 10
66.2657
 20
83.5204
 30
0.00000
  70
    32
  0
VERTEX
  8
0
  5
26AC
 10
66.2645
 20
83.5119
 30
0.00000
  70
    32
  0
VERTEX
  8
0
  5
26AD
 10
66.2632
 20
83.5033
 30
0.00000
  70
    32
  0
VERTEX
  8
0
  5
26AE
 10
66.2619
 20
83.4947
 30
0.00000
  70
    32
  0
VERTEX
  8
0
  5
26AF
 10
66.2607
 20
83.4861
 30
0.00000
  70
    32
  0
VERTEX
  8
0
  5
26B0
 10
66.2594
 20
83.4775
 30
0.00000
  70
    32
  0
VERTEX
  8
0
  5
26B1
 10
66.2582
 20
83.4689
 30
0.00000
  70
    32
  0
VERTEX
  8
0
  5
26B2
 10
66.2569
 20
83.4602
 30
0.00000
  70
    32
  0
VERTEX
  8
0
  5
26B3
 10
66.2557
 20
83.4515
 30
0.00000
  70
    32
  0
VERTEX
  8
0
  5
26B4
 10
66.2544
 20
83.4428
 30
0.00000
  70
    32
  0
VERTEX
  8
0
  5
26B5
 10
66.2531
 20
83.4341
 30
0.00000
  70
    32
  0
VERTEX
  8
0
  5
26B6
 10
66.2519
 20
83.4254
 30
0.00000
  70
    32
  0
VERTEX
  8
0
  5
26B7
 10
66.2506
 20
83.4167
 30
0.00000
  70
    32
  0
VERTEX
  8
0
  5
26B8
 10
66.2494
 20
83.4079
 30
0.00000
  70
    32
  0
VERTEX
  8
0
  5
26B9
 10
66.2481
 20
83.3991
 30
0.00000
  70
    32
  0
VERTEX
  8
0
  5
26BA
 10
66.2469
 20
83.3903
 30
0.00000
  70
    32
  0
VERTEX
  8
0
  5
26BB
 10
66.2456
 20
83.3815
 30
0.00000
  70
    32
  0
VERTEX
  8
0
  5
26BC
 10
66.2444
 20
83.3727
 30
0.00000
  70
    32
  0
VERTEX
  8
0
  5
26BD
 10
66.2431
 20
83.3638
 30
0.00000
  70
    32
  0
VERTEX
  8
0
  5
26BE
 10
66.2418
 20
83.3549
 30
0.00000
  70
    32
  0
VERTEX
  8
0
  5
26BF
 10
66.2406
 20
83.3460
 30
0.00000
  70
    32
  0
VERTEX
  8
0
  5
26C0
 10
66.2393
 20
83.3371
 30
0.00000
  70
    32
  0
VERTEX
  8
0
  5
26C1
 10
66.2381
 20
83.3282
 30
0.00000
  70
    32
  0
VERTEX
  8
0
  5
26C2
 10
66.2368
 20
83.3192
 30
0.00000
  70
    32
  0
VERTEX
  8
0
  5
26C3
 10
66.2356
 20
83.3103
 30
0.00000
  70
    32
  0
VERTEX
  8
0
  5
26C4
 10
66.2343
 20
83.3013
 30
0.00000
  70
    32
  0
VERTEX
  8
0
  5
26C5
 10
66.2331
 20
83.2923
 30
0.00000
  70
    32
  0
VERTEX
  8
0
  5
26C6
 10
66.2318
 20
83.2833
 30
0.00000
  70
    32
  0
VERTEX
  8
0
  5
26C7
 10
66.2306
 20
83.2742
 30
0.00000
  70
    32
  0
VERTEX
  8
0
  5
26C8
 10
66.2293
 20
83.2652
 30
0.00000
  70
    32
  0
VERTEX
  8
0
  5
26C9
 10
66.2281
 20
83.2561
 30
0.00000
  70
    32
  0
VERTEX
  8
0
  5
26CA
 10
66.2268
 20
83.2470
 30
0.00000
  70
    32
  0
VERTEX
  8
0
  5
26CB
 10
66.2256
 20
83.2379
 30
0.00000
  70
    32
  0
VERTEX
  8
0
  5
26CC
 10
66.2243
 20
83.2288
 30
0.00000
  70
    32
  0
VERTEX
  8
0
  5
26CD
 10
66.2231
 20
83.2196
 30
0.00000
  70
    32
  0
VERTEX
  8
0
  5
26CE
 10
66.2218
 20
83.2104
 30
0.00000
  70
    32
  0
VERTEX
  8
0
  5
26CF
 10
66.2206
 20
83.2012
 30
0.00000
  70
    32
  0
VERTEX
  8
0
  5
26D0
 10
66.2193
 20
83.1920
 30
0.00000
  70
    32
  0
VERTEX
  8
0
  5
26D1
 10
66.2181
 20
83.1828
 30
0.00000
  70
    32
  0
VERTEX
  8
0
  5
26D2
 10
66.2168
 20
83.1736
 30
0.00000
  70
    32
  0
VERTEX
  8
0
  5
26D3
 10
66.2156
 20
83.1643
 30
0.00000
  70
    32
  0
VERTEX
  8
0
  5
26D4
 10
66.2143
 20
83.1550
 30
0.00000
  70
    32
  0
VERTEX
  8
0
  5
26D5
 10
66.2131
 20
83.1458
 30
0.00000
  70
    32
  0
VERTEX
  8
0
  5
26D6
 10
66.2118
 20
83.1364
 30
0.00000
  70
    32
  0
VERTEX
  8
0
  5
26D7
 10
66.2106
 20
83.1271
 30
0.00000
  70
    32
  0
VERTEX
  8
0
  5
26D8
 10
66.2093
 20
83.1178
 30
0.00000
  70
    32
  0
VERTEX
  8
0
  5
26D9
 10
66.2081
 20
83.1084
 30
0.00000
  70
    32
  0
VERTEX
  8
0
  5
26DA
 10
66.2068
 20
83.0990
 30
0.00000
  70
    32
  0
VERTEX
  8
0
  5
26DB
 10
66.2056
 20
83.0896
 30
0.00000
  70
    32
  0
VERTEX
  8
0
  5
26DC
 10
66.2043
 20
83.0802
 30
0.00000
  70
    32
  0
VERTEX
  8
0
  5
26DD
 10
66.2031
 20
83.0707
 30
0.00000
  70
    32
  0
VERTEX
  8
0
  5
26DE
 10
66.2019
 20
83.0613
 30
0.00000
  70
    32
  0
SEQEND
  8
0
  5
26DF
  0
POLYLINE
  5
2209
  8
0
 10
66.3633351350748768
 20
74.7656278825484293
 30
0.0
 66
     1
 70
     8
  0
VERTEX
  8
0
  5
26E0
 10
66.3633
 20
74.7656
 30
0.00000
  70
    32
  0
VERTEX
  8
0
  5
26E1
 10
66.3600
 20
74.7595
 30
0.00000
  70
    32
  0
VERTEX
  8
0
  5
26E2
 10
66.3566
 20
74.7533
 30
0.00000
  70
    32
  0
VERTEX
  8
0
  5
26E3
 10
66.3532
 20
74.7470
 30
0.00000
  70
    32
  0
VERTEX
  8
0
  5
26E4
 10
66.3498
 20
74.7406
 30
0.00000
  70
    32
  0
VERTEX
  8
0
  5
26E5
 10
66.3464
 20
74.7341
 30
0.00000
  70
    32
  0
VERTEX
  8
0
  5
26E6
 10
66.3431
 20
74.7276
 30
0.00000
  70
    32
  0
VERTEX
  8
0
  5
26E7
 10
66.3397
 20
74.7209
 30
0.00000
  70
    32
  0
VERTEX
  8
0
  5
26E8
 10
66.3363
 20
74.7141
 30
0.00000
  70
    32
  0
VERTEX
  8
0
  5
26E9
 10
66.3329
 20
74.7073
 30
0.00000
  70
    32
  0
VERTEX
  8
0
  5
26EA
 10
66.3295
 20
74.7004
 30
0.00000
  70
    32
  0
VERTEX
  8
0
  5
26EB
 10
66.3262
 20
74.6933
 30
0.00000
  70
    32
  0
VERTEX
  8
0
  5
26EC
 10
66.3228
 20
74.6862
 30
0.00000
  70
    32
  0
VERTEX
  8
0
  5
26ED
 10
66.3194
 20
74.6790
 30
0.00000
  70
    32
  0
VERTEX
  8
0
  5
26EE
 10
66.3160
 20
74.6717
 30
0.00000
  70
    32
  0
VERTEX
  8
0
  5
26EF
 10
66.3126
 20
74.6643
 30
0.00000
  70
    32
  0
VERTEX
  8
0
  5
26F0
 10
66.3093
 20
74.6568
 30
0.00000
  70
    32
  0
VERTEX
  8
0
  5
26F1
 10
66.3059
 20
74.6492
 30
0.00000
  70
    32
  0
VERTEX
  8
0
  5
26F2
 10
66.3025
 20
74.6415
 30
0.00000
  70
    32
  0
VERTEX
  8
0
  5
26F3
 10
66.2991
 20
74.6338
 30
0.00000
  70
    32
  0
VERTEX
  8
0
  5
26F4
 10
66.2958
 20
74.6259
 30
0.00000
  70
    32
  0
VERTEX
  8
0
  5
26F5
 10
66.2924
 20
74.6180
 30
0.00000
  70
    32
  0
VERTEX
  8
0
  5
26F6
 10
66.2890
 20
74.6099
 30
0.00000
  70
    32
  0
VERTEX
  8
0
  5
26F7
 10
66.2857
 20
74.6018
 30
0.00000
  70
    32
  0
VERTEX
  8
0
  5
26F8
 10
66.2823
 20
74.5936
 30
0.00000
  70
    32
  0
VERTEX
  8
0
  5
26F9
 10
66.2789
 20
74.5853
 30
0.00000
  70
    32
  0
VERTEX
  8
0
  5
26FA
 10
66.2755
 20
74.5769
 30
0.00000
  70
    32
  0
VERTEX
  8
0
  5
26FB
 10
66.2722
 20
74.5684
 30
0.00000
  70
    32
  0
VERTEX
  8
0
  5
26FC
 10
66.2688
 20
74.5598
 30
0.00000
  70
    32
  0
VERTEX
  8
0
  5
26FD
 10
66.2654
 20
74.5511
 30
0.00000
  70
    32
  0
VERTEX
  8
0
  5
26FE
 10
66.2621
 20
74.5423
 30
0.00000
  70
    32
  0
VERTEX
  8
0
  5
26FF
 10
66.2587
 20
74.5335
 30
0.00000
  70
    32
  0
VERTEX
  8
0
  5
2700
 10
66.2553
 20
74.5245
 30
0.00000
  70
    32
  0
VERTEX
  8
0
  5
2701
 10
66.2519
 20
74.5155
 30
0.00000
  70
    32
  0
VERTEX
  8
0
  5
2702
 10
66.2486
 20
74.5063
 30
0.00000
  70
    32
  0
VERTEX
  8
0
  5
2703
 10
66.2452
 20
74.4971
 30
0.00000
  70
    32
  0
VERTEX
  8
0
  5
2704
 10
66.2418
 20
74.4878
 30
0.00000
  70
    32
  0
VERTEX
  8
0
  5
2705
 10
66.2385
 20
74.4784
 30
0.00000
  70
    32
  0
VERTEX
  8
0
  5
2706
 10
66.2351
 20
74.4688
 30
0.00000
  70
    32
  0
VERTEX
  8
0
  5
2707
 10
66.2317
 20
74.4593
 30
0.00000
  70
    32
  0
VERTEX
  8
0
  5
2708
 10
66.2284
 20
74.4496
 30
0.00000
  70
    32
  0
VERTEX
  8
0
  5
2709
 10
66.2250
 20
74.4398
 30
0.00000
  70
    32
  0
VERTEX
  8
0
  5
270A
 10
66.2217
 20
74.4299
 30
0.00000
  70
    32
  0
VERTEX
  8
0
  5
270B
 10
66.2183
 20
74.4200
 30
0.00000
  70
    32
  0
VERTEX
  8
0
  5
270C
 10
66.2149
 20
74.4099
 30
0.00000
  70
    32
  0
VERTEX
  8
0
  5
270D
 10
66.2116
 20
74.3998
 30
0.00000
  70
    32
  0
VERTEX
  8
0
  5
270E
 10
66.2082
 20
74.3895
 30
0.00000
  70
    32
  0
VERTEX
  8
0
  5
270F
 10
66.2048
 20
74.3792
 30
0.00000
  70
    32
  0
VERTEX
  8
0
  5
2710
 10
66.2015
 20
74.3688
 30
0.00000
  70
    32
  0
VERTEX
  8
0
  5
2711
 10
66.1981
 20
74.3583
 30
0.00000
  70
    32
  0
VERTEX
  8
0
  5
2712
 10
66.1948
 20
74.3477
 30
0.00000
  70
    32
  0
VERTEX
  8
0
  5
2713
 10
66.1914
 20
74.3370
 30
0.00000
  70
    32
  0
VERTEX
  8
0
  5
2714
 10
66.1880
 20
74.3262
 30
0.00000
  70
    32
  0
VERTEX
  8
0
  5
2715
 10
66.1847
 20
74.3154
 30
0.00000
  70
    32
  0
VERTEX
  8
0
  5
2716
 10
66.1813
 20
74.3044
 30
0.00000
  70
    32
  0
VERTEX
  8
0
  5
2717
 10
66.1780
 20
74.2933
 30
0.00000
  70
    32
  0
VERTEX
  8
0
  5
2718
 10
66.1746
 20
74.2822
 30
0.00000
  70
    32
  0
VERTEX
  8
0
  5
2719
 10
66.1713
 20
74.2710
 30
0.00000
  70
    32
  0
VERTEX
  8
0
  5
271A
 10
66.1679
 20
74.2596
 30
0.00000
  70
    32
  0
VERTEX
  8
0
  5
271B
 10
66.1646
 20
74.2482
 30
0.00000
  70
    32
  0
VERTEX
  8
0
  5
271C
 10
66.1612
 20
74.2367
 30
0.00000
  70
    32
  0
VERTEX
  8
0
  5
271D
 10
66.1579
 20
74.2251
 30
0.00000
  70
    32
  0
VERTEX
  8
0
  5
271E
 10
66.1545
 20
74.2134
 30
0.00000
  70
    32
  0
VERTEX
  8
0
  5
271F
 10
66.1511
 20
74.2016
 30
0.00000
  70
    32
  0
VERTEX
  8
0
  5
2720
 10
66.1478
 20
74.1898
 30
0.00000
  70
    32
  0
VERTEX
  8
0
  5
2721
 10
66.1444
 20
74.1778
 30
0.00000
  70
    32
  0
VERTEX
  8
0
  5
2722
 10
66.1411
 20
74.1657
 30
0.00000
  70
    32
  0
VERTEX
  8
0
  5
2723
 10
66.1377
 20
74.1536
 30
0.00000
  70
    32
  0
VERTEX
  8
0
  5
2724
 10
66.1344
 20
74.1414
 30
0.00000
  70
    32
  0
VERTEX
  8
0
  5
2725
 10
66.1311
 20
74.1290
 30
0.00000
  70
    32
  0
VERTEX
  8
0
  5
2726
 10
66.1277
 20
74.1166
 30
0.00000
  70
    32
  0
VERTEX
  8
0
  5
2727
 10
66.1244
 20
74.1041
 30
0.00000
  70
    32
  0
VERTEX
  8
0
  5
2728
 10
66.1210
 20
74.0915
 30
0.00000
  70
    32
  0
VERTEX
  8
0
  5
2729
 10
66.1177
 20
74.0788
 30
0.00000
  70
    32
  0
VERTEX
  8
0
  5
272A
 10
66.1143
 20
74.0660
 30
0.00000
  70
    32
  0
VERTEX
  8
0
  5
272B
 10
66.1110
 20
74.0532
 30
0.00000
  70
    32
  0
VERTEX
  8
0
  5
272C
 10
66.1076
 20
74.0402
 30
0.00000
  70
    32
  0
VERTEX
  8
0
  5
272D
 10
66.1043
 20
74.0271
 30
0.00000
  70
    32
  0
VERTEX
  8
0
  5
272E
 10
66.1010
 20
74.0140
 30
0.00000
  70
    32
  0
VERTEX
  8
0
  5
272F
 10
66.0976
 20
74.0008
 30
0.00000
  70
    32
  0
VERTEX
  8
0
  5
2730
 10
66.0943
 20
73.9874
 30
0.00000
  70
    32
  0
VERTEX
  8
0
  5
2731
 10
66.0909
 20
73.9740
 30
0.00000
  70
    32
  0
VERTEX
  8
0
  5
2732
 10
66.0876
 20
73.9605
 30
0.00000
  70
    32
  0
VERTEX
  8
0
  5
2733
 10
66.0843
 20
73.9469
 30
0.00000
  70
    32
  0
VERTEX
  8
0
  5
2734
 10
66.0809
 20
73.9332
 30
0.00000
  70
    32
  0
VERTEX
  8
0
  5
2735
 10
66.0776
 20
73.9195
 30
0.00000
  70
    32
  0
VERTEX
  8
0
  5
2736
 10
66.0743
 20
73.9056
 30
0.00000
  70
    32
  0
VERTEX
  8
0
  5
2737
 10
66.0709
 20
73.8916
 30
0.00000
  70
    32
  0
VERTEX
  8
0
  5
2738
 10
66.0676
 20
73.8776
 30
0.00000
  70
    32
  0
VERTEX
  8
0
  5
2739
 10
66.0643
 20
73.8634
 30
0.00000
  70
    32
  0
VERTEX
  8
0
  5
273A
 10
66.0609
 20
73.8492
 30
0.00000
  70
    32
  0
VERTEX
  8
0
  5
273B
 10
66.0576
 20
73.8349
 30
0.00000
  70
    32
  0
VERTEX
  8
0
  5
273C
 10
66.0543
 20
73.8205
 30
0.00000
  70
    32
  0
VERTEX
  8
0
  5
273D
 10
66.0509
 20
73.8060
 30
0.00000
  70
    32
  0
VERTEX
  8
0
  5
273E
 10
66.0476
 20
73.7914
 30
0.00000
  70
    32
  0
VERTEX
  8
0
  5
273F
 10
66.0443
 20
73.7767
 30
0.00000
  70
    32
  0
VERTEX
  8
0
  5
2740
 10
66.0409
 20
73.7619
 30
0.00000
  70
    32
  0
VERTEX
  8
0
  5
2741
 10
66.0376
 20
73.7471
 30
0.00000
  70
    32
  0
VERTEX
  8
0
  5
2742
 10
66.0343
 20
73.7321
 30
0.00000
  70
    32
  0
VERTEX
  8
0
  5
2743
 10
66.0310
 20
73.7171
 30
0.00000
  70
    32
  0
VERTEX
  8
0
  5
2744
 10
66.0276
 20
73.7019
 30
0.00000
  70
    32
  0
VERTEX
  8
0
  5
2745
 10
66.0243
 20
73.6867
 30
0.00000
  70
    32
  0
VERTEX
  8
0
  5
2746
 10
66.0210
 20
73.6714
 30
0.00000
  70
    32
  0
VERTEX
  8
0
  5
2747
 10
66.0177
 20
73.6560
 30
0.00000
  70
    32
  0
VERTEX
  8
0
  5
2748
 10
66.0143
 20
73.6405
 30
0.00000
  70
    32
  0
VERTEX
  8
0
  5
2749
 10
66.0110
 20
73.6249
 30
0.00000
  70
    32
  0
VERTEX
  8
0
  5
274A
 10
66.0077
 20
73.6092
 30
0.00000
  70
    32
  0
VERTEX
  8
0
  5
274B
 10
66.0044
 20
73.5935
 30
0.00000
  70
    32
  0
VERTEX
  8
0
  5
274C
 10
66.0011
 20
73.5776
 30
0.00000
  70
    32
  0
VERTEX
  8
0
  5
274D
 10
65.9978
 20
73.5617
 30
0.00000
  70
    32
  0
VERTEX
  8
0
  5
274E
 10
65.9944
 20
73.5456
 30
0.00000
  70
    32
  0
VERTEX
  8
0
  5
274F
 10
65.9911
 20
73.5295
 30
0.00000
  70
    32
  0
VERTEX
  8
0
  5
2750
 10
65.9878
 20
73.5133
 30
0.00000
  70
    32
  0
VERTEX
  8
0
  5
2751
 10
65.9845
 20
73.4970
 30
0.00000
  70
    32
  0
VERTEX
  8
0
  5
2752
 10
65.9812
 20
73.4806
 30
0.00000
  70
    32
  0
VERTEX
  8
0
  5
2753
 10
65.9779
 20
73.4641
 30
0.00000
  70
    32
  0
VERTEX
  8
0
  5
2754
 10
65.9746
 20
73.4475
 30
0.00000
  70
    32
  0
VERTEX
  8
0
  5
2755
 10
65.9713
 20
73.4309
 30
0.00000
  70
    32
  0
VERTEX
  8
0
  5
2756
 10
65.9679
 20
73.4141
 30
0.00000
  70
    32
  0
VERTEX
  8
0
  5
2757
 10
65.9646
 20
73.3973
 30
0.00000
  70
    32
  0
VERTEX
  8
0
  5
2758
 10
65.9613
 20
73.3803
 30
0.00000
  70
    32
  0
VERTEX
  8
0
  5
2759
 10
65.9580
 20
73.3633
 30
0.00000
  70
    32
  0
VERTEX
  8
0
  5
275A
 10
65.9547
 20
73.3462
 30
0.00000
  70
    32
  0
VERTEX
  8
0
  5
275B
 10
65.9514
 20
73.3290
 30
0.00000
  70
    32
  0
VERTEX
  8
0
  5
275C
 10
65.9481
 20
73.3117
 30
0.00000
  70
    32
  0
VERTEX
  8
0
  5
275D
 10
65.9448
 20
73.2943
 30
0.00000
  70
    32
  0
VERTEX
  8
0
  5
275E
 10
65.9415
 20
73.2769
 30
0.00000
  70
    32
  0
VERTEX
  8
0
  5
275F
 10
65.9382
 20
73.2593
 30
0.00000
  70
    32
  0
VERTEX
  8
0
  5
2760
 10
65.9349
 20
73.2416
 30
0.00000
  70
    32
  0
SEQEND
  8
0
  5
2761
  0
POLYLINE
  5
220A
  8
0
 10
69.9633351350741179
 20
71.3933092791856723
 30
0.0
 66
     1
 70
     8
  0
VERTEX
  8
0
  5
2762
 10
69.9633
 20
71.3933
 30
0.00000
  70
    32
  0
VERTEX
  8
0
  5
2763
 10
69.9364
 20
71.4613
 30
0.00000
  70
    32
  0
VERTEX
  8
0
  5
2764
 10
69.9094
 20
71.5287
 30
0.00000
  70
    32
  0
VERTEX
  8
0
  5
2765
 10
69.8824
 20
71.5954
 30
0.00000
  70
    32
  0
VERTEX
  8
0
  5
2766
 10
69.8553
 20
71.6615
 30
0.00000
  70
    32
  0
VERTEX
  8
0
  5
2767
 10
69.8283
 20
71.7270
 30
0.00000
  70
    32
  0
VERTEX
  8
0
  5
2768
 10
69.8011
 20
71.7918
 30
0.00000
  70
    32
  0
VERTEX
  8
0
  5
2769
 10
69.7740
 20
71.8559
 30
0.00000
  70
    32
  0
VERTEX
  8
0
  5
276A
 10
69.7468
 20
71.9195
 30
0.00000
  70
    32
  0
VERTEX
  8
0
  5
276B
 10
69.7196
 20
71.9824
 30
0.00000
  70
    32
  0
VERTEX
  8
0
  5
276C
 10
69.6924
 20
72.0447
 30
0.00000
  70
    32
  0
VERTEX
  8
0
  5
276D
 10
69.6652
 20
72.1063
 30
0.00000
  70
    32
  0
VERTEX
  8
0
  5
276E
 10
69.6379
 20
72.1673
 30
0.00000
  70
    32
  0
VERTEX
  8
0
  5
276F
 10
69.6106
 20
72.2276
 30
0.00000
  70
    32
  0
VERTEX
  8
0
  5
2770
 10
69.5833
 20
72.2873
 30
0.00000
  70
    32
  0
VERTEX
  8
0
  5
2771
 10
69.5559
 20
72.3463
 30
0.00000
  70
    32
  0
VERTEX
  8
0
  5
2772
 10
69.5285
 20
72.4047
 30
0.00000
  70
    32
  0
VERTEX
  8
0
  5
2773
 10
69.5011
 20
72.4625
 30
0.00000
  70
    32
  0
VERTEX
  8
0
  5
2774
 10
69.4736
 20
72.5196
 30
0.00000
  70
    32
  0
VERTEX
  8
0
  5
2775
 10
69.4462
 20
72.5761
 30
0.00000
  70
    32
  0
VERTEX
  8
0
  5
2776
 10
69.4187
 20
72.6319
 30
0.00000
  70
    32
  0
VERTEX
  8
0
  5
2777
 10
69.3912
 20
72.6871
 30
0.00000
  70
    32
  0
VERTEX
  8
0
  5
2778
 10
69.3636
 20
72.7416
 30
0.00000
  70
    32
  0
VERTEX
  8
0
  5
2779
 10
69.3361
 20
72.7955
 30
0.00000
  70
    32
  0
VERTEX
  8
0
  5
277A
 10
69.3085
 20
72.8487
 30
0.00000
  70
    32
  0
VERTEX
  8
0
  5
277B
 10
69.2808
 20
72.9013
 30
0.00000
  70
    32
  0
VERTEX
  8
0
  5
277C
 10
69.2532
 20
72.9532
 30
0.00000
  70
    32
  0
VERTEX
  8
0
  5
277D
 10
69.2255
 20
73.0045
 30
0.00000
  70
    32
  0
VERTEX
  8
0
  5
277E
 10
69.1978
 20
73.0551
 30
0.00000
  70
    32
  0
VERTEX
  8
0
  5
277F
 10
69.1701
 20
73.1051
 30
0.00000
  70
    32
  0
VERTEX
  8
0
  5
2780
 10
69.1424
 20
73.1544
 30
0.00000
  70
    32
  0
VERTEX
  8
0
  5
2781
 10
69.1146
 20
73.2031
 30
0.00000
  70
    32
  0
VERTEX
  8
0
  5
2782
 10
69.0869
 20
73.2511
 30
0.00000
  70
    32
  0
VERTEX
  8
0
  5
2783
 10
69.0591
 20
73.2985
 30
0.00000
  70
    32
  0
VERTEX
  8
0
  5
2784
 10
69.0312
 20
73.3452
 30
0.00000
  70
    32
  0
VERTEX
  8
0
  5
2785
 10
69.0034
 20
73.3913
 30
0.00000
  70
    32
  0
VERTEX
  8
0
  5
2786
 10
68.9755
 20
73.4367
 30
0.00000
  70
    32
  0
VERTEX
  8
0
  5
2787
 10
68.9477
 20
73.4814
 30
0.00000
  70
    32
  0
VERTEX
  8
0
  5
2788
 10
68.9198
 20
73.5255
 30
0.00000
  70
    32
  0
VERTEX
  8
0
  5
2789
 10
68.8918
 20
73.5689
 30
0.00000
  70
    32
  0
VERTEX
  8
0
  5
278A
 10
68.8639
 20
73.6117
 30
0.00000
  70
    32
  0
VERTEX
  8
0
  5
278B
 10
68.8359
 20
73.6538
 30
0.00000
  70
    32
  0
VERTEX
  8
0
  5
278C
 10
68.8079
 20
73.6953
 30
0.00000
  70
    32
  0
VERTEX
  8
0
  5
278D
 10
68.7799
 20
73.7361
 30
0.00000
  70
    32
  0
VERTEX
  8
0
  5
278E
 10
68.7519
 20
73.7762
 30
0.00000
  70
    32
  0
VERTEX
  8
0
  5
278F
 10
68.7239
 20
73.8157
 30
0.00000
  70
    32
  0
VERTEX
  8
0
  5
2790
 10
68.6958
 20
73.8545
 30
0.00000
  70
    32
  0
VERTEX
  8
0
  5
2791
 10
68.6677
 20
73.8926
 30
0.00000
  70
    32
  0
VERTEX
  8
0
  5
2792
 10
68.6397
 20
73.9301
 30
0.00000
  70
    32
  0
VERTEX
  8
0
  5
2793
 10
68.6115
 20
73.9670
 30
0.00000
  70
    32
  0
VERTEX
  8
0
  5
2794
 10
68.5834
 20
74.0032
 30
0.00000
  70
    32
  0
VERTEX
  8
0
  5
2795
 10
68.5553
 20
74.0387
 30
0.00000
  70
    32
  0
VERTEX
  8
0
  5
2796
 10
68.5271
 20
74.0735
 30
0.00000
  70
    32
  0
VERTEX
  8
0
  5
2797
 10
68.4990
 20
74.1077
 30
0.00000
  70
    32
  0
VERTEX
  8
0
  5
2798
 10
68.4708
 20
74.1412
 30
0.00000
  70
    32
  0
VERTEX
  8
0
  5
2799
 10
68.4426
 20
74.1741
 30
0.00000
  70
    32
  0
VERTEX
  8
0
  5
279A
 10
68.4143
 20
74.2063
 30
0.00000
  70
    32
  0
VERTEX
  8
0
  5
279B
 10
68.3861
 20
74.2378
 30
0.00000
  70
    32
  0
VERTEX
  8
0
  5
279C
 10
68.3579
 20
74.2687
 30
0.00000
  70
    32
  0
VERTEX
  8
0
  5
279D
 10
68.3296
 20
74.2989
 30
0.00000
  70
    32
  0
VERTEX
  8
0
  5
279E
 10
68.3013
 20
74.3284
 30
0.00000
  70
    32
  0
VERTEX
  8
0
  5
279F
 10
68.2730
 20
74.3573
 30
0.00000
  70
    32
  0
VERTEX
  8
0
  5
27A0
 10
68.2447
 20
74.3855
 30
0.00000
  70
    32
  0
VERTEX
  8
0
  5
27A1
 10
68.2164
 20
74.4130
 30
0.00000
  70
    32
  0
VERTEX
  8
0
  5
27A2
 10
68.1881
 20
74.4399
 30
0.00000
  70
    32
  0
VERTEX
  8
0
  5
27A3
 10
68.1598
 20
74.4661
 30
0.00000
  70
    32
  0
VERTEX
  8
0
  5
27A4
 10
68.1314
 20
74.4917
 30
0.00000
  70
    32
  0
VERTEX
  8
0
  5
27A5
 10
68.1030
 20
74.5165
 30
0.00000
  70
    32
  0
VERTEX
  8
0
  5
27A6
 10
68.0747
 20
74.5407
 30
0.00000
  70
    32
  0
VERTEX
  8
0
  5
27A7
 10
68.0463
 20
74.5643
 30
0.00000
  70
    32
  0
VERTEX
  8
0
  5
27A8
 10
68.0179
 20
74.5872
 30
0.00000
  70
    32
  0
VERTEX
  8
0
  5
27A9
 10
67.9895
 20
74.6094
 30
0.00000
  70
    32
  0
VERTEX
  8
0
  5
27AA
 10
67.9611
 20
74.6309
 30
0.00000
  70
    32
  0
VERTEX
  8
0
  5
27AB
 10
67.9326
 20
74.6518
 30
0.00000
  70
    32
  0
VERTEX
  8
0
  5
27AC
 10
67.9042
 20
74.6719
 30
0.00000
  70
    32
  0
VERTEX
  8
0
  5
27AD
 10
67.8758
 20
74.6915
 30
0.00000
  70
    32
  0
VERTEX
  8
0
  5
27AE
 10
67.8473
 20
74.7103
 30
0.00000
  70
    32
  0
VERTEX
  8
0
  5
27AF
 10
67.8189
 20
74.7285
 30
0.00000
  70
    32
  0
VERTEX
  8
0
  5
27B0
 10
67.7904
 20
74.7460
 30
0.00000
  70
    32
  0
VERTEX
  8
0
  5
27B1
 10
67.7619
 20
74.7629
 30
0.00000
  70
    32
  0
VERTEX
  8
0
  5
27B2
 10
67.7334
 20
74.7791
 30
0.00000
  70
    32
  0
VERTEX
  8
0
  5
27B3
 10
67.7049
 20
74.7946
 30
0.00000
  70
    32
  0
VERTEX
  8
0
  5
27B4
 10
67.6764
 20
74.8094
 30
0.00000
  70
    32
  0
VERTEX
  8
0
  5
27B5
 10
67.6479
 20
74.8236
 30
0.00000
  70
    32
  0
VERTEX
  8
0
  5
27B6
 10
67.6194
 20
74.8371
 30
0.00000
  70
    32
  0
VERTEX
  8
0
  5
27B7
 10
67.5909
 20
74.8499
 30
0.00000
  70
    32
  0
VERTEX
  8
0
  5
27B8
 10
67.5624
 20
74.8620
 30
0.00000
  70
    32
  0
VERTEX
  8
0
  5
27B9
 10
67.5339
 20
74.8735
 30
0.00000
  70
    32
  0
VERTEX
  8
0
  5
27BA
 10
67.5053
 20
74.8843
 30
0.00000
  70
    32
  0
VERTEX
  8
0
  5
27BB
 10
67.4768
 20
74.8945
 30
0.00000
  70
    32
  0
VERTEX
  8
0
  5
27BC
 10
67.4482
 20
74.9039
 30
0.00000
  70
    32
  0
VERTEX
  8
0
  5
27BD
 10
67.4197
 20
74.9127
 30
0.00000
  70
    32
  0
VERTEX
  8
0
  5
27BE
 10
67.3911
 20
74.9208
 30
0.00000
  70
    32
  0
VERTEX
  8
0
  5
27BF
 10
67.3626
 20
74.9283
 30
0.00000
  70
    32
  0
VERTEX
  8
0
  5
27C0
 10
67.3340
 20
74.9351
 30
0.00000
  70
    32
  0
VERTEX
  8
0
  5
27C1
 10
67.3055
 20
74.9412
 30
0.00000
  70
    32
  0
VERTEX
  8
0
  5
27C2
 10
67.2769
 20
74.9466
 30
0.00000
  70
    32
  0
VERTEX
  8
0
  5
27C3
 10
67.2483
 20
74.9514
 30
0.00000
  70
    32
  0
VERTEX
  8
0
  5
27C4
 10
67.2198
 20
74.9555
 30
0.00000
  70
    32
  0
VERTEX
  8
0
  5
27C5
 10
67.1912
 20
74.9589
 30
0.00000
  70
    32
  0
VERTEX
  8
0
  5
27C6
 10
67.1626
 20
74.9616
 30
0.00000
  70
    32
  0
VERTEX
  8
0
  5
27C7
 10
67.1341
 20
74.9637
 30
0.00000
  70
    32
  0
VERTEX
  8
0
  5
27C8
 10
67.1055
 20
74.9651
 30
0.00000
  70
    32
  0
VERTEX
  8
0
  5
27C9
 10
67.0769
 20
74.9658
 30
0.00000
  70
    32
  0
VERTEX
  8
0
  5
27CA
 10
67.0483
 20
74.9659
 30
0.00000
  70
    32
  0
VERTEX
  8
0
  5
27CB
 10
67.0198
 20
74.9653
 30
0.00000
  70
    32
  0
VERTEX
  8
0
  5
27CC
 10
66.9912
 20
74.9640
 30
0.00000
  70
    32
  0
VERTEX
  8
0
  5
27CD
 10
66.9626
 20
74.9620
 30
0.00000
  70
    32
  0
VERTEX
  8
0
  5
27CE
 10
66.9341
 20
74.9594
 30
0.00000
  70
    32
  0
VERTEX
  8
0
  5
27CF
 10
66.9055
 20
74.9561
 30
0.00000
  70
    32
  0
VERTEX
  8
0
  5
27D0
 10
66.8769
 20
74.9521
 30
0.00000
  70
    32
  0
VERTEX
  8
0
  5
27D1
 10
66.8484
 20
74.9475
 30
0.00000
  70
    32
  0
VERTEX
  8
0
  5
27D2
 10
66.8198
 20
74.9421
 30
0.00000
  70
    32
  0
VERTEX
  8
0
  5
27D3
 10
66.7912
 20
74.9361
 30
0.00000
  70
    32
  0
VERTEX
  8
0
  5
27D4
 10
66.7627
 20
74.9295
 30
0.00000
  70
    32
  0
VERTEX
  8
0
  5
27D5
 10
66.7341
 20
74.9221
 30
0.00000
  70
    32
  0
VERTEX
  8
0
  5
27D6
 10
66.7056
 20
74.9141
 30
0.00000
  70
    32
  0
VERTEX
  8
0
  5
27D7
 10
66.6770
 20
74.9054
 30
0.00000
  70
    32
  0
VERTEX
  8
0
  5
27D8
 10
66.6485
 20
74.8961
 30
0.00000
  70
    32
  0
VERTEX
  8
0
  5
27D9
 10
66.6199
 20
74.8861
 30
0.00000
  70
    32
  0
VERTEX
  8
0
  5
27DA
 10
66.5914
 20
74.8754
 30
0.00000
  70
    32
  0
VERTEX
  8
0
  5
27DB
 10
66.5629
 20
74.8640
 30
0.00000
  70
    32
  0
VERTEX
  8
0
  5
27DC
 10
66.5343
 20
74.8520
 30
0.00000
  70
    32
  0
VERTEX
  8
0
  5
27DD
 10
66.5058
 20
74.8392
 30
0.00000
  70
    32
  0
VERTEX
  8
0
  5
27DE
 10
66.4773
 20
74.8259
 30
0.00000
  70
    32
  0
VERTEX
  8
0
  5
27DF
 10
66.4488
 20
74.8118
 30
0.00000
  70
    32
  0
VERTEX
  8
0
  5
27E0
 10
66.4203
 20
74.7971
 30
0.00000
  70
    32
  0
VERTEX
  8
0
  5
27E1
 10
66.3918
 20
74.7817
 30
0.00000
  70
    32
  0
VERTEX
  8
0
  5
27E2
 10
66.3633
 20
74.7656
 30
0.00000
  70
    32
  0
SEQEND
  8
0
  5
27E3
  0
LINE
  5
220B
  8
0
 10
69.9633351350748285
 20
71.3933092791838391
 30
0.0
 11
69.9633351350748285
 21
71.1602360825740732
 31
0.0
  0
POLYLINE
  5
220C
  8
0
 66
     1
 10
0.0
 20
0.0
 30
0.0
 70
   128
  0
VERTEX
  5
2342
  8
0
 10
69.9633351350748285
 20
71.1602360825740732
 30
0.0
  0
VERTEX
  5
2343
  8
0
 10
69.8443656551534104
 20
70.5938296042385645
 30
0.0
  0
VERTEX
  5
2344
  8
0
 10
69.5949890960645234
 20
69.995681866664043
 30
0.0
  0
VERTEX
  5
2345
  8
0
 10
69.2064173893252246
 20
69.3520069599670137
 30
0.0
  0
VERTEX
  5
2346
  8
0
 10
68.6898324099491902
 20
68.6872044137829789
 30
0.0
  0
VERTEX
  5
2347
  8
0
 10
67.5927126869957533
 20
67.5827824681799996
 30
0.0
  0
VERTEX
  5
2348
  8
0
 10
66.1637519588836653
 20
66.4561993480504043
 30
0.0
  0
SEQEND
  5
2349
  8
0
  0
ARC
  5
220D
  8
0
 10
44.7549173904831079
 20
73.7287288929834261
 30
0.0
 40
8.3941969396768883
 50
197.8173939542087112
 51
240.040183082272506
  0
LINE
  5
220E
  8
0
 10
36.7633351350748399
 20
71.3933092791838533
 30
0.0
 11
36.7633351350748399
 21
71.1602360825740732
 31
0.0
  0
POLYLINE
  5
220F
  8
0
 10
40.3633351350739673
 20
74.7656278825489267
 30
0.0
 66
     1
 70
     8
  0
VERTEX
  8
0
  5
27E4
 10
40.3633
 20
74.7656
 30
0.00000
  70
    32
  0
VERTEX
  8
0
  5
27E5
 10
40.3348
 20
74.7817
 30
0.00000
  70
    32
  0
VERTEX
  8
0
  5
27E6
 10
40.3064
 20
74.7971
 30
0.00000
  70
    32
  0
VERTEX
  8
0
  5
27E7
 10
40.2779
 20
74.8118
 30
0.00000
  70
    32
  0
VERTEX
  8
0
  5
27E8
 10
40.2494
 20
74.8259
 30
0.00000
  70
    32
  0
VERTEX
  8
0
  5
27E9
 10
40.2208
 20
74.8392
 30
0.00000
  70
    32
  0
VERTEX
  8
0
  5
27EA
 10
40.1923
 20
74.8520
 30
0.00000
  70
    32
  0
VERTEX
  8
0
  5
27EB
 10
40.1638
 20
74.8640
 30
0.00000
  70
    32
  0
VERTEX
  8
0
  5
27EC
 10
40.1353
 20
74.8754
 30
0.00000
  70
    32
  0
VERTEX
  8
0
  5
27ED
 10
40.1067
 20
74.8861
 30
0.00000
  70
    32
  0
VERTEX
  8
0
  5
27EE
 10
40.0782
 20
74.8961
 30
0.00000
  70
    32
  0
VERTEX
  8
0
  5
27EF
 10
40.0497
 20
74.9054
 30
0.00000
  70
    32
  0
VERTEX
  8
0
  5
27F0
 10
40.0211
 20
74.9141
 30
0.00000
  70
    32
  0
VERTEX
  8
0
  5
27F1
 10
39.9926
 20
74.9221
 30
0.00000
  70
    32
  0
VERTEX
  8
0
  5
27F2
 10
39.9640
 20
74.9295
 30
0.00000
  70
    32
  0
VERTEX
  8
0
  5
27F3
 10
39.9354
 20
74.9361
 30
0.00000
  70
    32
  0
VERTEX
  8
0
  5
27F4
 10
39.9069
 20
74.9421
 30
0.00000
  70
    32
  0
VERTEX
  8
0
  5
27F5
 10
39.8783
 20
74.9475
 30
0.00000
  70
    32
  0
VERTEX
  8
0
  5
27F6
 10
39.8498
 20
74.9521
 30
0.00000
  70
    32
  0
VERTEX
  8
0
  5
27F7
 10
39.8212
 20
74.9561
 30
0.00000
  70
    32
  0
VERTEX
  8
0
  5
27F8
 10
39.7926
 20
74.9594
 30
0.00000
  70
    32
  0
VERTEX
  8
0
  5
27F9
 10
39.7640
 20
74.9620
 30
0.00000
  70
    32
  0
VERTEX
  8
0
  5
27FA
 10
39.7355
 20
74.9640
 30
0.00000
  70
    32
  0
VERTEX
  8
0
  5
27FB
 10
39.7069
 20
74.9653
 30
0.00000
  70
    32
  0
VERTEX
  8
0
  5
27FC
 10
39.6783
 20
74.9659
 30
0.00000
  70
    32
  0
VERTEX
  8
0
  5
27FD
 10
39.6498
 20
74.9658
 30
0.00000
  70
    32
  0
VERTEX
  8
0
  5
27FE
 10
39.6212
 20
74.9651
 30
0.00000
  70
    32
  0
VERTEX
  8
0
  5
27FF
 10
39.5926
 20
74.9637
 30
0.00000
  70
    32
  0
VERTEX
  8
0
  5
2800
 10
39.5640
 20
74.9616
 30
0.00000
  70
    32
  0
VERTEX
  8
0
  5
2801
 10
39.5355
 20
74.9589
 30
0.00000
  70
    32
  0
VERTEX
  8
0
  5
2802
 10
39.5069
 20
74.9555
 30
0.00000
  70
    32
  0
VERTEX
  8
0
  5
2803
 10
39.4783
 20
74.9514
 30
0.00000
  70
    32
  0
VERTEX
  8
0
  5
2804
 10
39.4498
 20
74.9466
 30
0.00000
  70
    32
  0
VERTEX
  8
0
  5
2805
 10
39.4212
 20
74.9412
 30
0.00000
  70
    32
  0
VERTEX
  8
0
  5
2806
 10
39.3926
 20
74.9351
 30
0.00000
  70
    32
  0
VERTEX
  8
0
  5
2807
 10
39.3641
 20
74.9283
 30
0.00000
  70
    32
  0
VERTEX
  8
0
  5
2808
 10
39.3355
 20
74.9208
 30
0.00000
  70
    32
  0
VERTEX
  8
0
  5
2809
 10
39.3070
 20
74.9127
 30
0.00000
  70
    32
  0
VERTEX
  8
0
  5
280A
 10
39.2784
 20
74.9039
 30
0.00000
  70
    32
  0
VERTEX
  8
0
  5
280B
 10
39.2499
 20
74.8945
 30
0.00000
  70
    32
  0
VERTEX
  8
0
  5
280C
 10
39.2214
 20
74.8843
 30
0.00000
  70
    32
  0
VERTEX
  8
0
  5
280D
 10
39.1928
 20
74.8735
 30
0.00000
  70
    32
  0
VERTEX
  8
0
  5
280E
 10
39.1643
 20
74.8620
 30
0.00000
  70
    32
  0
VERTEX
  8
0
  5
280F
 10
39.1358
 20
74.8499
 30
0.00000
  70
    32
  0
VERTEX
  8
0
  5
2810
 10
39.1072
 20
74.8371
 30
0.00000
  70
    32
  0
VERTEX
  8
0
  5
2811
 10
39.0787
 20
74.8236
 30
0.00000
  70
    32
  0
VERTEX
  8
0
  5
2812
 10
39.0502
 20
74.8094
 30
0.00000
  70
    32
  0
VERTEX
  8
0
  5
2813
 10
39.0217
 20
74.7946
 30
0.00000
  70
    32
  0
VERTEX
  8
0
  5
2814
 10
38.9932
 20
74.7791
 30
0.00000
  70
    32
  0
VERTEX
  8
0
  5
2815
 10
38.9648
 20
74.7629
 30
0.00000
  70
    32
  0
VERTEX
  8
0
  5
2816
 10
38.9363
 20
74.7460
 30
0.00000
  70
    32
  0
VERTEX
  8
0
  5
2817
 10
38.9078
 20
74.7285
 30
0.00000
  70
    32
  0
VERTEX
  8
0
  5
2818
 10
38.8794
 20
74.7103
 30
0.00000
  70
    32
  0
VERTEX
  8
0
  5
2819
 10
38.8509
 20
74.6915
 30
0.00000
  70
    32
  0
VERTEX
  8
0
  5
281A
 10
38.8225
 20
74.6719
 30
0.00000
  70
    32
  0
VERTEX
  8
0
  5
281B
 10
38.7940
 20
74.6518
 30
0.00000
  70
    32
  0
VERTEX
  8
0
  5
281C
 10
38.7656
 20
74.6309
 30
0.00000
  70
    32
  0
VERTEX
  8
0
  5
281D
 10
38.7372
 20
74.6094
 30
0.00000
  70
    32
  0
VERTEX
  8
0
  5
281E
 10
38.7088
 20
74.5872
 30
0.00000
  70
    32
  0
VERTEX
  8
0
  5
281F
 10
38.6804
 20
74.5643
 30
0.00000
  70
    32
  0
VERTEX
  8
0
  5
2820
 10
38.6520
 20
74.5407
 30
0.00000
  70
    32
  0
VERTEX
  8
0
  5
2821
 10
38.6236
 20
74.5165
 30
0.00000
  70
    32
  0
VERTEX
  8
0
  5
2822
 10
38.5953
 20
74.4917
 30
0.00000
  70
    32
  0
VERTEX
  8
0
  5
2823
 10
38.5669
 20
74.4661
 30
0.00000
  70
    32
  0
VERTEX
  8
0
  5
2824
 10
38.5386
 20
74.4399
 30
0.00000
  70
    32
  0
VERTEX
  8
0
  5
2825
 10
38.5103
 20
74.4130
 30
0.00000
  70
    32
  0
VERTEX
  8
0
  5
2826
 10
38.4819
 20
74.3855
 30
0.00000
  70
    32
  0
VERTEX
  8
0
  5
2827
 10
38.4536
 20
74.3573
 30
0.00000
  70
    32
  0
VERTEX
  8
0
  5
2828
 10
38.4253
 20
74.3284
 30
0.00000
  70
    32
  0
VERTEX
  8
0
  5
2829
 10
38.3971
 20
74.2989
 30
0.00000
  70
    32
  0
VERTEX
  8
0
  5
282A
 10
38.3688
 20
74.2687
 30
0.00000
  70
    32
  0
VERTEX
  8
0
  5
282B
 10
38.3406
 20
74.2378
 30
0.00000
  70
    32
  0
VERTEX
  8
0
  5
282C
 10
38.3123
 20
74.2063
 30
0.00000
  70
    32
  0
VERTEX
  8
0
  5
282D
 10
38.2841
 20
74.1741
 30
0.00000
  70
    32
  0
VERTEX
  8
0
  5
282E
 10
38.2559
 20
74.1412
 30
0.00000
  70
    32
  0
VERTEX
  8
0
  5
282F
 10
38.2277
 20
74.1077
 30
0.00000
  70
    32
  0
VERTEX
  8
0
  5
2830
 10
38.1995
 20
74.0735
 30
0.00000
  70
    32
  0
VERTEX
  8
0
  5
2831
 10
38.1714
 20
74.0387
 30
0.00000
  70
    32
  0
VERTEX
  8
0
  5
2832
 10
38.1432
 20
74.0032
 30
0.00000
  70
    32
  0
VERTEX
  8
0
  5
2833
 10
38.1151
 20
73.9670
 30
0.00000
  70
    32
  0
VERTEX
  8
0
  5
2834
 10
38.0870
 20
73.9301
 30
0.00000
  70
    32
  0
VERTEX
  8
0
  5
2835
 10
38.0589
 20
73.8926
 30
0.00000
  70
    32
  0
VERTEX
  8
0
  5
2836
 10
38.0309
 20
73.8545
 30
0.00000
  70
    32
  0
VERTEX
  8
0
  5
2837
 10
38.0028
 20
73.8157
 30
0.00000
  70
    32
  0
VERTEX
  8
0
  5
2838
 10
37.9748
 20
73.7762
 30
0.00000
  70
    32
  0
VERTEX
  8
0
  5
2839
 10
37.9467
 20
73.7361
 30
0.00000
  70
    32
  0
VERTEX
  8
0
  5
283A
 10
37.9187
 20
73.6953
 30
0.00000
  70
    32
  0
VERTEX
  8
0
  5
283B
 10
37.8908
 20
73.6538
 30
0.00000
  70
    32
  0
VERTEX
  8
0
  5
283C
 10
37.8628
 20
73.6117
 30
0.00000
  70
    32
  0
VERTEX
  8
0
  5
283D
 10
37.8348
 20
73.5689
 30
0.00000
  70
    32
  0
VERTEX
  8
0
  5
283E
 10
37.8069
 20
73.5255
 30
0.00000
  70
    32
  0
VERTEX
  8
0
  5
283F
 10
37.7790
 20
73.4814
 30
0.00000
  70
    32
  0
VERTEX
  8
0
  5
2840
 10
37.7511
 20
73.4367
 30
0.00000
  70
    32
  0
VERTEX
  8
0
  5
2841
 10
37.7233
 20
73.3913
 30
0.00000
  70
    32
  0
VERTEX
  8
0
  5
2842
 10
37.6954
 20
73.3452
 30
0.00000
  70
    32
  0
VERTEX
  8
0
  5
2843
 10
37.6676
 20
73.2985
 30
0.00000
  70
    32
  0
VERTEX
  8
0
  5
2844
 10
37.6398
 20
73.2511
 30
0.00000
  70
    32
  0
VERTEX
  8
0
  5
2845
 10
37.6120
 20
73.2031
 30
0.00000
  70
    32
  0
VERTEX
  8
0
  5
2846
 10
37.5843
 20
73.1544
 30
0.00000
  70
    32
  0
VERTEX
  8
0
  5
2847
 10
37.5565
 20
73.1051
 30
0.00000
  70
    32
  0
VERTEX
  8
0
  5
2848
 10
37.5288
 20
73.0551
 30
0.00000
  70
    32
  0
VERTEX
  8
0
  5
2849
 10
37.5011
 20
73.0045
 30
0.00000
  70
    32
  0
VERTEX
  8
0
  5
284A
 10
37.4735
 20
72.9532
 30
0.00000
  70
    32
  0
VERTEX
  8
0
  5
284B
 10
37.4458
 20
72.9013
 30
0.00000
  70
    32
  0
VERTEX
  8
0
  5
284C
 10
37.4182
 20
72.8487
 30
0.00000
  70
    32
  0
VERTEX
  8
0
  5
284D
 10
37.3906
 20
72.7955
 30
0.00000
  70
    32
  0
VERTEX
  8
0
  5
284E
 10
37.3631
 20
72.7416
 30
0.00000
  70
    32
  0
VERTEX
  8
0
  5
284F
 10
37.3355
 20
72.6871
 30
0.00000
  70
    32
  0
VERTEX
  8
0
  5
2850
 10
37.3080
 20
72.6319
 30
0.00000
  70
    32
  0
VERTEX
  8
0
  5
2851
 10
37.2805
 20
72.5761
 30
0.00000
  70
    32
  0
VERTEX
  8
0
  5
2852
 10
37.2530
 20
72.5196
 30
0.00000
  70
    32
  0
VERTEX
  8
0
  5
2853
 10
37.2256
 20
72.4625
 30
0.00000
  70
    32
  0
VERTEX
  8
0
  5
2854
 10
37.1982
 20
72.4047
 30
0.00000
  70
    32
  0
VERTEX
  8
0
  5
2855
 10
37.1708
 20
72.3463
 30
0.00000
  70
    32
  0
VERTEX
  8
0
  5
2856
 10
37.1434
 20
72.2873
 30
0.00000
  70
    32
  0
VERTEX
  8
0
  5
2857
 10
37.1161
 20
72.2276
 30
0.00000
  70
    32
  0
VERTEX
  8
0
  5
2858
 10
37.0888
 20
72.1673
 30
0.00000
  70
    32
  0
VERTEX
  8
0
  5
2859
 10
37.0615
 20
72.1063
 30
0.00000
  70
    32
  0
VERTEX
  8
0
  5
285A
 10
37.0342
 20
72.0447
 30
0.00000
  70
    32
  0
VERTEX
  8
0
  5
285B
 10
37.0070
 20
71.9824
 30
0.00000
  70
    32
  0
VERTEX
  8
0
  5
285C
 10
36.9798
 20
71.9195
 30
0.00000
  70
    32
  0
VERTEX
  8
0
  5
285D
 10
36.9527
 20
71.8559
 30
0.00000
  70
    32
  0
VERTEX
  8
0
  5
285E
 10
36.9255
 20
71.7918
 30
0.00000
  70
    32
  0
VERTEX
  8
0
  5
285F
 10
36.8984
 20
71.7270
 30
0.00000
  70
    32
  0
VERTEX
  8
0
  5
2860
 10
36.8713
 20
71.6615
 30
0.00000
  70
    32
  0
VERTEX
  8
0
  5
2861
 10
36.8443
 20
71.5954
 30
0.00000
  70
    32
  0
VERTEX
  8
0
  5
2862
 10
36.8173
 20
71.5287
 30
0.00000
  70
    32
  0
VERTEX
  8
0
  5
2863
 10
36.7903
 20
71.4613
 30
0.00000
  70
    32
  0
VERTEX
  8
0
  5
2864
 10
36.7633
 20
71.3933
 30
0.00000
  70
    32
  0
SEQEND
  8
0
  5
2865
  0
POLYLINE
  5
2210
  8
0
 10
69.9633351350743169
 20
82.8958854018105455
 30
0.0
 66
     1
 70
     8
  0
VERTEX
  8
0
  5
2866
 10
69.9633
 20
82.8959
 30
0.00000
  70
    32
  0
VERTEX
  8
0
  5
2867
 10
69.9364
 20
82.9636
 30
0.00000
  70
    32
  0
VERTEX
  8
0
  5
2868
 10
69.9094
 20
83.0304
 30
0.00000
  70
    32
  0
VERTEX
  8
0
  5
2869
 10
69.8823
 20
83.0963
 30
0.00000
  70
    32
  0
VERTEX
  8
0
  5
286A
 10
69.8553
 20
83.1614
 30
0.00000
  70
    32
  0
VERTEX
  8
0
  5
286B
 10
69.8281
 20
83.2256
 30
0.00000
  70
    32
  0
VERTEX
  8
0
  5
286C
 10
69.8010
 20
83.2888
 30
0.00000
  70
    32
  0
VERTEX
  8
0
  5
286D
 10
69.7738
 20
83.3512
 30
0.00000
  70
    32
  0
VERTEX
  8
0
  5
286E
 10
69.7465
 20
83.4127
 30
0.00000
  70
    32
  0
VERTEX
  8
0
  5
286F
 10
69.7192
 20
83.4733
 30
0.00000
  70
    32
  0
VERTEX
  8
0
  5
2870
 10
69.6919
 20
83.5330
 30
0.00000
  70
    32
  0
VERTEX
  8
0
  5
2871
 10
69.6646
 20
83.5919
 30
0.00000
  70
    32
  0
VERTEX
  8
0
  5
2872
 10
69.6372
 20
83.6498
 30
0.00000
  70
    32
  0
VERTEX
  8
0
  5
2873
 10
69.6097
 20
83.7068
 30
0.00000
  70
    32
  0
VERTEX
  8
0
  5
2874
 10
69.5823
 20
83.7630
 30
0.00000
  70
    32
  0
VERTEX
  8
0
  5
2875
 10
69.5548
 20
83.8182
 30
0.00000
  70
    32
  0
VERTEX
  8
0
  5
2876
 10
69.5272
 20
83.8725
 30
0.00000
  70
    32
  0
VERTEX
  8
0
  5
2877
 10
69.4997
 20
83.9260
 30
0.00000
  70
    32
  0
VERTEX
  8
0
  5
2878
 10
69.4721
 20
83.9785
 30
0.00000
  70
    32
  0
VERTEX
  8
0
  5
2879
 10
69.4444
 20
84.0301
 30
0.00000
  70
    32
  0
VERTEX
  8
0
  5
287A
 10
69.4168
 20
84.0809
 30
0.00000
  70
    32
  0
VERTEX
  8
0
  5
287B
 10
69.3890
 20
84.1307
 30
0.00000
  70
    32
  0
VERTEX
  8
0
  5
287C
 10
69.3613
 20
84.1796
 30
0.00000
  70
    32
  0
VERTEX
  8
0
  5
287D
 10
69.3336
 20
84.2276
 30
0.00000
  70
    32
  0
VERTEX
  8
0
  5
287E
 10
69.3058
 20
84.2747
 30
0.00000
  70
    32
  0
VERTEX
  8
0
  5
287F
 10
69.2779
 20
84.3209
 30
0.00000
  70
    32
  0
VERTEX
  8
0
  5
2880
 10
69.2501
 20
84.3662
 30
0.00000
  70
    32
  0
VERTEX
  8
0
  5
2881
 10
69.2222
 20
84.4106
 30
0.00000
  70
    32
  0
VERTEX
  8
0
  5
2882
 10
69.1943
 20
84.4541
 30
0.00000
  70
    32
  0
VERTEX
  8
0
  5
2883
 10
69.1663
 20
84.4966
 30
0.00000
  70
    32
  0
VERTEX
  8
0
  5
2884
 10
69.1384
 20
84.5382
 30
0.00000
  70
    32
  0
VERTEX
  8
0
  5
2885
 10
69.1104
 20
84.5790
 30
0.00000
  70
    32
  0
VERTEX
  8
0
  5
2886
 10
69.0824
 20
84.6188
 30
0.00000
  70
    32
  0
VERTEX
  8
0
  5
2887
 10
69.0543
 20
84.6577
 30
0.00000
  70
    32
  0
VERTEX
  8
0
  5
2888
 10
69.0263
 20
84.6956
 30
0.00000
  70
    32
  0
VERTEX
  8
0
  5
2889
 10
68.9982
 20
84.7327
 30
0.00000
  70
    32
  0
VERTEX
  8
0
  5
288A
 10
68.9701
 20
84.7688
 30
0.00000
  70
    32
  0
VERTEX
  8
0
  5
288B
 10
68.9419
 20
84.8040
 30
0.00000
  70
    32
  0
VERTEX
  8
0
  5
288C
 10
68.9138
 20
84.8383
 30
0.00000
  70
    32
  0
VERTEX
  8
0
  5
288D
 10
68.8856
 20
84.8717
 30
0.00000
  70
    32
  0
VERTEX
  8
0
  5
288E
 10
68.8574
 20
84.9042
 30
0.00000
  70
    32
  0
VERTEX
  8
0
  5
288F
 10
68.8292
 20
84.9357
 30
0.00000
  70
    32
  0
VERTEX
  8
0
  5
2890
 10
68.8009
 20
84.9663
 30
0.00000
  70
    32
  0
VERTEX
  8
0
  5
2891
 10
68.7727
 20
84.9960
 30
0.00000
  70
    32
  0
VERTEX
  8
0
  5
2892
 10
68.7444
 20
85.0248
 30
0.00000
  70
    32
  0
VERTEX
  8
0
  5
2893
 10
68.7161
 20
85.0526
 30
0.00000
  70
    32
  0
VERTEX
  8
0
  5
2894
 10
68.6878
 20
85.0795
 30
0.00000
  70
    32
  0
VERTEX
  8
0
  5
2895
 10
68.6595
 20
85.1055
 30
0.00000
  70
    32
  0
VERTEX
  8
0
  5
2896
 10
68.6311
 20
85.1306
 30
0.00000
  70
    32
  0
VERTEX
  8
0
  5
2897
 10
68.6028
 20
85.1547
 30
0.00000
  70
    32
  0
VERTEX
  8
0
  5
2898
 10
68.5744
 20
85.1779
 30
0.00000
  70
    32
  0
VERTEX
  8
0
  5
2899
 10
68.5460
 20
85.2002
 30
0.00000
  70
    32
  0
VERTEX
  8
0
  5
289A
 10
68.5176
 20
85.2216
 30
0.00000
  70
    32
  0
VERTEX
  8
0
  5
289B
 10
68.4892
 20
85.2420
 30
0.00000
  70
    32
  0
VERTEX
  8
0
  5
289C
 10
68.4608
 20
85.2615
 30
0.00000
  70
    32
  0
VERTEX
  8
0
  5
289D
 10
68.4323
 20
85.2801
 30
0.00000
  70
    32
  0
VERTEX
  8
0
  5
289E
 10
68.4039
 20
85.2977
 30
0.00000
  70
    32
  0
VERTEX
  8
0
  5
289F
 10
68.3754
 20
85.3144
 30
0.00000
  70
    32
  0
VERTEX
  8
0
  5
28A0
 10
68.3469
 20
85.3302
 30
0.00000
  70
    32
  0
VERTEX
  8
0
  5
28A1
 10
68.3184
 20
85.3450
 30
0.00000
  70
    32
  0
VERTEX
  8
0
  5
28A2
 10
68.2899
 20
85.3589
 30
0.00000
  70
    32
  0
VERTEX
  8
0
  5
28A3
 10
68.2614
 20
85.3719
 30
0.00000
  70
    32
  0
VERTEX
  8
0
  5
28A4
 10
68.2329
 20
85.3840
 30
0.00000
  70
    32
  0
VERTEX
  8
0
  5
28A5
 10
68.2044
 20
85.3951
 30
0.00000
  70
    32
  0
VERTEX
  8
0
  5
28A6
 10
68.1759
 20
85.4053
 30
0.00000
  70
    32
  0
VERTEX
  8
0
  5
28A7
 10
68.1474
 20
85.4145
 30
0.00000
  70
    32
  0
VERTEX
  8
0
  5
28A8
 10
68.1188
 20
85.4229
 30
0.00000
  70
    32
  0
VERTEX
  8
0
  5
28A9
 10
68.0903
 20
85.4303
 30
0.00000
  70
    32
  0
VERTEX
  8
0
  5
28AA
 10
68.0617
 20
85.4367
 30
0.00000
  70
    32
  0
VERTEX
  8
0
  5
28AB
 10
68.0332
 20
85.4422
 30
0.00000
  70
    32
  0
VERTEX
  8
0
  5
28AC
 10
68.0046
 20
85.4468
 30
0.00000
  70
    32
  0
VERTEX
  8
0
  5
28AD
 10
67.9761
 20
85.4505
 30
0.00000
  70
    32
  0
VERTEX
  8
0
  5
28AE
 10
67.9475
 20
85.4532
 30
0.00000
  70
    32
  0
VERTEX
  8
0
  5
28AF
 10
67.9190
 20
85.4550
 30
0.00000
  70
    32
  0
VERTEX
  8
0
  5
28B0
 10
67.8904
 20
85.4559
 30
0.00000
  70
    32
  0
VERTEX
  8
0
  5
28B1
 10
67.8618
 20
85.4558
 30
0.00000
  70
    32
  0
VERTEX
  8
0
  5
28B2
 10
67.8333
 20
85.4548
 30
0.00000
  70
    32
  0
VERTEX
  8
0
  5
28B3
 10
67.8047
 20
85.4528
 30
0.00000
  70
    32
  0
VERTEX
  8
0
  5
28B4
 10
67.7762
 20
85.4500
 30
0.00000
  70
    32
  0
VERTEX
  8
0
  5
28B5
 10
67.7476
 20
85.4462
 30
0.00000
  70
    32
  0
VERTEX
  8
0
  5
28B6
 10
67.7191
 20
85.4414
 30
0.00000
  70
    32
  0
VERTEX
  8
0
  5
28B7
 10
67.6905
 20
85.4357
 30
0.00000
  70
    32
  0
VERTEX
  8
0
  5
28B8
 10
67.6620
 20
85.4291
 30
0.00000
  70
    32
  0
VERTEX
  8
0
  5
28B9
 10
67.6334
 20
85.4216
 30
0.00000
  70
    32
  0
VERTEX
  8
0
  5
28BA
 10
67.6049
 20
85.4131
 30
0.00000
  70
    32
  0
VERTEX
  8
0
  5
28BB
 10
67.5764
 20
85.4037
 30
0.00000
  70
    32
  0
VERTEX
  8
0
  5
28BC
 10
67.5478
 20
85.3934
 30
0.00000
  70
    32
  0
VERTEX
  8
0
  5
28BD
 10
67.5193
 20
85.3821
 30
0.00000
  70
    32
  0
VERTEX
  8
0
  5
28BE
 10
67.4908
 20
85.3699
 30
0.00000
  70
    32
  0
VERTEX
  8
0
  5
28BF
 10
67.4623
 20
85.3568
 30
0.00000
  70
    32
  0
VERTEX
  8
0
  5
28C0
 10
67.4338
 20
85.3427
 30
0.00000
  70
    32
  0
VERTEX
  8
0
  5
28C1
 10
67.4053
 20
85.3277
 30
0.00000
  70
    32
  0
VERTEX
  8
0
  5
28C2
 10
67.3769
 20
85.3118
 30
0.00000
  70
    32
  0
VERTEX
  8
0
  5
28C3
 10
67.3484
 20
85.2949
 30
0.00000
  70
    32
  0
VERTEX
  8
0
  5
28C4
 10
67.3200
 20
85.2771
 30
0.00000
  70
    32
  0
VERTEX
  8
0
  5
28C5
 10
67.2915
 20
85.2584
 30
0.00000
  70
    32
  0
VERTEX
  8
0
  5
28C6
 10
67.2631
 20
85.2388
 30
0.00000
  70
    32
  0
VERTEX
  8
0
  5
28C7
 10
67.2347
 20
85.2182
 30
0.00000
  70
    32
  0
VERTEX
  8
0
  5
28C8
 10
67.2063
 20
85.1967
 30
0.00000
  70
    32
  0
VERTEX
  8
0
  5
28C9
 10
67.1779
 20
85.1743
 30
0.00000
  70
    32
  0
VERTEX
  8
0
  5
28CA
 10
67.1495
 20
85.1509
 30
0.00000
  70
    32
  0
VERTEX
  8
0
  5
28CB
 10
67.1211
 20
85.1266
 30
0.00000
  70
    32
  0
VERTEX
  8
0
  5
28CC
 10
67.0928
 20
85.1014
 30
0.00000
  70
    32
  0
VERTEX
  8
0
  5
28CD
 10
67.0645
 20
85.0753
 30
0.00000
  70
    32
  0
VERTEX
  8
0
  5
28CE
 10
67.0362
 20
85.0482
 30
0.00000
  70
    32
  0
VERTEX
  8
0
  5
28CF
 10
67.0079
 20
85.0202
 30
0.00000
  70
    32
  0
VERTEX
  8
0
  5
28D0
 10
66.9796
 20
84.9913
 30
0.00000
  70
    32
  0
VERTEX
  8
0
  5
28D1
 10
66.9513
 20
84.9615
 30
0.00000
  70
    32
  0
VERTEX
  8
0
  5
28D2
 10
66.9231
 20
84.9307
 30
0.00000
  70
    32
  0
VERTEX
  8
0
  5
28D3
 10
66.8949
 20
84.8990
 30
0.00000
  70
    32
  0
VERTEX
  8
0
  5
28D4
 10
66.8667
 20
84.8664
 30
0.00000
  70
    32
  0
VERTEX
  8
0
  5
28D5
 10
66.8385
 20
84.8329
 30
0.00000
  70
    32
  0
VERTEX
  8
0
  5
28D6
 10
66.8104
 20
84.7984
 30
0.00000
  70
    32
  0
VERTEX
  8
0
  5
28D7
 10
66.7822
 20
84.7631
 30
0.00000
  70
    32
  0
VERTEX
  8
0
  5
28D8
 10
66.7541
 20
84.7268
 30
0.00000
  70
    32
  0
VERTEX
  8
0
  5
28D9
 10
66.7261
 20
84.6896
 30
0.00000
  70
    32
  0
VERTEX
  8
0
  5
28DA
 10
66.6980
 20
84.6515
 30
0.00000
  70
    32
  0
VERTEX
  8
0
  5
28DB
 10
66.6700
 20
84.6124
 30
0.00000
  70
    32
  0
VERTEX
  8
0
  5
28DC
 10
66.6419
 20
84.5725
 30
0.00000
  70
    32
  0
VERTEX
  8
0
  5
28DD
 10
66.6140
 20
84.5316
 30
0.00000
  70
    32
  0
VERTEX
  8
0
  5
28DE
 10
66.5860
 20
84.4898
 30
0.00000
  70
    32
  0
VERTEX
  8
0
  5
28DF
 10
66.5581
 20
84.4471
 30
0.00000
  70
    32
  0
VERTEX
  8
0
  5
28E0
 10
66.5302
 20
84.4035
 30
0.00000
  70
    32
  0
VERTEX
  8
0
  5
28E1
 10
66.5023
 20
84.3590
 30
0.00000
  70
    32
  0
VERTEX
  8
0
  5
28E2
 10
66.4744
 20
84.3136
 30
0.00000
  70
    32
  0
VERTEX
  8
0
  5
28E3
 10
66.4466
 20
84.2672
 30
0.00000
  70
    32
  0
VERTEX
  8
0
  5
28E4
 10
66.4188
 20
84.2200
 30
0.00000
  70
    32
  0
VERTEX
  8
0
  5
28E5
 10
66.3911
 20
84.1718
 30
0.00000
  70
    32
  0
VERTEX
  8
0
  5
28E6
 10
66.3633
 20
84.1228
 30
0.00000
  70
    32
  0
SEQEND
  8
0
  5
28E7
  0
POLYLINE
  5
2211
  8
0
 10
40.3633351350742799
 20
84.1227529173721251
 30
0.0
 66
     1
 70
     8
  0
VERTEX
  8
0
  5
28E8
 10
40.3633
 20
84.1228
 30
0.00000
  70
    32
  0
VERTEX
  8
0
  5
28E9
 10
40.3356
 20
84.1718
 30
0.00000
  70
    32
  0
VERTEX
  8
0
  5
28EA
 10
40.3078
 20
84.2200
 30
0.00000
  70
    32
  0
VERTEX
  8
0
  5
28EB
 10
40.2801
 20
84.2672
 30
0.00000
  70
    32
  0
VERTEX
  8
0
  5
28EC
 10
40.2522
 20
84.3136
 30
0.00000
  70
    32
  0
VERTEX
  8
0
  5
28ED
 10
40.2244
 20
84.3590
 30
0.00000
  70
    32
  0
VERTEX
  8
0
  5
28EE
 10
40.1965
 20
84.4035
 30
0.00000
  70
    32
  0
VERTEX
  8
0
  5
28EF
 10
40.1686
 20
84.4471
 30
0.00000
  70
    32
  0
VERTEX
  8
0
  5
28F0
 10
40.1407
 20
84.4898
 30
0.00000
  70
    32
  0
VERTEX
  8
0
  5
28F1
 10
40.1127
 20
84.5316
 30
0.00000
  70
    32
  0
VERTEX
  8
0
  5
28F2
 10
40.0847
 20
84.5725
 30
0.00000
  70
    32
  0
VERTEX
  8
0
  5
28F3
 10
40.0567
 20
84.6124
 30
0.00000
  70
    32
  0
VERTEX
  8
0
  5
28F4
 10
40.0287
 20
84.6515
 30
0.00000
  70
    32
  0
VERTEX
  8
0
  5
28F5
 10
40.0006
 20
84.6896
 30
0.00000
  70
    32
  0
VERTEX
  8
0
  5
28F6
 10
39.9725
 20
84.7268
 30
0.00000
  70
    32
  0
VERTEX
  8
0
  5
28F7
 10
39.9444
 20
84.7631
 30
0.00000
  70
    32
  0
VERTEX
  8
0
  5
28F8
 10
39.9163
 20
84.7984
 30
0.00000
  70
    32
  0
VERTEX
  8
0
  5
28F9
 10
39.8881
 20
84.8329
 30
0.00000
  70
    32
  0
VERTEX
  8
0
  5
28FA
 10
39.8600
 20
84.8664
 30
0.00000
  70
    32
  0
VERTEX
  8
0
  5
28FB
 10
39.8318
 20
84.8990
 30
0.00000
  70
    32
  0
VERTEX
  8
0
  5
28FC
 10
39.8036
 20
84.9307
 30
0.00000
  70
    32
  0
VERTEX
  8
0
  5
28FD
 10
39.7753
 20
84.9615
 30
0.00000
  70
    32
  0
VERTEX
  8
0
  5
28FE
 10
39.7471
 20
84.9913
 30
0.00000
  70
    32
  0
VERTEX
  8
0
  5
28FF
 10
39.7188
 20
85.0202
 30
0.00000
  70
    32
  0
VERTEX
  8
0
  5
2900
 10
39.6905
 20
85.0482
 30
0.00000
  70
    32
  0
VERTEX
  8
0
  5
2901
 10
39.6622
 20
85.0753
 30
0.00000
  70
    32
  0
VERTEX
  8
0
  5
2902
 10
39.6339
 20
85.1014
 30
0.00000
  70
    32
  0
VERTEX
  8
0
  5
2903
 10
39.6055
 20
85.1266
 30
0.00000
  70
    32
  0
VERTEX
  8
0
  5
2904
 10
39.5772
 20
85.1509
 30
0.00000
  70
    32
  0
VERTEX
  8
0
  5
2905
 10
39.5488
 20
85.1743
 30
0.00000
  70
    32
  0
VERTEX
  8
0
  5
2906
 10
39.5204
 20
85.1967
 30
0.00000
  70
    32
  0
VERTEX
  8
0
  5
2907
 10
39.4920
 20
85.2182
 30
0.00000
  70
    32
  0
VERTEX
  8
0
  5
2908
 10
39.4636
 20
85.2388
 30
0.00000
  70
    32
  0
VERTEX
  8
0
  5
2909
 10
39.4352
 20
85.2584
 30
0.00000
  70
    32
  0
VERTEX
  8
0
  5
290A
 10
39.4067
 20
85.2771
 30
0.00000
  70
    32
  0
VERTEX
  8
0
  5
290B
 10
39.3783
 20
85.2949
 30
0.00000
  70
    32
  0
VERTEX
  8
0
  5
290C
 10
39.3498
 20
85.3118
 30
0.00000
  70
    32
  0
VERTEX
  8
0
  5
290D
 10
39.3213
 20
85.3277
 30
0.00000
  70
    32
  0
VERTEX
  8
0
  5
290E
 10
39.2928
 20
85.3427
 30
0.00000
  70
    32
  0
VERTEX
  8
0
  5
290F
 10
39.2644
 20
85.3568
 30
0.00000
  70
    32
  0
VERTEX
  8
0
  5
2910
 10
39.2359
 20
85.3699
 30
0.00000
  70
    32
  0
VERTEX
  8
0
  5
2911
 10
39.2073
 20
85.3821
 30
0.00000
  70
    32
  0
VERTEX
  8
0
  5
2912
 10
39.1788
 20
85.3934
 30
0.00000
  70
    32
  0
VERTEX
  8
0
  5
2913
 10
39.1503
 20
85.4037
 30
0.00000
  70
    32
  0
VERTEX
  8
0
  5
2914
 10
39.1218
 20
85.4131
 30
0.00000
  70
    32
  0
VERTEX
  8
0
  5
2915
 10
39.0932
 20
85.4216
 30
0.00000
  70
    32
  0
VERTEX
  8
0
  5
2916
 10
39.0647
 20
85.4291
 30
0.00000
  70
    32
  0
VERTEX
  8
0
  5
2917
 10
39.0362
 20
85.4357
 30
0.00000
  70
    32
  0
VERTEX
  8
0
  5
2918
 10
39.0076
 20
85.4414
 30
0.00000
  70
    32
  0
VERTEX
  8
0
  5
2919
 10
38.9791
 20
85.4462
 30
0.00000
  70
    32
  0
VERTEX
  8
0
  5
291A
 10
38.9505
 20
85.4500
 30
0.00000
  70
    32
  0
VERTEX
  8
0
  5
291B
 10
38.9219
 20
85.4528
 30
0.00000
  70
    32
  0
VERTEX
  8
0
  5
291C
 10
38.8934
 20
85.4548
 30
0.00000
  70
    32
  0
VERTEX
  8
0
  5
291D
 10
38.8648
 20
85.4558
 30
0.00000
  70
    32
  0
VERTEX
  8
0
  5
291E
 10
38.8363
 20
85.4559
 30
0.00000
  70
    32
  0
VERTEX
  8
0
  5
291F
 10
38.8077
 20
85.4550
 30
0.00000
  70
    32
  0
VERTEX
  8
0
  5
2920
 10
38.7791
 20
85.4532
 30
0.00000
  70
    32
  0
VERTEX
  8
0
  5
2921
 10
38.7506
 20
85.4505
 30
0.00000
  70
    32
  0
VERTEX
  8
0
  5
2922
 10
38.7220
 20
85.4468
 30
0.00000
  70
    32
  0
VERTEX
  8
0
  5
2923
 10
38.6935
 20
85.4422
 30
0.00000
  70
    32
  0
VERTEX
  8
0
  5
2924
 10
38.6649
 20
85.4367
 30
0.00000
  70
    32
  0
VERTEX
  8
0
  5
2925
 10
38.6364
 20
85.4303
 30
0.00000
  70
    32
  0
VERTEX
  8
0
  5
2926
 10
38.6078
 20
85.4229
 30
0.00000
  70
    32
  0
VERTEX
  8
0
  5
2927
 10
38.5793
 20
85.4145
 30
0.00000
  70
    32
  0
VERTEX
  8
0
  5
2928
 10
38.5508
 20
85.4053
 30
0.00000
  70
    32
  0
VERTEX
  8
0
  5
2929
 10
38.5223
 20
85.3951
 30
0.00000
  70
    32
  0
VERTEX
  8
0
  5
292A
 10
38.4937
 20
85.3840
 30
0.00000
  70
    32
  0
VERTEX
  8
0
  5
292B
 10
38.4652
 20
85.3719
 30
0.00000
  70
    32
  0
VERTEX
  8
0
  5
292C
 10
38.4367
 20
85.3589
 30
0.00000
  70
    32
  0
VERTEX
  8
0
  5
292D
 10
38.4082
 20
85.3450
 30
0.00000
  70
    32
  0
VERTEX
  8
0
  5
292E
 10
38.3798
 20
85.3302
 30
0.00000
  70
    32
  0
VERTEX
  8
0
  5
292F
 10
38.3513
 20
85.3144
 30
0.00000
  70
    32
  0
VERTEX
  8
0
  5
2930
 10
38.3228
 20
85.2977
 30
0.00000
  70
    32
  0
VERTEX
  8
0
  5
2931
 10
38.2944
 20
85.2801
 30
0.00000
  70
    32
  0
VERTEX
  8
0
  5
2932
 10
38.2659
 20
85.2615
 30
0.00000
  70
    32
  0
VERTEX
  8
0
  5
2933
 10
38.2375
 20
85.2420
 30
0.00000
  70
    32
  0
VERTEX
  8
0
  5
2934
 10
38.2091
 20
85.2216
 30
0.00000
  70
    32
  0
VERTEX
  8
0
  5
2935
 10
38.1807
 20
85.2002
 30
0.00000
  70
    32
  0
VERTEX
  8
0
  5
2936
 10
38.1523
 20
85.1779
 30
0.00000
  70
    32
  0
VERTEX
  8
0
  5
2937
 10
38.1239
 20
85.1547
 30
0.00000
  70
    32
  0
VERTEX
  8
0
  5
2938
 10
38.0955
 20
85.1306
 30
0.00000
  70
    32
  0
VERTEX
  8
0
  5
2939
 10
38.0672
 20
85.1055
 30
0.00000
  70
    32
  0
VERTEX
  8
0
  5
293A
 10
38.0389
 20
85.0795
 30
0.00000
  70
    32
  0
VERTEX
  8
0
  5
293B
 10
38.0106
 20
85.0526
 30
0.00000
  70
    32
  0
VERTEX
  8
0
  5
293C
 10
37.9823
 20
85.0248
 30
0.00000
  70
    32
  0
VERTEX
  8
0
  5
293D
 10
37.9540
 20
84.9960
 30
0.00000
  70
    32
  0
VERTEX
  8
0
  5
293E
 10
37.9257
 20
84.9663
 30
0.00000
  70
    32
  0
VERTEX
  8
0
  5
293F
 10
37.8975
 20
84.9357
 30
0.00000
  70
    32
  0
VERTEX
  8
0
  5
2940
 10
37.8693
 20
84.9042
 30
0.00000
  70
    32
  0
VERTEX
  8
0
  5
2941
 10
37.8411
 20
84.8717
 30
0.00000
  70
    32
  0
VERTEX
  8
0
  5
2942
 10
37.8129
 20
84.8383
 30
0.00000
  70
    32
  0
VERTEX
  8
0
  5
2943
 10
37.7847
 20
84.8040
 30
0.00000
  70
    32
  0
VERTEX
  8
0
  5
2944
 10
37.7566
 20
84.7688
 30
0.00000
  70
    32
  0
VERTEX
  8
0
  5
2945
 10
37.7285
 20
84.7327
 30
0.00000
  70
    32
  0
VERTEX
  8
0
  5
2946
 10
37.7004
 20
84.6956
 30
0.00000
  70
    32
  0
VERTEX
  8
0
  5
2947
 10
37.6723
 20
84.6577
 30
0.00000
  70
    32
  0
VERTEX
  8
0
  5
2948
 10
37.6443
 20
84.6188
 30
0.00000
  70
    32
  0
VERTEX
  8
0
  5
2949
 10
37.6163
 20
84.5790
 30
0.00000
  70
    32
  0
VERTEX
  8
0
  5
294A
 10
37.5883
 20
84.5382
 30
0.00000
  70
    32
  0
VERTEX
  8
0
  5
294B
 10
37.5603
 20
84.4966
 30
0.00000
  70
    32
  0
VERTEX
  8
0
  5
294C
 10
37.5324
 20
84.4541
 30
0.00000
  70
    32
  0
VERTEX
  8
0
  5
294D
 10
37.5045
 20
84.4106
 30
0.00000
  70
    32
  0
VERTEX
  8
0
  5
294E
 10
37.4766
 20
84.3662
 30
0.00000
  70
    32
  0
VERTEX
  8
0
  5
294F
 10
37.4487
 20
84.3209
 30
0.00000
  70
    32
  0
VERTEX
  8
0
  5
2950
 10
37.4209
 20
84.2747
 30
0.00000
  70
    32
  0
VERTEX
  8
0
  5
2951
 10
37.3931
 20
84.2276
 30
0.00000
  70
    32
  0
VERTEX
  8
0
  5
2952
 10
37.3654
 20
84.1796
 30
0.00000
  70
    32
  0
VERTEX
  8
0
  5
2953
 10
37.3376
 20
84.1307
 30
0.00000
  70
    32
  0
VERTEX
  8
0
  5
2954
 10
37.3099
 20
84.0809
 30
0.00000
  70
    32
  0
VERTEX
  8
0
  5
2955
 10
37.2822
 20
84.0301
 30
0.00000
  70
    32
  0
VERTEX
  8
0
  5
2956
 10
37.2546
 20
83.9785
 30
0.00000
  70
    32
  0
VERTEX
  8
0
  5
2957
 10
37.2270
 20
83.9260
 30
0.00000
  70
    32
  0
VERTEX
  8
0
  5
2958
 10
37.1994
 20
83.8725
 30
0.00000
  70
    32
  0
VERTEX
  8
0
  5
2959
 10
37.1719
 20
83.8182
 30
0.00000
  70
    32
  0
VERTEX
  8
0
  5
295A
 10
37.1444
 20
83.7630
 30
0.00000
  70
    32
  0
VERTEX
  8
0
  5
295B
 10
37.1169
 20
83.7068
 30
0.00000
  70
    32
  0
VERTEX
  8
0
  5
295C
 10
37.0895
 20
83.6498
 30
0.00000
  70
    32
  0
VERTEX
  8
0
  5
295D
 10
37.0621
 20
83.5919
 30
0.00000
  70
    32
  0
VERTEX
  8
0
  5
295E
 10
37.0347
 20
83.5330
 30
0.00000
  70
    32
  0
VERTEX
  8
0
  5
295F
 10
37.0074
 20
83.4733
 30
0.00000
  70
    32
  0
VERTEX
  8
0
  5
2960
 10
36.9801
 20
83.4127
 30
0.00000
  70
    32
  0
VERTEX
  8
0
  5
2961
 10
36.9529
 20
83.3512
 30
0.00000
  70
    32
  0
VERTEX
  8
0
  5
2962
 10
36.9257
 20
83.2888
 30
0.00000
  70
    32
  0
VERTEX
  8
0
  5
2963
 10
36.8985
 20
83.2256
 30
0.00000
  70
    32
  0
VERTEX
  8
0
  5
2964
 10
36.8714
 20
83.1614
 30
0.00000
  70
    32
  0
VERTEX
  8
0
  5
2965
 10
36.8443
 20
83.0963
 30
0.00000
  70
    32
  0
VERTEX
  8
0
  5
2966
 10
36.8173
 20
83.0304
 30
0.00000
  70
    32
  0
VERTEX
  8
0
  5
2967
 10
36.7903
 20
82.9636
 30
0.00000
  70
    32
  0
VERTEX
  8
0
  5
2968
 10
36.7633
 20
82.8959
 30
0.00000
  70
    32
  0
SEQEND
  8
0
  5
2969
  0
LINE
  5
2212
  8
0
 10
36.7633351350748399
 20
71.3933092791838533
 30
0.0
 11
36.7633351350748399
 21
82.8958854018092666
 31
0.0
  0
LINE
  5
2213
  8
0
 10
69.9633351350748285
 20
82.8958854018092524
 30
0.0
 11
69.9633351350748285
 21
71.3933092791838391
 31
0.0
  0
POLYLINE
  5
2214
  8
0
 66
     1
 10
0.0
 20
0.0
 30
0.0
 70
   128
  0
VERTEX
  5
234A
  8
0
 10
65.3633351350752037
 20
66.0813468536721729
 30
0.0
  0
VERTEX
  5
234B
  8
0
 10
65.4572685427193051
 20
66.1011279316210221
 30
0.0
  0
VERTEX
  5
234C
  8
0
 10
66.1637519588836653
 20
66.4561993480502906
 30
0.0
  0
SEQEND
  5
234D
  8
0
  0
POLYLINE
  5
2215
  8
0
 66
     1
 10
0.0
 20
0.0
 30
0.0
 70
   128
  0
VERTEX
  5
234E
  8
0
 10
41.3633351350751965
 20
66.0813468536720592
 30
0.0
  0
VERTEX
  5
234F
  8
0
 10
41.269401727430072
 20
66.1011279316211215
 30
0.0
  0
VERTEX
  5
2350
  8
0
 10
40.562918311266003
 20
66.4561993480502906
 30
0.0
  0
SEQEND
  5
2351
  8
0
  0
LINE
  5
2216
  8
0
 10
56.8633351350748626
 20
83.6779651914714577
 30
0.0
 11
56.8633351350748626
 21
82.267464502296292
 31
0.0
  0
LINE
  5
2217
  8
0
 10
56.8633351350748626
 20
71.6644333190295129
 30
0.0
 11
56.8633351350748626
 21
68.4367782537294147
 31
0.0
  0
LINE
  5
2218
  8
0
 10
49.8633351350748626
 20
68.4367782537294147
 30
0.0
 11
49.8633351350748626
 21
71.6644333190294844
 31
0.0
  0
LINE
  5
2219
  8
0
 10
49.8633351350748626
 20
82.2674645022963063
 30
0.0
 11
49.8633351350748626
 21
83.6779651914714577
 31
0.0
  0
ARC
  5
2292
  8
0
 10
182.8700436251511121
 20
-88.746447652757027
 30
0.0
 40
208.0963263013732103
 50
132.1779916862720086
 51
133.0321421158425892
  0
LINE
  5
2298
  8
1
 10
96.3425148623961149
 20
131.1864371443168977
 30
0.0
 11
215.8925148623962116
 21
131.1864371443168977
 31
0.0
  0
LINE
  5
2299
  8
1
 10
114.8925148623960979
 20
149.7364371443169091
 30
0.0
 11
114.8925148623960979
 21
112.6364371443169006
 31
0.0
  0
CIRCLE
  5
229A
  8
0
 10
114.8925148623960979
 20
131.1864371443168977
 30
0.0
 40
3.323499999999739
  0
CIRCLE
  5
229B
  8
3
 10
114.8925148623960979
 20
131.1864371443168977
 30
0.0
 40
4.0
  0
LINE
  5
229C
  8
1
 10
114.8925148623959984
 20
53.9659489106629024
 30
0.0
 11
114.8925148623960979
 21
92.4659489106628456
 31
0.0
  0
LINE
  5
229D
  8
1
 10
97.9588206405200168
 20
76.9659489106629024
 30
0.0
 11
131.8262090842721079
 21
76.9659489106629024
 31
0.0
  0
LINE
  5
229E
  8
1
 10
97.8925148623960553
 20
75.4659489106629024
 30
0.0
 11
131.8925148623960979
 21
75.4659489106629024
 31
0.0
  0
LINE
  5
22A0
  8
2
 10
50.0398351350748385
 20
82.198283346910074
 30
0.0
 11
50.0398351350748385
 21
71.7341354062075851
 31
0.0
  0
LINE
  5
22A1
  8
2
 10
56.6868351350748299
 20
71.7339642229219834
 30
0.0
 11
56.6868351350748299
 21
82.1982927129476337
 31
0.0
  0
LINE
  5
22A2
  8
2
 10
49.3633351350748129
 20
71.4659489106629024
 30
0.0
 11
49.3633351350748129
 21
82.4659489106629024
 31
0.0
  0
LINE
  5
22A3
  8
2
 10
57.3633351350748626
 20
71.4659489106629024
 30
0.0
 11
57.3633351350748626
 21
82.4659489106629024
 31
0.0
  0
LINE
  5
22A4
  8
1
 10
53.3633351350747986
 20
90.4559489106628547
 30
0.0
 11
53.3633351350747986
 21
53.9659489106628527
 31
0.0
  0
LINE
  5
22A5
  8
1
 10
31.7633351350748399
 20
76.9659489106629024
 30
0.0
 11
74.9633351350748285
 21
76.9659489106629024
 31
0.0
  0
ENDSEC
  0
EOF
