  0
SECTION
  2
HEADER
  9
$ACADVER
  1
AC1009
  9
$INSBASE
 10
0.0
 20
0.0
 30
0.0
  9
$EXTMIN
 10
0.0
 20
-2.960436562073669
 30
0.0
  9
$EXTMAX
 10
171.9939315498079964
 20
115.0183264246372943
 30
0.0
  9
$LIMMIN
 10
0.0
 20
0.0
  9
$LIMMAX
 10
375.0
 20
270.0
  9
$ORTHOMODE
 70
     1
  9
$REGENMODE
 70
     1
  9
$FILLMODE
 70
     1
  9
$QTEXTMODE
 70
     0
  9
$MIRRTEXT
 70
     0
  9
$DRAGMODE
 70
     2
  9
$LTSCALE
 40
5.0
  9
$OSMODE
 70
    37
  9
$ATTMODE
 70
     1
  9
$TEXTSIZE
 40
0.2
  9
$TRACEWID
 40
0.05
  9
$TEXTSTYLE
  7
STANDARD
  9
$CLAYER
  8
0
  9
$CELTYPE
  6
BYLAYER
  9
$CECOLOR
 62
   256
  9
$DIMSCALE
 40
1.0
  9
$DIMASZ
 40
3.0
  9
$DIMEXO
 40
2.0
  9
$DIMDLI
 40
10.0
  9
$DIMRND
 40
0.0
  9
$DIMDLE
 40
0.0
  9
$DIMEXE
 40
2.0
  9
$DIMTP
 40
0.0
  9
$DIMTM
 40
0.0
  9
$DIMTXT
 40
3.2000000000000002
  9
$DIMCEN
 40
0.0
  9
$DIMTSZ
 40
0.0
  9
$DIMTOL
 70
     0
  9
$DIMLIM
 70
     0
  9
$DIMTIH
 70
     0
  9
$DIMTOH
 70
     0
  9
$DIMSE1
 70
     0
  9
$DIMSE2
 70
     0
  9
$DIMTAD
 70
     1
  9
$DIMZIN
 70
     8
  9
$DIMBLK
  1

  9
$DIMASO
 70
     0
  9
$DIMSHO
 70
     0
  9
$DIMPOST
  1

  9
$DIMAPOST
  1

  9
$DIMALT
 70
     0
  9
$DIMALTD
 70
     2
  9
$DIMALTF
 40
25.3999999999999986
  9
$DIMLFAC
 40
1.0
  9
$DIMTOFL
 70
     1
  9
$DIMTVP
 40
1.6000000000000001
  9
$DIMTIX
 70
     0
  9
$DIMSOXD
 70
     0
  9
$DIMSAH
 70
     0
  9
$DIMBLK1
  1

  9
$DIMBLK2
  1

  9
$DIMSTYLE
  2
STANDARD
  9
$DIMCLRD
 70
   256
  9
$DIMCLRE
 70
   256
  9
$DIMCLRT
 70
   256
  9
$DIMTFAC
 40
1.0
  9
$DIMGAP
 40
0.5
  9
$LUNITS
 70
     2
  9
$LUPREC
 70
     1
  9
$SKETCHINC
 40
0.1
  9
$FILLETRAD
 40
0.0
  9
$AUNITS
 70
     0
  9
$AUPREC
 70
     1
  9
$MENU
  1
E:\r13\win\SUPPORT\ACAD
  9
$ELEVATION
 40
0.0
  9
$PELEVATION
 40
0.0
  9
$THICKNESS
 40
0.0
  9
$LIMCHECK
 70
     0
  9
$BLIPMODE
 70
     0
  9
$CHAMFERA
 40
0.0
  9
$CHAMFERB
 40
0.0
  9
$SKPOLY
 70
     0
  9
$TDCREATE
 40
2449840.6171180559322238
  9
$TDUPDATE
 40
2460566.5216782409697771
  9
$TDINDWG
 40
0.1798517361
  9
$TDUSRTIMER
 40
0.1798517361
  9
$USRTIMER
 70
     1
  9
$ANGBASE
 50
0.0
  9
$ANGDIR
 70
     0
  9
$PDMODE
 70
     0
  9
$PDSIZE
 40
0.0
  9
$PLINEWID
 40
0.0
  9
$COORDS
 70
     1
  9
$SPLFRAME
 70
     0
  9
$SPLINETYPE
 70
     6
  9
$SPLINESEGS
 70
     8
  9
$ATTDIA
 70
     1
  9
$ATTREQ
 70
     1
  9
$HANDLING
 70
     1
  9
$HANDSEED
  5
26A2
  9
$SURFTAB1
 70
     6
  9
$SURFTAB2
 70
     6
  9
$SURFTYPE
 70
     6
  9
$SURFU
 70
     6
  9
$SURFV
 70
     6
  9
$UCSNAME
  2

  9
$UCSORG
 10
0.0
 20
0.0
 30
0.0
  9
$UCSXDIR
 10
1.0
 20
0.0
 30
0.0
  9
$UCSYDIR
 10
0.0
 20
1.0
 30
0.0
  9
$PUCSNAME
  2

  9
$PUCSORG
 10
0.0
 20
0.0
 30
0.0
  9
$PUCSXDIR
 10
1.0
 20
0.0
 30
0.0
  9
$PUCSYDIR
 10
0.0
 20
1.0
 30
0.0
  9
$USERI1
 70
     0
  9
$USERI2
 70
     1
  9
$USERI3
 70
     0
  9
$USERI4
 70
     0
  9
$USERI5
 70
     0
  9
$USERR1
 40
0.0
  9
$USERR2
 40
0.0
  9
$USERR3
 40
0.0
  9
$USERR4
 40
0.0
  9
$USERR5
 40
0.0
  9
$WORLDVIEW
 70
     1
  9
$SHADEDGE
 70
     3
  9
$SHADEDIF
 70
    70
  9
$TILEMODE
 70
     1
  9
$MAXACTVP
 70
    16
  9
$PLIMCHECK
 70
     0
  9
$PEXTMIN
 10
1.0000000000000000E+20
 20
1.0000000000000000E+20
 30
1.0000000000000000E+20
  9
$PEXTMAX
 10
-1.0000000000000000E+20
 20
-1.0000000000000000E+20
 30
-1.0000000000000000E+20
  9
$PLIMMIN
 10
0.0
 20
0.0
  9
$PLIMMAX
 10
12.0
 20
9.0
  9
$UNITMODE
 70
     0
  9
$VISRETAIN
 70
     0
  9
$PLINEGEN
 70
     0
  9
$PSLTSCALE
 70
     0
  0
ENDSEC
  0
SECTION
  2
TABLES
  0
TABLE
  2
VPORT
 70
     1
  0
VPORT
  2
*ACTIVE
 70
     0
 10
0.0
 20
0.0
 11
1.0
 21
1.0
 12
104.5650968623894954
 22
56.0291065709682812
 13
0.0
 23
0.0
 14
10.0
 24
10.0
 15
10.0
 25
10.0
 16
0.0
 26
0.0
 36
1.0
 17
0.0
 27
0.0
 37
0.0
 40
118.9600187479460942
 41
2.3485221674876842
 42
50.0
 43
0.0
 44
0.0
 50
0.0
 51
0.0
 71
     0
 72
   100
 73
     1
 74
     0
 75
     0
 76
     0
 77
     0
 78
     0
  0
ENDTAB
  0
TABLE
  2
LTYPE
 70
     4
  0
LTYPE
  2
CONTINUOUS
 70
     0
  3
Solid Line
 72
    65
 73
     0
 40
0.0
  0
LTYPE
  2
CENTER
 70
     0
  3
____ _ ____ _ ____ _ ____ _ ____ _ ____ _ ____
 72
    65
 73
     4
 40
2.0
 49
1.25
 49
-0.25
 49
0.25
 49
-0.25
  0
LTYPE
  2
HIDDEN
 70
     0
  3
Hidden __ __ __ __ __ __ __ __ __ __ __ __ __ _
 72
    65
 73
     2
 40
0.375
 49
0.25
 49
-0.125
  0
LTYPE
  2
PHANTOM2
 70
     0
  3
___ _ _ ___ _ _ ___ _ _ ___ _ _
 72
    65
 73
     6
 40
1.25
 49
0.625
 49
-0.125
 49
0.125
 49
-0.125
 49
0.125
 49
-0.125
  0
ENDTAB
  0
TABLE
  2
LAYER
 70
     5
  0
LAYER
  2
0
 70
     0
 62
     7
  6
CONTINUOUS
  0
LAYER
  2
1
 70
     0
 62
     1
  6
CENTER
  0
LAYER
  2
3
 70
     0
 62
     3
  6
CONTINUOUS
  0
LAYER
  2
2
 70
     0
 62
     2
  6
HIDDEN
  0
LAYER
  2
DEFPOINTS
 70
     0
 62
     7
  6
CONTINUOUS
  0
ENDTAB
  0
TABLE
  2
STYLE
 70
     2
  0
STYLE
  2
STANDARD
 70
     0
 40
0.0
 41
1.0
 50
0.0
 71
     0
 42
0.2
  3
TXT
  4
BIGFONT
  0
STYLE
  2
STANDARD1
 70
     0
 40
0.0
 41
1.0
 50
0.0
 71
     0
 42
3.0
  3
txt
  4

  0
ENDTAB
  0
TABLE
  2
VIEW
 70
     1
  0
VIEW
  2
ALL
 70
     0
 40
270.0
 10
220.9915970000000129
 20
135.0
 41
0.0
 11
0.0
 21
0.0
 31
1.0
 12
0.0
 22
0.0
 32
0.0
 42
0.0
 43
0.0
 44
0.0
 50
0.0
 71
     0
  0
ENDTAB
  0
TABLE
  2
UCS
 70
     0
  0
ENDTAB
  0
TABLE
  2
APPID
 70
     7
  0
APPID
  2
ACAD
 70
     0
  0
APPID
  2
ACAD_EXEMPT_FROM_CAD_STANDARDS
 70
     0
  0
APPID
  2
ACAD_MLEADERVER
 70
     0
  0
APPID
  2
ACAD_NAV_VCDISPLAY
 70
     0
  0
APPID
  2
ACAD_DSTYLE_DIMJAG
 70
     0
  0
APPID
  2
ACAD_DSTYLE_DIMTALN
 70
     0
  0
APPID
  2
ACAD_DSTYLE_DIMRADIAL_EXTENSION
 70
     0
  0
ENDTAB
  0
TABLE
  2
DIMSTYLE
 70
     2
  0
DIMSTYLE
  2
STANDARD
 70
     0
  3

  4

  5

  6

  7

 40
1.0
 41
0.18
 42
0.0625
 43
0.38
 44
0.18
 45
0.0
 46
0.0
 47
0.0
 48
0.0
140
0.18
141
0.09
142
0.0
143
25.3999999999999986
144
1.0
145
0.0
146
1.0
147
0.09
 71
     0
 72
     0
 73
     1
 74
     1
 75
     0
 76
     0
 77
     0
 78
     0
170
     0
171
     2
172
     0
173
     0
174
     0
175
     0
176
     0
177
     0
178
     0
  0
DIMSTYLE
  2
ISO-25
 70
     0
  3

  4

  5

  6

  7

 40
1.0
 41
2.5
 42
0.625
 43
3.75
 44
1.25
 45
0.0
 46
0.0
 47
0.0
 48
0.0
140
2.5
141
2.5
142
0.0
143
0.03937007874016
144
1.0
145
0.0
146
1.0
147
0.625
 71
     0
 72
     0
 73
     0
 74
     0
 75
     0
 76
     0
 77
     1
 78
     8
170
     0
171
     3
172
     1
173
     0
174
     0
175
     0
176
     0
177
     0
178
     0
  0
ENDTAB
  0
ENDSEC
  0
SECTION
  2
BLOCKS
  0
BLOCK
  8
0
  2
$MODEL_SPACE
 70
     0
 10
0.0
 20
0.0
 30
0.0
  3
$MODEL_SPACE
  1

  0
ENDBLK
  5
E8
  8
0
  0
BLOCK
 67
     1
  8
0
  2
$PAPER_SPACE
 70
     0
 10
0.0
 20
0.0
 30
0.0
  3
$PAPER_SPACE
  1

  0
ENDBLK
  5
E6
 67
     1
  8
0
  0
ENDSEC
  0
SECTION
  2
ENTITIES
  0
TEXT
  5
E87
  8
0
 62
     3
 10
0.0
 20
0.0
 30
0.0
 40
10.0
  1
KCLS05
  7
STANDARD1
  0
LINE
  5
1FBB
  8
0
 10
88.5939315498081186
 20
43.4467194131633505
 30
0.0
 11
89.593931549808147
 21
42.4467194131633505
 31
0.0
  0
LINE
  5
1FBC
  8
0
 10
103.5939315498080049
 20
42.4467194131633505
 30
0.0
 11
104.5939315498080049
 21
43.4467194131633505
 31
0.0
  0
LINE
  5
1FBD
  8
0
 10
104.5939315498080049
 20
43.4467194131633505
 30
0.0
 11
104.5939315498080049
 21
48.1467194131634528
 31
0.0
  0
LINE
  5
1FBE
  8
0
 10
88.5939315498081186
 20
48.1467194131634528
 30
0.0
 11
88.5939315498081186
 21
43.4467194131633505
 31
0.0
  0
LINE
  5
1FBF
  8
0
 10
89.593931549808147
 20
49.1467194131633391
 30
0.0
 11
88.5939315498082465
 21
48.1467194131634528
 31
0.0
  0
LINE
  5
1FC0
  8
0
 10
104.5939315498079054
 20
48.1467194131634528
 30
0.0
 11
103.5939315498080049
 21
49.1467194131633391
 31
0.0
  0
LINE
  5
1FC1
  8
0
 10
88.5939315498081186
 20
43.4467194131633505
 30
0.0
 11
104.5939315498080049
 21
43.4467194131633505
 31
0.0
  0
LINE
  5
1FC3
  8
0
 10
89.5939315498080759
 20
42.4467194131633505
 30
0.0
 11
103.5939315498080049
 21
42.4467194131633505
 31
0.0
  0
LINE
  5
1FC4
  8
0
 10
104.5939315498080049
 20
48.1467194131634528
 30
0.0
 11
100.983229357978999
 21
48.1467194131634812
 31
0.0
  0
LINE
  5
1FC5
  8
0
 10
92.6287707712264705
 20
48.1467194131634528
 30
0.0
 11
88.5939315498081186
 21
48.1467194131634528
 31
0.0
  0
LINE
  5
1FC7
  8
0
 10
91.0873445850902357
 20
49.1467194131633391
 30
0.0
 11
89.593931549808147
 21
49.1467194131633391
 31
0.0
  0
LINE
  5
1FCA
  8
0
 10
103.5939315498080049
 20
49.1467194131633391
 30
0.0
 11
102.6060153280003959
 21
49.146719413163332
 31
0.0
  0
CIRCLE
  5
1FCC
  8
0
 10
96.5939315498080759
 20
57.1467194131633391
 30
0.0
 40
4.5
  0
LINE
  5
1FCD
  8
0
 10
166.99393154980811
 20
53.2362805777554229
 30
0.0
 11
166.99393154980811
 21
54.0696202084529318
 31
0.0
  0
ARC
  5
1FCE
  8
0
 10
164.984003209087092
 20
53.2361568811601771
 30
0.0
 40
2.0099283445272769
 50
240.1651766476219052
 51
0.0035261420509361
  0
ARC
  5
1FD0
  8
0
 10
164.5005259744351065
 20
54.0728737655095415
 30
0.0
 40
2.4934076980980659
 50
359.9252367991045958
 51
52.5963807829757286
  0
ARC
  5
1FD1
  8
0
 10
146.3739315498075086
 20
30.436719413162109
 30
0.0
 40
32.2800000000014222
 50
52.521617582079287
 51
71.3292277442377269
  0
ARC
  5
1FD2
  8
0
 10
141.592220527602592
 20
12.4430038024721004
 30
0.0
 40
45.0140744153158607
 50
60.1691661312746078
 51
70.3791133258036723
  0
LINE
  5
1FD4
  8
0
 10
156.1569846471531946
 20
61.1985508296204372
 30
0.0
 11
156.7077201262331982
 21
61.0179426335930088
 31
0.0
  0
LINE
  5
1FD5
  8
0
 10
156.1569846471531946
 20
55.0356567617742698
 30
0.0
 11
156.7077201262331982
 21
54.8433406802775778
 31
0.0
  0
ARC
  5
1FD7
  8
0
 10
141.5939315498081044
 20
12.44671941316426
 30
0.0
 40
50.8899999999990698
 50
76.0896677445099385
 51
95.6384716391328027
  0
LINE
  5
1FD8
  8
0
 10
153.8280447844306877
 20
61.8442757632747586
 30
0.0
 11
156.1569846471531946
 21
61.1985508296204372
 31
0.0
  0
ARC
  5
1FD9
  8
0
 10
141.5939315498081044
 20
12.4467194131631196
 30
0.0
 40
45.0100000000001828
 50
71.1221587576221452
 51
96.3779470016016404
  0
ARC
  5
1FDA
  8
0
 10
115.8639315498082993
 20
125.226719413162499
 30
0.0
 40
65.1399999999991195
 50
270.0
 51
278.9060987494024744
  0
ARC
  5
1FDB
  8
0
 10
118.1039315498082942
 20
130.1267194131615952
 30
0.0
 40
75.0299999999982816
 50
268.2891960663245072
 51
280.1646527152312842
  0
ARC
  5
1FDD
  8
0
 10
141.5939315498081044
 20
12.4467194131633203
 30
0.0
 40
50.8900000000000077
 50
95.6384716391311542
 51
107.9046580861958944
  0
ARC
  5
1FDE
  8
0
 10
141.5939315498081044
 20
12.4467194131631196
 30
0.0
 40
45.010000000000197
 50
96.3779470016016404
 51
103.1618477545109016
  0
ARC
  5
1FDF
  8
0
 10
112.6638416148782937
 20
45.2867996933495078
 30
0.0
 40
10.0100000000000495
 50
90.1994608608010253
 51
144.309358299754507
  0
ARC
  5
1FE0
  8
0
 10
96.835916940722484
 20
56.6936369694330367
 30
0.0
 40
9.4999999999999751
 50
268.5403956471843117
 51
324.1269467429282827
  0
ARC
  5
1FE1
  8
0
 10
96.5939315498080759
 20
55.9467194131633505
 30
0.0
 40
8.7500000000000142
 50
55.0211520291481904
 51
270.0
  0
ARC
  5
1FE2
  8
0
 10
110.2091887843130991
 20
75.4066081702515447
 30
0.0
 40
14.9999999999997904
 50
235.0211520291483112
 51
263.5244580538733885
  0
POLYLINE
  5
1FE4
  8
0
 66
     1
 10
0.0
 20
0.0
 30
0.0
  0
VERTEX
  5
21D2
  8
0
 10
115.8639315498081004
 20
60.0867194131633298
 30
0.0
  0
VERTEX
  5
21D3
  8
0
 10
112.1848443630326955
 20
60.1906992591586274
 30
0.0
  0
VERTEX
  5
21D4
  8
0
 10
108.517502675768597
 20
60.5023068410999372
 30
0.0
  0
SEQEND
  5
21D5
  8
0
  0
LINE
  5
1FE5
  8
0
 10
115.8639315498081004
 20
55.1301641589384985
 30
0.0
 11
112.6289943852786024
 21
55.2967390373510099
 31
0.0
  0
LINE
  5
1FE6
  8
0
 10
92.0939315498080759
 20
103.9683264246372971
 30
0.0
 11
92.0939315498080759
 21
97.9683264246372545
 31
0.0
  0
LINE
  5
1FE7
  8
0
 10
101.0939315498081044
 20
97.9683264246372545
 30
0.0
 11
101.0939315498081044
 21
103.9683264246372971
 31
0.0
  0
LINE
  5
1FE8
  8
0
 10
87.8439315498080759
 20
108.4683264246372971
 30
0.0
 11
87.8439315498080759
 21
103.9683264246372971
 31
0.0
  0
LINE
  5
1FE9
  8
0
 10
87.8439315498080759
 20
97.9683264246373255
 30
0.0
 11
87.8439315498080759
 21
93.4683264246373255
 31
0.0
  0
ARC
  5
1FEA
  8
0
 10
96.5896488045818273
 20
100.3138383068908013
 30
0.0
 40
7.3700398042937998
 50
248.2531158296731064
 51
291.7468841703287126
  0
ARC
  5
1FEB
  8
0
 10
96.5982142950400657
 20
101.6228145422169007
 30
0.0
 40
7.3700398044532243
 50
68.2531158288718558
 51
111.7468841711281016
  0
ARC
  5
1FEC
  8
0
 10
96.5939315498080759
 20
100.9683264246372971
 30
0.0
 40
6.9999999999999947
 50
154.5531861029504057
 51
205.509703996390698
  0
ARC
  5
1FED
  8
0
 10
96.5939315498080759
 20
100.9683264246372971
 30
0.0
 40
7.999999999999992
 50
157.8773108123830013
 51
202.0482870069438945
  0
ARC
  5
1FEE
  8
0
 10
96.5939315498080759
 20
100.9683264246372971
 30
0.0
 40
6.9999999999999813
 50
334.6230664748479171
 51
25.3769335251521113
  0
POLYLINE
  5
1FFB
  8
0
 66
     1
 10
0.0
 20
0.0
 30
0.0
  0
VERTEX
  5
21D6
  8
0
 10
125.948616287188301
 20
92.9818486273686062
 30
0.0
  0
VERTEX
  5
21D7
  8
0
 10
128.2235256659726019
 20
92.8720513699321231
 30
0.0
  0
VERTEX
  5
21D8
  8
0
 10
130.7554028761705069
 20
92.7498652503314247
 30
0.0
  0
VERTEX
  5
21D9
  8
0
 10
133.5460496118253104
 20
92.6152902685664685
 30
0.0
  0
VERTEX
  5
21DA
  8
0
 10
136.5939315498081044
 20
92.4683264246373255
 30
0.0
  0
SEQEND
  5
21DB
  8
0
  0
LINE
  5
1FFD
  8
0
 10
136.5939315498081044
 20
109.4683264246372971
 30
0.0
 11
125.948616287188301
 21
108.9548042219060022
 31
0.0
  0
LINE
  5
1FFE
  8
0
 10
153.8280447844277887
 20
111.4504687101456994
 30
0.0
 11
136.5939315498081044
 21
109.4683264246372971
 31
0.0
  0
POLYLINE
  5
2000
  8
0
 66
     1
 10
0.0
 20
0.0
 30
0.0
  0
VERTEX
  5
21DC
  8
0
 10
136.5939315498081044
 20
92.4683264246373255
 30
0.0
  0
VERTEX
  5
21DD
  8
0
 10
140.0587271249237915
 20
92.0702952220105431
 30
0.0
  0
VERTEX
  5
21DE
  8
0
 10
143.5306681966555971
 20
91.6711328631544546
 30
0.0
  0
VERTEX
  5
21DF
  8
0
 10
146.9909882802666061
 20
91.2719144496567338
 30
0.0
  0
VERTEX
  5
21E0
  8
0
 10
150.427515583477998
 20
90.876824916111218
 30
0.0
  0
VERTEX
  5
21E1
  8
0
 10
153.8280447844306877
 20
90.4861841391285111
 30
0.0
  0
SEQEND
  5
21E2
  8
0
  0
ARC
  5
2002
  8
0
 10
103.0939315498081044
 20
98.9683264246372829
 30
0.0
 40
0.9999999999999715
 50
269.9999999999984084
 51
0.0000000000016284
  0
LINE
  5
2003
  8
0
 10
104.0939315498081044
 20
98.9683264246373255
 30
0.0
 11
104.0939315498081044
 21
102.9683264246372971
 31
0.0
  0
ARC
  5
2004
  8
0
 10
103.0939315498082038
 20
102.9683264246373966
 30
0.0
 40
0.999999999999943
 50
359.9999999999968168
 51
90.0000000000032543
  0
LINE
  5
2006
  8
0
 10
87.8439315498080759
 20
97.9683264246373255
 30
0.0
 11
103.0939315498081044
 21
97.9683264246373255
 31
0.0
  0
LINE
  5
2007
  8
0
 10
103.0939315498081044
 20
103.9683264246372971
 30
0.0
 11
87.8439315498080759
 21
103.9683264246372971
 31
0.0
  0
ARC
  5
2009
  8
0
 10
156.2439313812207047
 20
100.9683264246374961
 30
0.0
 40
10.7600000000002094
 50
272.4703878077360741
 51
335.2440832748520734
  0
LINE
  5
200A
  8
0
 10
156.1569846471531946
 20
90.2183264246373255
 30
0.0
 11
156.7077201262331982
 21
90.2183264246373255
 31
0.0
  0
LINE
  5
200B
  8
0
 10
156.707720126233113
 20
111.7183264246372971
 30
0.0
 11
156.1569846471531946
 21
111.7183264246372971
 31
0.0
  0
ARC
  5
200C
  8
0
 10
156.2439313812207899
 20
100.9683264246371976
 30
0.0
 40
10.7600000000000602
 50
24.7559167251478698
 51
87.5296121922654748
  0
LINE
  5
200E
  8
0
 10
156.1569846471531946
 20
111.7183264246372971
 30
0.0
 11
153.8280447844277887
 21
111.4504687101456994
 31
0.0
  0
LINE
  5
200F
  8
0
 10
153.8280447844306877
 20
90.4861841391285111
 30
0.0
 11
156.1569846471531946
 21
90.2183264246373255
 31
0.0
  0
LINE
  5
2010
  8
0
 10
125.948616287188301
 20
108.9548042219060022
 30
0.0
 11
115.8639315498081004
 21
108.4683264246372971
 31
0.0
  0
POLYLINE
  5
2011
  8
0
 66
     1
 10
0.0
 20
0.0
 30
0.0
  0
VERTEX
  5
21E3
  8
0
 10
115.8639315498081004
 20
93.4683264246373255
 30
0.0
  0
VERTEX
  5
21E4
  8
0
 10
119.2375583235651959
 20
93.3061671588810668
 30
0.0
  0
VERTEX
  5
21E5
  8
0
 10
122.6021301253576041
 20
93.1440078931248081
 30
0.0
  0
VERTEX
  5
21E6
  8
0
 10
125.948616287188301
 20
92.9818486273686062
 30
0.0
  0
SEQEND
  5
21E7
  8
0
  0
LINE
  5
2012
  8
0
 10
115.8639315498081004
 20
93.4683264246373255
 30
0.0
 11
87.8439315498081328
 21
93.4683264246373113
 31
0.0
  0
LINE
  5
2013
  8
0
 10
87.8439315498081328
 20
108.4683264246372971
 30
0.0
 11
115.8639315498081004
 21
108.4683264246372971
 31
0.0
  0
LINE
  5
2014
  8
0
 10
166.99393154980811
 20
100.5045415872695003
 30
0.0
 11
166.99393154980811
 21
101.4321112620052929
 31
0.0
  0
ARC
  5
2015
  8
0
 10
156.2439313812051012
 20
100.9683264246335028
 30
0.0
 40
10.76000000001582
 50
2.4703669806342581
 51
24.755916725131911
  0
ARC
  5
2016
  8
0
 10
156.2439313812161004
 20
100.968326424638505
 30
0.0
 40
10.7600000000047196
 50
335.2440832748570188
 51
357.5296330193837093
  0
LINE
  5
201B
  8
0
 10
48.8299516641300215
 20
43.4467194131633505
 30
0.0
 11
48.8299516641300215
 21
47.1492766523708724
 31
0.0
  0
LINE
  5
201C
  8
0
 10
32.8299516641300215
 20
47.1492766523708724
 30
0.0
 11
32.8299516641300215
 21
43.4467194131633505
 31
0.0
  0
LINE
  5
201D
  8
0
 10
32.8299516641300215
 20
43.4467194131633505
 30
0.0
 11
33.8299516641300215
 21
42.4467194131633505
 31
0.0
  0
LINE
  5
201E
  8
0
 10
47.8299516641300215
 20
42.4467194131633505
 30
0.0
 11
48.8299516641300215
 21
43.4467194131633505
 31
0.0
  0
LINE
  5
201F
  8
0
 10
43.3188252925629271
 20
52.6467194131633391
 30
0.0
 11
43.8299516641300499
 21
52.6467194131633391
 31
0.0
  0
LINE
  5
2020
  8
0
 10
37.8299516641300784
 20
52.6467194131633391
 30
0.0
 11
38.3410780356971088
 21
52.6467194131633391
 31
0.0
  0
LINE
  5
2021
  8
0
 10
38.3410780356973078
 20
61.6467194131633391
 30
0.0
 11
37.8299516641300499
 21
61.6467194131633391
 31
0.0
  0
LINE
  5
2022
  8
0
 10
43.8299516641300499
 20
61.6467194131633391
 30
0.0
 11
43.3188252925627566
 21
61.6467194131633391
 31
0.0
  0
LINE
  5
2023
  8
0
 10
37.8299516641300215
 20
64.6967194131633505
 30
0.0
 11
33.3299516641300215
 21
64.6967194131633505
 31
0.0
  0
LINE
  5
2024
  8
0
 10
48.3299516641300215
 20
64.6967194131633505
 30
0.0
 11
43.8299516641300215
 21
64.6967194131633505
 31
0.0
  0
LINE
  5
2027
  8
0
 10
49.7339069627805586
 20
63.3367194131633369
 30
0.0
 11
48.3299516641301921
 21
63.3367194131633369
 31
0.0
  0
LINE
  5
2028
  8
0
 10
43.8299516641301921
 20
63.3367194131633369
 30
0.0
 11
37.8299516641301921
 21
63.3367194131633369
 31
0.0
  0
LINE
  5
2029
  8
0
 10
33.3299516641301921
 20
63.3367194131633369
 30
0.0
 11
31.7548880508984688
 21
63.3367194131633369
 31
0.0
  0
ARC
  5
202A
  8
0
 10
63.5286891780726819
 20
8.8248885311709557
 30
0.0
 40
49.1016760319490331
 50
126.7910802555435055
 51
128.6926330096048048
  0
LINE
  5
202B
  8
0
 10
47.5381555966291671
 20
48.1467194131634528
 30
0.0
 11
34.1217477316309328
 21
48.1467194131634812
 31
0.0
  0
POLYLINE
  5
202C
  8
0
 66
     1
 10
0.0
 20
0.0
 30
0.0
  0
VERTEX
  5
21E8
  8
0
 10
48.8267490743764299
 20
47.1492766523708724
 30
0.0
  0
VERTEX
  5
21E9
  8
0
 10
48.8298322905947302
 20
47.1468149117350706
 30
0.0
  0
VERTEX
  5
21EA
  8
0
 10
48.7525220256563898
 20
47.208554535614951
 30
0.0
  0
VERTEX
  5
21EB
  8
0
 10
48.528417386196061
 20
47.3862699115355781
 30
0.0
  0
VERTEX
  5
21EC
  8
0
 10
48.1841034836605715
 20
47.6554840360006366
 30
0.0
  0
VERTEX
  5
21ED
  8
0
 10
47.7181035793054207
 20
48.0118063426117487
 30
0.0
  0
VERTEX
  5
21EE
  8
0
 10
47.5381555966291671
 20
48.1467194131635097
 30
0.0
  0
SEQEND
  5
21EF
  8
0
  0
LINE
  5
202D
  8
0
 10
32.8299516641300215
 20
43.4467194131633505
 30
0.0
 11
48.8299516641300215
 21
43.4467194131633505
 31
0.0
  0
LINE
  5
202E
  8
0
 10
33.8299516641300215
 20
42.4467194131633505
 30
0.0
 11
47.8299516641300215
 21
42.4467194131633505
 31
0.0
  0
ARC
  5
202F
  8
0
 10
43.0001902056691776
 20
25.9522498940563615
 30
0.0
 40
23.9044183781865094
 50
104.5648502037213063
 51
111.8028664056809021
  0
LINE
  5
2030
  8
0
 10
36.9888112727775322
 20
49.0884669859788687
 30
0.0
 11
37.3948388566665315
 21
49.1467194131633391
 31
0.0
  0
LINE
  5
2031
  8
0
 10
44.2650644715935684
 20
49.1467194131633391
 30
0.0
 11
37.3948388566665031
 21
49.1467194131633391
 31
0.0
  0
LINE
  5
2032
  8
0
 10
44.2650644715935684
 20
49.1467194131633391
 30
0.0
 11
44.6710920554825108
 21
49.0884669859788687
 31
0.0
  0
ARC
  5
2033
  8
0
 10
38.6464931347790071
 20
25.9120028616625291
 30
0.0
 40
23.9466966711708515
 50
68.203531501739846
 51
75.4287518888570787
  0
ARC
  5
2034
  8
0
 10
40.8299516641300499
 20
65.2272249624716665
 30
0.0
 40
4.0830386716670768
 50
259.4108765866693034
 51
280.5891234133308103
  0
ARC
  5
2036
  8
0
 10
41.1778971042988573
 20
69.3301715243753307
 30
0.0
 40
8.1904199387618775
 50
249.7352728796481927
 51
262.2939226624807247
  0
LINE
  5
203A
  8
0
 10
37.8299516641300215
 20
49.1467194131633391
 30
0.0
 11
37.8299516641300215
 21
64.6868673812250563
 31
0.0
  0
LINE
  5
203B
  8
0
 10
33.3299516641300215
 20
64.6868673812250563
 30
0.0
 11
33.3299516641300215
 21
47.5414474260329314
 31
0.0
  0
LINE
  5
203C
  8
0
 10
48.3299516641300215
 20
47.541447426032903
 30
0.0
 11
48.3299516641300215
 21
64.6868673812250563
 31
0.0
  0
LINE
  5
203D
  8
0
 10
43.8299516641300215
 20
64.6868673812250563
 30
0.0
 11
43.8299516641300215
 21
49.1467194131633391
 31
0.0
  0
LINE
  5
203E
  8
0
 10
42.8299516641300215
 20
50.5640999612814994
 30
0.0
 11
38.8299516641300215
 21
50.5640999612814994
 31
0.0
  0
ARC
  5
203F
  8
0
 10
42.7908818624315401
 20
49.5255618003151596
 30
0.0
 40
1.039272804026051
 50
1.132479703177764
 51
87.8455489799281679
  0
ARC
  5
2040
  8
0
 10
38.8759798171258311
 20
49.5187264696070812
 30
0.0
 40
1.0463863187005951
 50
92.5211244332545562
 51
178.5008468836383031
  0
POLYLINE
  5
2041
  8
0
 66
     1
 10
0.0
 20
0.0
 30
0.0
  0
VERTEX
  5
21F0
  8
0
 10
38.8299516641300215
 20
61.7097607608720296
 30
0.0
  0
VERTEX
  5
21F1
  8
0
 10
38.6319300054912631
 20
61.718831362304087
 30
0.0
  0
VERTEX
  5
21F2
  8
0
 10
38.4388149498459484
 20
61.7460431666003373
 30
0.0
  0
VERTEX
  5
21F3
  8
0
 10
38.2590681575356371
 20
61.791396173760802
 30
0.0
  0
VERTEX
  5
21F4
  8
0
 10
38.1012085619614425
 20
61.8548903837853388
 30
0.0
  0
VERTEX
  5
21F5
  8
0
 10
37.9135376443755874
 20
61.9946356761099366
 30
0.0
  0
VERTEX
  5
21F6
  8
0
 10
37.8299516641300215
 20
62.2015669175020207
 30
0.0
  0
SEQEND
  5
21F7
  8
0
  0
POLYLINE
  5
2042
  8
0
 66
     1
 10
0.0
 20
0.0
 30
0.0
  0
VERTEX
  5
21F8
  8
0
 10
43.8299516641300215
 20
62.2015669175020207
 30
0.0
  0
VERTEX
  5
21F9
  8
0
 10
43.746220326084142
 20
61.994494910055721
 30
0.0
  0
VERTEX
  5
21FA
  8
0
 10
43.5579168611182013
 20
61.8544980410046605
 30
0.0
  0
VERTEX
  5
21FB
  8
0
 10
43.4002754357142635
 20
61.7911754809466274
 30
0.0
  0
VERTEX
  5
21FC
  8
0
 10
43.2207744004891197
 20
61.7459450809051802
 30
0.0
  0
VERTEX
  5
21FD
  8
0
 10
43.0278616404045167
 20
61.7188068408802906
 30
0.0
  0
VERTEX
  5
21FE
  8
0
 10
42.8299516641300215
 20
61.7097607608720296
 30
0.0
  0
SEQEND
  5
21FF
  8
0
  0
LINE
  5
2043
  8
0
 10
42.8299516641300215
 20
61.7097607608719727
 30
0.0
 11
38.8299516641300215
 21
61.7097607608719727
 31
0.0
  0
POLYLINE
  5
2044
  8
0
 10
32.8434738668613164
 20
60.8720868390614243
 30
0.0
 66
     1
 70
     8
  0
VERTEX
  8
0
  5
2210
 10
32.8435
 20
60.8721
 30
0.00000
  70
    32
  0
VERTEX
  8
0
  5
2211
 10
32.8472
 20
60.8599
 30
0.00000
  70
    32
  0
VERTEX
  8
0
  5
2212
 10
32.8510
 20
60.8478
 30
0.00000
  70
    32
  0
VERTEX
  8
0
  5
2213
 10
32.8548
 20
60.8358
 30
0.00000
  70
    32
  0
VERTEX
  8
0
  5
2214
 10
32.8586
 20
60.8239
 30
0.00000
  70
    32
  0
VERTEX
  8
0
  5
2215
 10
32.8623
 20
60.8120
 30
0.00000
  70
    32
  0
VERTEX
  8
0
  5
2216
 10
32.8661
 20
60.8003
 30
0.00000
  70
    32
  0
VERTEX
  8
0
  5
2217
 10
32.8699
 20
60.7887
 30
0.00000
  70
    32
  0
VERTEX
  8
0
  5
2218
 10
32.8737
 20
60.7772
 30
0.00000
  70
    32
  0
VERTEX
  8
0
  5
2219
 10
32.8774
 20
60.7657
 30
0.00000
  70
    32
  0
VERTEX
  8
0
  5
221A
 10
32.8812
 20
60.7544
 30
0.00000
  70
    32
  0
VERTEX
  8
0
  5
221B
 10
32.8850
 20
60.7431
 30
0.00000
  70
    32
  0
VERTEX
  8
0
  5
221C
 10
32.8888
 20
60.7320
 30
0.00000
  70
    32
  0
VERTEX
  8
0
  5
221D
 10
32.8925
 20
60.7209
 30
0.00000
  70
    32
  0
VERTEX
  8
0
  5
221E
 10
32.8963
 20
60.7099
 30
0.00000
  70
    32
  0
VERTEX
  8
0
  5
221F
 10
32.9001
 20
60.6991
 30
0.00000
  70
    32
  0
VERTEX
  8
0
  5
2220
 10
32.9039
 20
60.6883
 30
0.00000
  70
    32
  0
VERTEX
  8
0
  5
2221
 10
32.9077
 20
60.6776
 30
0.00000
  70
    32
  0
VERTEX
  8
0
  5
2222
 10
32.9114
 20
60.6670
 30
0.00000
  70
    32
  0
VERTEX
  8
0
  5
2223
 10
32.9152
 20
60.6566
 30
0.00000
  70
    32
  0
VERTEX
  8
0
  5
2224
 10
32.9190
 20
60.6462
 30
0.00000
  70
    32
  0
VERTEX
  8
0
  5
2225
 10
32.9228
 20
60.6359
 30
0.00000
  70
    32
  0
VERTEX
  8
0
  5
2226
 10
32.9266
 20
60.6257
 30
0.00000
  70
    32
  0
VERTEX
  8
0
  5
2227
 10
32.9304
 20
60.6156
 30
0.00000
  70
    32
  0
VERTEX
  8
0
  5
2228
 10
32.9341
 20
60.6055
 30
0.00000
  70
    32
  0
VERTEX
  8
0
  5
2229
 10
32.9379
 20
60.5956
 30
0.00000
  70
    32
  0
VERTEX
  8
0
  5
222A
 10
32.9417
 20
60.5858
 30
0.00000
  70
    32
  0
VERTEX
  8
0
  5
222B
 10
32.9455
 20
60.5761
 30
0.00000
  70
    32
  0
VERTEX
  8
0
  5
222C
 10
32.9493
 20
60.5664
 30
0.00000
  70
    32
  0
VERTEX
  8
0
  5
222D
 10
32.9531
 20
60.5569
 30
0.00000
  70
    32
  0
VERTEX
  8
0
  5
222E
 10
32.9569
 20
60.5475
 30
0.00000
  70
    32
  0
VERTEX
  8
0
  5
222F
 10
32.9607
 20
60.5381
 30
0.00000
  70
    32
  0
VERTEX
  8
0
  5
2230
 10
32.9644
 20
60.5289
 30
0.00000
  70
    32
  0
VERTEX
  8
0
  5
2231
 10
32.9682
 20
60.5197
 30
0.00000
  70
    32
  0
VERTEX
  8
0
  5
2232
 10
32.9720
 20
60.5107
 30
0.00000
  70
    32
  0
VERTEX
  8
0
  5
2233
 10
32.9758
 20
60.5017
 30
0.00000
  70
    32
  0
VERTEX
  8
0
  5
2234
 10
32.9796
 20
60.4928
 30
0.00000
  70
    32
  0
VERTEX
  8
0
  5
2235
 10
32.9834
 20
60.4841
 30
0.00000
  70
    32
  0
VERTEX
  8
0
  5
2236
 10
32.9872
 20
60.4754
 30
0.00000
  70
    32
  0
VERTEX
  8
0
  5
2237
 10
32.9910
 20
60.4668
 30
0.00000
  70
    32
  0
VERTEX
  8
0
  5
2238
 10
32.9948
 20
60.4583
 30
0.00000
  70
    32
  0
VERTEX
  8
0
  5
2239
 10
32.9986
 20
60.4499
 30
0.00000
  70
    32
  0
VERTEX
  8
0
  5
223A
 10
33.0024
 20
60.4416
 30
0.00000
  70
    32
  0
VERTEX
  8
0
  5
223B
 10
33.0062
 20
60.4334
 30
0.00000
  70
    32
  0
VERTEX
  8
0
  5
223C
 10
33.0100
 20
60.4253
 30
0.00000
  70
    32
  0
VERTEX
  8
0
  5
223D
 10
33.0138
 20
60.4173
 30
0.00000
  70
    32
  0
VERTEX
  8
0
  5
223E
 10
33.0176
 20
60.4094
 30
0.00000
  70
    32
  0
VERTEX
  8
0
  5
223F
 10
33.0214
 20
60.4016
 30
0.00000
  70
    32
  0
VERTEX
  8
0
  5
2240
 10
33.0252
 20
60.3939
 30
0.00000
  70
    32
  0
VERTEX
  8
0
  5
2241
 10
33.0290
 20
60.3863
 30
0.00000
  70
    32
  0
VERTEX
  8
0
  5
2242
 10
33.0328
 20
60.3787
 30
0.00000
  70
    32
  0
VERTEX
  8
0
  5
2243
 10
33.0366
 20
60.3713
 30
0.00000
  70
    32
  0
VERTEX
  8
0
  5
2244
 10
33.0404
 20
60.3640
 30
0.00000
  70
    32
  0
VERTEX
  8
0
  5
2245
 10
33.0442
 20
60.3567
 30
0.00000
  70
    32
  0
VERTEX
  8
0
  5
2246
 10
33.0480
 20
60.3496
 30
0.00000
  70
    32
  0
VERTEX
  8
0
  5
2247
 10
33.0518
 20
60.3425
 30
0.00000
  70
    32
  0
VERTEX
  8
0
  5
2248
 10
33.0556
 20
60.3356
 30
0.00000
  70
    32
  0
VERTEX
  8
0
  5
2249
 10
33.0594
 20
60.3287
 30
0.00000
  70
    32
  0
VERTEX
  8
0
  5
224A
 10
33.0632
 20
60.3219
 30
0.00000
  70
    32
  0
VERTEX
  8
0
  5
224B
 10
33.0670
 20
60.3153
 30
0.00000
  70
    32
  0
VERTEX
  8
0
  5
224C
 10
33.0708
 20
60.3087
 30
0.00000
  70
    32
  0
VERTEX
  8
0
  5
224D
 10
33.0746
 20
60.3022
 30
0.00000
  70
    32
  0
VERTEX
  8
0
  5
224E
 10
33.0784
 20
60.2958
 30
0.00000
  70
    32
  0
VERTEX
  8
0
  5
224F
 10
33.0822
 20
60.2895
 30
0.00000
  70
    32
  0
VERTEX
  8
0
  5
2250
 10
33.0860
 20
60.2834
 30
0.00000
  70
    32
  0
VERTEX
  8
0
  5
2251
 10
33.0898
 20
60.2773
 30
0.00000
  70
    32
  0
VERTEX
  8
0
  5
2252
 10
33.0936
 20
60.2713
 30
0.00000
  70
    32
  0
VERTEX
  8
0
  5
2253
 10
33.0974
 20
60.2654
 30
0.00000
  70
    32
  0
VERTEX
  8
0
  5
2254
 10
33.1012
 20
60.2596
 30
0.00000
  70
    32
  0
VERTEX
  8
0
  5
2255
 10
33.1050
 20
60.2538
 30
0.00000
  70
    32
  0
VERTEX
  8
0
  5
2256
 10
33.1088
 20
60.2482
 30
0.00000
  70
    32
  0
VERTEX
  8
0
  5
2257
 10
33.1126
 20
60.2427
 30
0.00000
  70
    32
  0
VERTEX
  8
0
  5
2258
 10
33.1164
 20
60.2373
 30
0.00000
  70
    32
  0
VERTEX
  8
0
  5
2259
 10
33.1202
 20
60.2320
 30
0.00000
  70
    32
  0
VERTEX
  8
0
  5
225A
 10
33.1240
 20
60.2267
 30
0.00000
  70
    32
  0
VERTEX
  8
0
  5
225B
 10
33.1278
 20
60.2216
 30
0.00000
  70
    32
  0
VERTEX
  8
0
  5
225C
 10
33.1317
 20
60.2166
 30
0.00000
  70
    32
  0
VERTEX
  8
0
  5
225D
 10
33.1355
 20
60.2116
 30
0.00000
  70
    32
  0
VERTEX
  8
0
  5
225E
 10
33.1393
 20
60.2068
 30
0.00000
  70
    32
  0
VERTEX
  8
0
  5
225F
 10
33.1431
 20
60.2020
 30
0.00000
  70
    32
  0
VERTEX
  8
0
  5
2260
 10
33.1469
 20
60.1974
 30
0.00000
  70
    32
  0
VERTEX
  8
0
  5
2261
 10
33.1507
 20
60.1928
 30
0.00000
  70
    32
  0
VERTEX
  8
0
  5
2262
 10
33.1545
 20
60.1883
 30
0.00000
  70
    32
  0
VERTEX
  8
0
  5
2263
 10
33.1583
 20
60.1840
 30
0.00000
  70
    32
  0
VERTEX
  8
0
  5
2264
 10
33.1621
 20
60.1797
 30
0.00000
  70
    32
  0
VERTEX
  8
0
  5
2265
 10
33.1659
 20
60.1755
 30
0.00000
  70
    32
  0
VERTEX
  8
0
  5
2266
 10
33.1698
 20
60.1714
 30
0.00000
  70
    32
  0
VERTEX
  8
0
  5
2267
 10
33.1736
 20
60.1674
 30
0.00000
  70
    32
  0
VERTEX
  8
0
  5
2268
 10
33.1774
 20
60.1636
 30
0.00000
  70
    32
  0
VERTEX
  8
0
  5
2269
 10
33.1812
 20
60.1598
 30
0.00000
  70
    32
  0
VERTEX
  8
0
  5
226A
 10
33.1850
 20
60.1561
 30
0.00000
  70
    32
  0
VERTEX
  8
0
  5
226B
 10
33.1888
 20
60.1525
 30
0.00000
  70
    32
  0
VERTEX
  8
0
  5
226C
 10
33.1926
 20
60.1490
 30
0.00000
  70
    32
  0
VERTEX
  8
0
  5
226D
 10
33.1964
 20
60.1455
 30
0.00000
  70
    32
  0
VERTEX
  8
0
  5
226E
 10
33.2002
 20
60.1422
 30
0.00000
  70
    32
  0
VERTEX
  8
0
  5
226F
 10
33.2041
 20
60.1390
 30
0.00000
  70
    32
  0
VERTEX
  8
0
  5
2270
 10
33.2079
 20
60.1359
 30
0.00000
  70
    32
  0
VERTEX
  8
0
  5
2271
 10
33.2117
 20
60.1329
 30
0.00000
  70
    32
  0
VERTEX
  8
0
  5
2272
 10
33.2155
 20
60.1299
 30
0.00000
  70
    32
  0
VERTEX
  8
0
  5
2273
 10
33.2193
 20
60.1271
 30
0.00000
  70
    32
  0
VERTEX
  8
0
  5
2274
 10
33.2231
 20
60.1244
 30
0.00000
  70
    32
  0
VERTEX
  8
0
  5
2275
 10
33.2269
 20
60.1217
 30
0.00000
  70
    32
  0
VERTEX
  8
0
  5
2276
 10
33.2308
 20
60.1192
 30
0.00000
  70
    32
  0
VERTEX
  8
0
  5
2277
 10
33.2346
 20
60.1167
 30
0.00000
  70
    32
  0
VERTEX
  8
0
  5
2278
 10
33.2384
 20
60.1144
 30
0.00000
  70
    32
  0
VERTEX
  8
0
  5
2279
 10
33.2422
 20
60.1121
 30
0.00000
  70
    32
  0
VERTEX
  8
0
  5
227A
 10
33.2460
 20
60.1100
 30
0.00000
  70
    32
  0
VERTEX
  8
0
  5
227B
 10
33.2498
 20
60.1079
 30
0.00000
  70
    32
  0
VERTEX
  8
0
  5
227C
 10
33.2536
 20
60.1059
 30
0.00000
  70
    32
  0
VERTEX
  8
0
  5
227D
 10
33.2575
 20
60.1041
 30
0.00000
  70
    32
  0
VERTEX
  8
0
  5
227E
 10
33.2613
 20
60.1023
 30
0.00000
  70
    32
  0
VERTEX
  8
0
  5
227F
 10
33.2651
 20
60.1006
 30
0.00000
  70
    32
  0
VERTEX
  8
0
  5
2280
 10
33.2689
 20
60.0990
 30
0.00000
  70
    32
  0
VERTEX
  8
0
  5
2281
 10
33.2727
 20
60.0975
 30
0.00000
  70
    32
  0
VERTEX
  8
0
  5
2282
 10
33.2765
 20
60.0961
 30
0.00000
  70
    32
  0
VERTEX
  8
0
  5
2283
 10
33.2803
 20
60.0948
 30
0.00000
  70
    32
  0
VERTEX
  8
0
  5
2284
 10
33.2842
 20
60.0936
 30
0.00000
  70
    32
  0
VERTEX
  8
0
  5
2285
 10
33.2880
 20
60.0925
 30
0.00000
  70
    32
  0
VERTEX
  8
0
  5
2286
 10
33.2918
 20
60.0915
 30
0.00000
  70
    32
  0
VERTEX
  8
0
  5
2287
 10
33.2956
 20
60.0906
 30
0.00000
  70
    32
  0
VERTEX
  8
0
  5
2288
 10
33.2994
 20
60.0898
 30
0.00000
  70
    32
  0
VERTEX
  8
0
  5
2289
 10
33.3032
 20
60.0891
 30
0.00000
  70
    32
  0
VERTEX
  8
0
  5
228A
 10
33.3071
 20
60.0884
 30
0.00000
  70
    32
  0
VERTEX
  8
0
  5
228B
 10
33.3109
 20
60.0879
 30
0.00000
  70
    32
  0
VERTEX
  8
0
  5
228C
 10
33.3147
 20
60.0875
 30
0.00000
  70
    32
  0
VERTEX
  8
0
  5
228D
 10
33.3185
 20
60.0872
 30
0.00000
  70
    32
  0
VERTEX
  8
0
  5
228E
 10
33.3223
 20
60.0869
 30
0.00000
  70
    32
  0
VERTEX
  8
0
  5
228F
 10
33.3261
 20
60.0868
 30
0.00000
  70
    32
  0
VERTEX
  8
0
  5
2290
 10
33.3300
 20
60.0867
 30
0.00000
  70
    32
  0
SEQEND
  8
0
  5
2291
  0
ARC
  5
2047
  8
0
 10
47.8352836380868709
 20
60.9364826069629473
 30
0.0
 40
0.9832568034475571
 50
300.2047359433022962
 51
356.2448788420061874
  0
POLYLINE
  5
2048
  8
0
 10
32.583154312519234
 20
56.2743401026005756
 30
0.0
 66
     1
 70
     8
  0
VERTEX
  8
0
  5
2292
 10
32.5832
 20
56.2743
 30
0.00000
  70
    32
  0
VERTEX
  8
0
  5
2293
 10
32.5889
 20
56.2530
 30
0.00000
  70
    32
  0
VERTEX
  8
0
  5
2294
 10
32.5947
 20
56.2318
 30
0.00000
  70
    32
  0
VERTEX
  8
0
  5
2295
 10
32.6005
 20
56.2109
 30
0.00000
  70
    32
  0
VERTEX
  8
0
  5
2296
 10
32.6062
 20
56.1901
 30
0.00000
  70
    32
  0
VERTEX
  8
0
  5
2297
 10
32.6120
 20
56.1696
 30
0.00000
  70
    32
  0
VERTEX
  8
0
  5
2298
 10
32.6178
 20
56.1492
 30
0.00000
  70
    32
  0
VERTEX
  8
0
  5
2299
 10
32.6236
 20
56.1290
 30
0.00000
  70
    32
  0
VERTEX
  8
0
  5
229A
 10
32.6294
 20
56.1090
 30
0.00000
  70
    32
  0
VERTEX
  8
0
  5
229B
 10
32.6351
 20
56.0892
 30
0.00000
  70
    32
  0
VERTEX
  8
0
  5
229C
 10
32.6409
 20
56.0696
 30
0.00000
  70
    32
  0
VERTEX
  8
0
  5
229D
 10
32.6467
 20
56.0502
 30
0.00000
  70
    32
  0
VERTEX
  8
0
  5
229E
 10
32.6525
 20
56.0310
 30
0.00000
  70
    32
  0
VERTEX
  8
0
  5
229F
 10
32.6583
 20
56.0120
 30
0.00000
  70
    32
  0
VERTEX
  8
0
  5
22A0
 10
32.6641
 20
55.9932
 30
0.00000
  70
    32
  0
VERTEX
  8
0
  5
22A1
 10
32.6699
 20
55.9745
 30
0.00000
  70
    32
  0
VERTEX
  8
0
  5
22A2
 10
32.6757
 20
55.9561
 30
0.00000
  70
    32
  0
VERTEX
  8
0
  5
22A3
 10
32.6815
 20
55.9379
 30
0.00000
  70
    32
  0
VERTEX
  8
0
  5
22A4
 10
32.6872
 20
55.9198
 30
0.00000
  70
    32
  0
VERTEX
  8
0
  5
22A5
 10
32.6930
 20
55.9020
 30
0.00000
  70
    32
  0
VERTEX
  8
0
  5
22A6
 10
32.6988
 20
55.8843
 30
0.00000
  70
    32
  0
VERTEX
  8
0
  5
22A7
 10
32.7046
 20
55.8669
 30
0.00000
  70
    32
  0
VERTEX
  8
0
  5
22A8
 10
32.7104
 20
55.8496
 30
0.00000
  70
    32
  0
VERTEX
  8
0
  5
22A9
 10
32.7162
 20
55.8325
 30
0.00000
  70
    32
  0
VERTEX
  8
0
  5
22AA
 10
32.7221
 20
55.8157
 30
0.00000
  70
    32
  0
VERTEX
  8
0
  5
22AB
 10
32.7279
 20
55.7990
 30
0.00000
  70
    32
  0
VERTEX
  8
0
  5
22AC
 10
32.7337
 20
55.7825
 30
0.00000
  70
    32
  0
VERTEX
  8
0
  5
22AD
 10
32.7395
 20
55.7662
 30
0.00000
  70
    32
  0
VERTEX
  8
0
  5
22AE
 10
32.7453
 20
55.7501
 30
0.00000
  70
    32
  0
VERTEX
  8
0
  5
22AF
 10
32.7511
 20
55.7342
 30
0.00000
  70
    32
  0
VERTEX
  8
0
  5
22B0
 10
32.7569
 20
55.7185
 30
0.00000
  70
    32
  0
VERTEX
  8
0
  5
22B1
 10
32.7627
 20
55.7030
 30
0.00000
  70
    32
  0
VERTEX
  8
0
  5
22B2
 10
32.7685
 20
55.6877
 30
0.00000
  70
    32
  0
VERTEX
  8
0
  5
22B3
 10
32.7743
 20
55.6725
 30
0.00000
  70
    32
  0
VERTEX
  8
0
  5
22B4
 10
32.7802
 20
55.6576
 30
0.00000
  70
    32
  0
VERTEX
  8
0
  5
22B5
 10
32.7860
 20
55.6429
 30
0.00000
  70
    32
  0
VERTEX
  8
0
  5
22B6
 10
32.7918
 20
55.6284
 30
0.00000
  70
    32
  0
VERTEX
  8
0
  5
22B7
 10
32.7976
 20
55.6140
 30
0.00000
  70
    32
  0
VERTEX
  8
0
  5
22B8
 10
32.8034
 20
55.5999
 30
0.00000
  70
    32
  0
VERTEX
  8
0
  5
22B9
 10
32.8093
 20
55.5859
 30
0.00000
  70
    32
  0
VERTEX
  8
0
  5
22BA
 10
32.8151
 20
55.5722
 30
0.00000
  70
    32
  0
VERTEX
  8
0
  5
22BB
 10
32.8209
 20
55.5586
 30
0.00000
  70
    32
  0
VERTEX
  8
0
  5
22BC
 10
32.8267
 20
55.5452
 30
0.00000
  70
    32
  0
VERTEX
  8
0
  5
22BD
 10
32.8326
 20
55.5321
 30
0.00000
  70
    32
  0
VERTEX
  8
0
  5
22BE
 10
32.8384
 20
55.5191
 30
0.00000
  70
    32
  0
VERTEX
  8
0
  5
22BF
 10
32.8442
 20
55.5063
 30
0.00000
  70
    32
  0
VERTEX
  8
0
  5
22C0
 10
32.8500
 20
55.4938
 30
0.00000
  70
    32
  0
VERTEX
  8
0
  5
22C1
 10
32.8559
 20
55.4814
 30
0.00000
  70
    32
  0
VERTEX
  8
0
  5
22C2
 10
32.8617
 20
55.4692
 30
0.00000
  70
    32
  0
VERTEX
  8
0
  5
22C3
 10
32.8675
 20
55.4572
 30
0.00000
  70
    32
  0
VERTEX
  8
0
  5
22C4
 10
32.8734
 20
55.4454
 30
0.00000
  70
    32
  0
VERTEX
  8
0
  5
22C5
 10
32.8792
 20
55.4338
 30
0.00000
  70
    32
  0
VERTEX
  8
0
  5
22C6
 10
32.8850
 20
55.4224
 30
0.00000
  70
    32
  0
VERTEX
  8
0
  5
22C7
 10
32.8909
 20
55.4112
 30
0.00000
  70
    32
  0
VERTEX
  8
0
  5
22C8
 10
32.8967
 20
55.4002
 30
0.00000
  70
    32
  0
VERTEX
  8
0
  5
22C9
 10
32.9025
 20
55.3893
 30
0.00000
  70
    32
  0
VERTEX
  8
0
  5
22CA
 10
32.9084
 20
55.3787
 30
0.00000
  70
    32
  0
VERTEX
  8
0
  5
22CB
 10
32.9142
 20
55.3683
 30
0.00000
  70
    32
  0
VERTEX
  8
0
  5
22CC
 10
32.9201
 20
55.3581
 30
0.00000
  70
    32
  0
VERTEX
  8
0
  5
22CD
 10
32.9259
 20
55.3480
 30
0.00000
  70
    32
  0
VERTEX
  8
0
  5
22CE
 10
32.9317
 20
55.3382
 30
0.00000
  70
    32
  0
VERTEX
  8
0
  5
22CF
 10
32.9376
 20
55.3286
 30
0.00000
  70
    32
  0
VERTEX
  8
0
  5
22D0
 10
32.9434
 20
55.3191
 30
0.00000
  70
    32
  0
VERTEX
  8
0
  5
22D1
 10
32.9493
 20
55.3099
 30
0.00000
  70
    32
  0
VERTEX
  8
0
  5
22D2
 10
32.9551
 20
55.3008
 30
0.00000
  70
    32
  0
VERTEX
  8
0
  5
22D3
 10
32.9610
 20
55.2919
 30
0.00000
  70
    32
  0
VERTEX
  8
0
  5
22D4
 10
32.9668
 20
55.2833
 30
0.00000
  70
    32
  0
VERTEX
  8
0
  5
22D5
 10
32.9727
 20
55.2748
 30
0.00000
  70
    32
  0
VERTEX
  8
0
  5
22D6
 10
32.9785
 20
55.2666
 30
0.00000
  70
    32
  0
VERTEX
  8
0
  5
22D7
 10
32.9844
 20
55.2585
 30
0.00000
  70
    32
  0
VERTEX
  8
0
  5
22D8
 10
32.9902
 20
55.2506
 30
0.00000
  70
    32
  0
VERTEX
  8
0
  5
22D9
 10
32.9961
 20
55.2429
 30
0.00000
  70
    32
  0
VERTEX
  8
0
  5
22DA
 10
33.0019
 20
55.2354
 30
0.00000
  70
    32
  0
VERTEX
  8
0
  5
22DB
 10
33.0078
 20
55.2282
 30
0.00000
  70
    32
  0
VERTEX
  8
0
  5
22DC
 10
33.0136
 20
55.2211
 30
0.00000
  70
    32
  0
VERTEX
  8
0
  5
22DD
 10
33.0195
 20
55.2142
 30
0.00000
  70
    32
  0
VERTEX
  8
0
  5
22DE
 10
33.0253
 20
55.2075
 30
0.00000
  70
    32
  0
VERTEX
  8
0
  5
22DF
 10
33.0312
 20
55.2010
 30
0.00000
  70
    32
  0
VERTEX
  8
0
  5
22E0
 10
33.0370
 20
55.1947
 30
0.00000
  70
    32
  0
VERTEX
  8
0
  5
22E1
 10
33.0429
 20
55.1886
 30
0.00000
  70
    32
  0
VERTEX
  8
0
  5
22E2
 10
33.0487
 20
55.1827
 30
0.00000
  70
    32
  0
VERTEX
  8
0
  5
22E3
 10
33.0546
 20
55.1769
 30
0.00000
  70
    32
  0
VERTEX
  8
0
  5
22E4
 10
33.0604
 20
55.1714
 30
0.00000
  70
    32
  0
VERTEX
  8
0
  5
22E5
 10
33.0663
 20
55.1661
 30
0.00000
  70
    32
  0
VERTEX
  8
0
  5
22E6
 10
33.0721
 20
55.1610
 30
0.00000
  70
    32
  0
VERTEX
  8
0
  5
22E7
 10
33.0780
 20
55.1560
 30
0.00000
  70
    32
  0
VERTEX
  8
0
  5
22E8
 10
33.0838
 20
55.1513
 30
0.00000
  70
    32
  0
VERTEX
  8
0
  5
22E9
 10
33.0897
 20
55.1468
 30
0.00000
  70
    32
  0
VERTEX
  8
0
  5
22EA
 10
33.0956
 20
55.1424
 30
0.00000
  70
    32
  0
VERTEX
  8
0
  5
22EB
 10
33.1014
 20
55.1383
 30
0.00000
  70
    32
  0
VERTEX
  8
0
  5
22EC
 10
33.1073
 20
55.1344
 30
0.00000
  70
    32
  0
VERTEX
  8
0
  5
22ED
 10
33.1131
 20
55.1306
 30
0.00000
  70
    32
  0
VERTEX
  8
0
  5
22EE
 10
33.1190
 20
55.1270
 30
0.00000
  70
    32
  0
VERTEX
  8
0
  5
22EF
 10
33.1249
 20
55.1237
 30
0.00000
  70
    32
  0
VERTEX
  8
0
  5
22F0
 10
33.1307
 20
55.1205
 30
0.00000
  70
    32
  0
VERTEX
  8
0
  5
22F1
 10
33.1366
 20
55.1176
 30
0.00000
  70
    32
  0
VERTEX
  8
0
  5
22F2
 10
33.1424
 20
55.1148
 30
0.00000
  70
    32
  0
VERTEX
  8
0
  5
22F3
 10
33.1483
 20
55.1122
 30
0.00000
  70
    32
  0
VERTEX
  8
0
  5
22F4
 10
33.1541
 20
55.1099
 30
0.00000
  70
    32
  0
VERTEX
  8
0
  5
22F5
 10
33.1600
 20
55.1077
 30
0.00000
  70
    32
  0
VERTEX
  8
0
  5
22F6
 10
33.1659
 20
55.1057
 30
0.00000
  70
    32
  0
VERTEX
  8
0
  5
22F7
 10
33.1717
 20
55.1039
 30
0.00000
  70
    32
  0
VERTEX
  8
0
  5
22F8
 10
33.1776
 20
55.1023
 30
0.00000
  70
    32
  0
VERTEX
  8
0
  5
22F9
 10
33.1834
 20
55.1010
 30
0.00000
  70
    32
  0
VERTEX
  8
0
  5
22FA
 10
33.1893
 20
55.0998
 30
0.00000
  70
    32
  0
VERTEX
  8
0
  5
22FB
 10
33.1952
 20
55.0988
 30
0.00000
  70
    32
  0
VERTEX
  8
0
  5
22FC
 10
33.2010
 20
55.0980
 30
0.00000
  70
    32
  0
VERTEX
  8
0
  5
22FD
 10
33.2069
 20
55.0974
 30
0.00000
  70
    32
  0
VERTEX
  8
0
  5
22FE
 10
33.2128
 20
55.0970
 30
0.00000
  70
    32
  0
VERTEX
  8
0
  5
22FF
 10
33.2186
 20
55.0968
 30
0.00000
  70
    32
  0
VERTEX
  8
0
  5
2300
 10
33.2245
 20
55.0967
 30
0.00000
  70
    32
  0
VERTEX
  8
0
  5
2301
 10
33.2303
 20
55.0969
 30
0.00000
  70
    32
  0
VERTEX
  8
0
  5
2302
 10
33.2362
 20
55.0973
 30
0.00000
  70
    32
  0
VERTEX
  8
0
  5
2303
 10
33.2421
 20
55.0979
 30
0.00000
  70
    32
  0
VERTEX
  8
0
  5
2304
 10
33.2479
 20
55.0987
 30
0.00000
  70
    32
  0
VERTEX
  8
0
  5
2305
 10
33.2538
 20
55.0996
 30
0.00000
  70
    32
  0
VERTEX
  8
0
  5
2306
 10
33.2596
 20
55.1008
 30
0.00000
  70
    32
  0
VERTEX
  8
0
  5
2307
 10
33.2655
 20
55.1022
 30
0.00000
  70
    32
  0
VERTEX
  8
0
  5
2308
 10
33.2714
 20
55.1037
 30
0.00000
  70
    32
  0
VERTEX
  8
0
  5
2309
 10
33.2772
 20
55.1055
 30
0.00000
  70
    32
  0
VERTEX
  8
0
  5
230A
 10
33.2831
 20
55.1074
 30
0.00000
  70
    32
  0
VERTEX
  8
0
  5
230B
 10
33.2889
 20
55.1096
 30
0.00000
  70
    32
  0
VERTEX
  8
0
  5
230C
 10
33.2948
 20
55.1119
 30
0.00000
  70
    32
  0
VERTEX
  8
0
  5
230D
 10
33.3007
 20
55.1145
 30
0.00000
  70
    32
  0
VERTEX
  8
0
  5
230E
 10
33.3065
 20
55.1172
 30
0.00000
  70
    32
  0
VERTEX
  8
0
  5
230F
 10
33.3124
 20
55.1202
 30
0.00000
  70
    32
  0
VERTEX
  8
0
  5
2310
 10
33.3182
 20
55.1233
 30
0.00000
  70
    32
  0
VERTEX
  8
0
  5
2311
 10
33.3241
 20
55.1266
 30
0.00000
  70
    32
  0
VERTEX
  8
0
  5
2312
 10
33.3300
 20
55.1302
 30
0.00000
  70
    32
  0
SEQEND
  8
0
  5
2313
  0
POLYLINE
  5
2049
  8
0
 66
     1
 10
0.0
 20
0.0
 30
0.0
  0
VERTEX
  5
2200
  8
0
 10
49.076749015740802
 20
56.2743401026004904
 30
0.0
  0
VERTEX
  5
2201
  8
0
 10
49.0133823818397616
 20
56.0510923723582195
 30
0.0
  0
VERTEX
  5
2202
  8
0
 10
48.9355761805909424
 20
55.8097382342552919
 30
0.0
  0
VERTEX
  5
2203
  8
0
 10
48.843330411994323
 20
55.5695034157346299
 30
0.0
  0
VERTEX
  5
2204
  8
0
 10
48.7366450760499106
 20
55.3532150727248222
 30
0.0
  0
VERTEX
  5
2205
  8
0
 10
48.6155201727577335
 20
55.1873059814383922
 30
0.0
  0
VERTEX
  5
2206
  8
0
 10
48.4799557021177634
 20
55.1017856975893778
 30
0.0
  0
VERTEX
  5
2207
  8
0
 10
48.3299516641300215
 20
55.1301641589384985
 30
0.0
  0
SEQEND
  5
2208
  8
0
  0
ARC
  5
204A
  8
0
 10
58.3299047037166929
 20
59.8385268910413401
 30
0.0
 40
9.569454391570531
 50
160.1336016102131907
 51
173.7996082951470953
  0
POLYLINE
  5
204C
  8
0
 10
49.3299516641300215
 20
57.1781412550855492
 30
0.0
 66
     1
 70
     8
  0
VERTEX
  8
0
  5
2314
 10
49.3300
 20
57.1781
 30
0.00000
  70
    32
  0
VERTEX
  8
0
  5
2315
 10
49.3280
 20
57.1735
 30
0.00000
  70
    32
  0
VERTEX
  8
0
  5
2316
 10
49.3260
 20
57.1688
 30
0.00000
  70
    32
  0
VERTEX
  8
0
  5
2317
 10
49.3240
 20
57.1641
 30
0.00000
  70
    32
  0
VERTEX
  8
0
  5
2318
 10
49.3220
 20
57.1593
 30
0.00000
  70
    32
  0
VERTEX
  8
0
  5
2319
 10
49.3200
 20
57.1545
 30
0.00000
  70
    32
  0
VERTEX
  8
0
  5
231A
 10
49.3180
 20
57.1497
 30
0.00000
  70
    32
  0
VERTEX
  8
0
  5
231B
 10
49.3160
 20
57.1448
 30
0.00000
  70
    32
  0
VERTEX
  8
0
  5
231C
 10
49.3140
 20
57.1399
 30
0.00000
  70
    32
  0
VERTEX
  8
0
  5
231D
 10
49.3120
 20
57.1350
 30
0.00000
  70
    32
  0
VERTEX
  8
0
  5
231E
 10
49.3100
 20
57.1300
 30
0.00000
  70
    32
  0
VERTEX
  8
0
  5
231F
 10
49.3080
 20
57.1250
 30
0.00000
  70
    32
  0
VERTEX
  8
0
  5
2320
 10
49.3060
 20
57.1199
 30
0.00000
  70
    32
  0
VERTEX
  8
0
  5
2321
 10
49.3040
 20
57.1148
 30
0.00000
  70
    32
  0
VERTEX
  8
0
  5
2322
 10
49.3020
 20
57.1096
 30
0.00000
  70
    32
  0
VERTEX
  8
0
  5
2323
 10
49.3000
 20
57.1045
 30
0.00000
  70
    32
  0
VERTEX
  8
0
  5
2324
 10
49.2980
 20
57.0992
 30
0.00000
  70
    32
  0
VERTEX
  8
0
  5
2325
 10
49.2961
 20
57.0940
 30
0.00000
  70
    32
  0
VERTEX
  8
0
  5
2326
 10
49.2941
 20
57.0887
 30
0.00000
  70
    32
  0
VERTEX
  8
0
  5
2327
 10
49.2921
 20
57.0834
 30
0.00000
  70
    32
  0
VERTEX
  8
0
  5
2328
 10
49.2901
 20
57.0780
 30
0.00000
  70
    32
  0
VERTEX
  8
0
  5
2329
 10
49.2881
 20
57.0726
 30
0.00000
  70
    32
  0
VERTEX
  8
0
  5
232A
 10
49.2861
 20
57.0671
 30
0.00000
  70
    32
  0
VERTEX
  8
0
  5
232B
 10
49.2841
 20
57.0616
 30
0.00000
  70
    32
  0
VERTEX
  8
0
  5
232C
 10
49.2821
 20
57.0561
 30
0.00000
  70
    32
  0
VERTEX
  8
0
  5
232D
 10
49.2801
 20
57.0506
 30
0.00000
  70
    32
  0
VERTEX
  8
0
  5
232E
 10
49.2781
 20
57.0450
 30
0.00000
  70
    32
  0
VERTEX
  8
0
  5
232F
 10
49.2761
 20
57.0393
 30
0.00000
  70
    32
  0
VERTEX
  8
0
  5
2330
 10
49.2742
 20
57.0337
 30
0.00000
  70
    32
  0
VERTEX
  8
0
  5
2331
 10
49.2722
 20
57.0279
 30
0.00000
  70
    32
  0
VERTEX
  8
0
  5
2332
 10
49.2702
 20
57.0222
 30
0.00000
  70
    32
  0
VERTEX
  8
0
  5
2333
 10
49.2682
 20
57.0164
 30
0.00000
  70
    32
  0
VERTEX
  8
0
  5
2334
 10
49.2662
 20
57.0106
 30
0.00000
  70
    32
  0
VERTEX
  8
0
  5
2335
 10
49.2642
 20
57.0047
 30
0.00000
  70
    32
  0
VERTEX
  8
0
  5
2336
 10
49.2622
 20
56.9988
 30
0.00000
  70
    32
  0
VERTEX
  8
0
  5
2337
 10
49.2602
 20
56.9929
 30
0.00000
  70
    32
  0
VERTEX
  8
0
  5
2338
 10
49.2582
 20
56.9869
 30
0.00000
  70
    32
  0
VERTEX
  8
0
  5
2339
 10
49.2563
 20
56.9809
 30
0.00000
  70
    32
  0
VERTEX
  8
0
  5
233A
 10
49.2543
 20
56.9748
 30
0.00000
  70
    32
  0
VERTEX
  8
0
  5
233B
 10
49.2523
 20
56.9687
 30
0.00000
  70
    32
  0
VERTEX
  8
0
  5
233C
 10
49.2503
 20
56.9626
 30
0.00000
  70
    32
  0
VERTEX
  8
0
  5
233D
 10
49.2483
 20
56.9564
 30
0.00000
  70
    32
  0
VERTEX
  8
0
  5
233E
 10
49.2463
 20
56.9502
 30
0.00000
  70
    32
  0
VERTEX
  8
0
  5
233F
 10
49.2443
 20
56.9439
 30
0.00000
  70
    32
  0
VERTEX
  8
0
  5
2340
 10
49.2424
 20
56.9377
 30
0.00000
  70
    32
  0
VERTEX
  8
0
  5
2341
 10
49.2404
 20
56.9313
 30
0.00000
  70
    32
  0
VERTEX
  8
0
  5
2342
 10
49.2384
 20
56.9250
 30
0.00000
  70
    32
  0
VERTEX
  8
0
  5
2343
 10
49.2364
 20
56.9186
 30
0.00000
  70
    32
  0
VERTEX
  8
0
  5
2344
 10
49.2344
 20
56.9121
 30
0.00000
  70
    32
  0
VERTEX
  8
0
  5
2345
 10
49.2324
 20
56.9057
 30
0.00000
  70
    32
  0
VERTEX
  8
0
  5
2346
 10
49.2304
 20
56.8991
 30
0.00000
  70
    32
  0
VERTEX
  8
0
  5
2347
 10
49.2285
 20
56.8926
 30
0.00000
  70
    32
  0
VERTEX
  8
0
  5
2348
 10
49.2265
 20
56.8860
 30
0.00000
  70
    32
  0
VERTEX
  8
0
  5
2349
 10
49.2245
 20
56.8794
 30
0.00000
  70
    32
  0
VERTEX
  8
0
  5
234A
 10
49.2225
 20
56.8727
 30
0.00000
  70
    32
  0
VERTEX
  8
0
  5
234B
 10
49.2205
 20
56.8660
 30
0.00000
  70
    32
  0
VERTEX
  8
0
  5
234C
 10
49.2185
 20
56.8593
 30
0.00000
  70
    32
  0
VERTEX
  8
0
  5
234D
 10
49.2166
 20
56.8525
 30
0.00000
  70
    32
  0
VERTEX
  8
0
  5
234E
 10
49.2146
 20
56.8457
 30
0.00000
  70
    32
  0
VERTEX
  8
0
  5
234F
 10
49.2126
 20
56.8388
 30
0.00000
  70
    32
  0
VERTEX
  8
0
  5
2350
 10
49.2106
 20
56.8319
 30
0.00000
  70
    32
  0
VERTEX
  8
0
  5
2351
 10
49.2086
 20
56.8250
 30
0.00000
  70
    32
  0
VERTEX
  8
0
  5
2352
 10
49.2067
 20
56.8180
 30
0.00000
  70
    32
  0
VERTEX
  8
0
  5
2353
 10
49.2047
 20
56.8110
 30
0.00000
  70
    32
  0
VERTEX
  8
0
  5
2354
 10
49.2027
 20
56.8039
 30
0.00000
  70
    32
  0
VERTEX
  8
0
  5
2355
 10
49.2007
 20
56.7969
 30
0.00000
  70
    32
  0
VERTEX
  8
0
  5
2356
 10
49.1987
 20
56.7897
 30
0.00000
  70
    32
  0
VERTEX
  8
0
  5
2357
 10
49.1968
 20
56.7826
 30
0.00000
  70
    32
  0
VERTEX
  8
0
  5
2358
 10
49.1948
 20
56.7754
 30
0.00000
  70
    32
  0
VERTEX
  8
0
  5
2359
 10
49.1928
 20
56.7681
 30
0.00000
  70
    32
  0
VERTEX
  8
0
  5
235A
 10
49.1908
 20
56.7609
 30
0.00000
  70
    32
  0
VERTEX
  8
0
  5
235B
 10
49.1889
 20
56.7536
 30
0.00000
  70
    32
  0
VERTEX
  8
0
  5
235C
 10
49.1869
 20
56.7462
 30
0.00000
  70
    32
  0
VERTEX
  8
0
  5
235D
 10
49.1849
 20
56.7388
 30
0.00000
  70
    32
  0
VERTEX
  8
0
  5
235E
 10
49.1829
 20
56.7314
 30
0.00000
  70
    32
  0
VERTEX
  8
0
  5
235F
 10
49.1810
 20
56.7239
 30
0.00000
  70
    32
  0
VERTEX
  8
0
  5
2360
 10
49.1790
 20
56.7164
 30
0.00000
  70
    32
  0
VERTEX
  8
0
  5
2361
 10
49.1770
 20
56.7089
 30
0.00000
  70
    32
  0
VERTEX
  8
0
  5
2362
 10
49.1750
 20
56.7013
 30
0.00000
  70
    32
  0
VERTEX
  8
0
  5
2363
 10
49.1731
 20
56.6937
 30
0.00000
  70
    32
  0
VERTEX
  8
0
  5
2364
 10
49.1711
 20
56.6861
 30
0.00000
  70
    32
  0
VERTEX
  8
0
  5
2365
 10
49.1691
 20
56.6784
 30
0.00000
  70
    32
  0
VERTEX
  8
0
  5
2366
 10
49.1671
 20
56.6706
 30
0.00000
  70
    32
  0
VERTEX
  8
0
  5
2367
 10
49.1652
 20
56.6629
 30
0.00000
  70
    32
  0
VERTEX
  8
0
  5
2368
 10
49.1632
 20
56.6551
 30
0.00000
  70
    32
  0
VERTEX
  8
0
  5
2369
 10
49.1612
 20
56.6472
 30
0.00000
  70
    32
  0
VERTEX
  8
0
  5
236A
 10
49.1592
 20
56.6393
 30
0.00000
  70
    32
  0
VERTEX
  8
0
  5
236B
 10
49.1573
 20
56.6314
 30
0.00000
  70
    32
  0
VERTEX
  8
0
  5
236C
 10
49.1553
 20
56.6235
 30
0.00000
  70
    32
  0
VERTEX
  8
0
  5
236D
 10
49.1533
 20
56.6155
 30
0.00000
  70
    32
  0
VERTEX
  8
0
  5
236E
 10
49.1514
 20
56.6074
 30
0.00000
  70
    32
  0
VERTEX
  8
0
  5
236F
 10
49.1494
 20
56.5994
 30
0.00000
  70
    32
  0
VERTEX
  8
0
  5
2370
 10
49.1474
 20
56.5913
 30
0.00000
  70
    32
  0
VERTEX
  8
0
  5
2371
 10
49.1454
 20
56.5831
 30
0.00000
  70
    32
  0
VERTEX
  8
0
  5
2372
 10
49.1435
 20
56.5749
 30
0.00000
  70
    32
  0
VERTEX
  8
0
  5
2373
 10
49.1415
 20
56.5667
 30
0.00000
  70
    32
  0
VERTEX
  8
0
  5
2374
 10
49.1395
 20
56.5585
 30
0.00000
  70
    32
  0
VERTEX
  8
0
  5
2375
 10
49.1376
 20
56.5502
 30
0.00000
  70
    32
  0
VERTEX
  8
0
  5
2376
 10
49.1356
 20
56.5418
 30
0.00000
  70
    32
  0
VERTEX
  8
0
  5
2377
 10
49.1336
 20
56.5335
 30
0.00000
  70
    32
  0
VERTEX
  8
0
  5
2378
 10
49.1317
 20
56.5251
 30
0.00000
  70
    32
  0
VERTEX
  8
0
  5
2379
 10
49.1297
 20
56.5166
 30
0.00000
  70
    32
  0
VERTEX
  8
0
  5
237A
 10
49.1277
 20
56.5081
 30
0.00000
  70
    32
  0
VERTEX
  8
0
  5
237B
 10
49.1258
 20
56.4996
 30
0.00000
  70
    32
  0
VERTEX
  8
0
  5
237C
 10
49.1238
 20
56.4910
 30
0.00000
  70
    32
  0
VERTEX
  8
0
  5
237D
 10
49.1218
 20
56.4825
 30
0.00000
  70
    32
  0
VERTEX
  8
0
  5
237E
 10
49.1199
 20
56.4738
 30
0.00000
  70
    32
  0
VERTEX
  8
0
  5
237F
 10
49.1179
 20
56.4651
 30
0.00000
  70
    32
  0
VERTEX
  8
0
  5
2380
 10
49.1159
 20
56.4564
 30
0.00000
  70
    32
  0
VERTEX
  8
0
  5
2381
 10
49.1140
 20
56.4477
 30
0.00000
  70
    32
  0
VERTEX
  8
0
  5
2382
 10
49.1120
 20
56.4389
 30
0.00000
  70
    32
  0
VERTEX
  8
0
  5
2383
 10
49.1101
 20
56.4301
 30
0.00000
  70
    32
  0
VERTEX
  8
0
  5
2384
 10
49.1081
 20
56.4212
 30
0.00000
  70
    32
  0
VERTEX
  8
0
  5
2385
 10
49.1061
 20
56.4123
 30
0.00000
  70
    32
  0
VERTEX
  8
0
  5
2386
 10
49.1042
 20
56.4034
 30
0.00000
  70
    32
  0
VERTEX
  8
0
  5
2387
 10
49.1022
 20
56.3944
 30
0.00000
  70
    32
  0
VERTEX
  8
0
  5
2388
 10
49.1002
 20
56.3854
 30
0.00000
  70
    32
  0
VERTEX
  8
0
  5
2389
 10
49.0983
 20
56.3764
 30
0.00000
  70
    32
  0
VERTEX
  8
0
  5
238A
 10
49.0963
 20
56.3673
 30
0.00000
  70
    32
  0
VERTEX
  8
0
  5
238B
 10
49.0944
 20
56.3581
 30
0.00000
  70
    32
  0
VERTEX
  8
0
  5
238C
 10
49.0924
 20
56.3490
 30
0.00000
  70
    32
  0
VERTEX
  8
0
  5
238D
 10
49.0904
 20
56.3398
 30
0.00000
  70
    32
  0
VERTEX
  8
0
  5
238E
 10
49.0885
 20
56.3305
 30
0.00000
  70
    32
  0
VERTEX
  8
0
  5
238F
 10
49.0865
 20
56.3213
 30
0.00000
  70
    32
  0
VERTEX
  8
0
  5
2390
 10
49.0846
 20
56.3120
 30
0.00000
  70
    32
  0
VERTEX
  8
0
  5
2391
 10
49.0826
 20
56.3026
 30
0.00000
  70
    32
  0
VERTEX
  8
0
  5
2392
 10
49.0807
 20
56.2932
 30
0.00000
  70
    32
  0
VERTEX
  8
0
  5
2393
 10
49.0787
 20
56.2838
 30
0.00000
  70
    32
  0
VERTEX
  8
0
  5
2394
 10
49.0767
 20
56.2743
 30
0.00000
  70
    32
  0
SEQEND
  8
0
  5
2395
  0
POLYLINE
  5
204D
  8
0
 10
32.5831543125186442
 20
56.2743401026033609
 30
0.0
 66
     1
 70
     8
  0
VERTEX
  8
0
  5
2396
 10
32.5832
 20
56.2743
 30
0.00000
  70
    32
  0
VERTEX
  8
0
  5
2397
 10
32.5812
 20
56.2838
 30
0.00000
  70
    32
  0
VERTEX
  8
0
  5
2398
 10
32.5792
 20
56.2932
 30
0.00000
  70
    32
  0
VERTEX
  8
0
  5
2399
 10
32.5773
 20
56.3026
 30
0.00000
  70
    32
  0
VERTEX
  8
0
  5
239A
 10
32.5753
 20
56.3120
 30
0.00000
  70
    32
  0
VERTEX
  8
0
  5
239B
 10
32.5734
 20
56.3213
 30
0.00000
  70
    32
  0
VERTEX
  8
0
  5
239C
 10
32.5714
 20
56.3305
 30
0.00000
  70
    32
  0
VERTEX
  8
0
  5
239D
 10
32.5695
 20
56.3398
 30
0.00000
  70
    32
  0
VERTEX
  8
0
  5
239E
 10
32.5675
 20
56.3490
 30
0.00000
  70
    32
  0
VERTEX
  8
0
  5
239F
 10
32.5655
 20
56.3581
 30
0.00000
  70
    32
  0
VERTEX
  8
0
  5
23A0
 10
32.5636
 20
56.3673
 30
0.00000
  70
    32
  0
VERTEX
  8
0
  5
23A1
 10
32.5616
 20
56.3764
 30
0.00000
  70
    32
  0
VERTEX
  8
0
  5
23A2
 10
32.5597
 20
56.3854
 30
0.00000
  70
    32
  0
VERTEX
  8
0
  5
23A3
 10
32.5577
 20
56.3944
 30
0.00000
  70
    32
  0
VERTEX
  8
0
  5
23A4
 10
32.5557
 20
56.4034
 30
0.00000
  70
    32
  0
VERTEX
  8
0
  5
23A5
 10
32.5538
 20
56.4123
 30
0.00000
  70
    32
  0
VERTEX
  8
0
  5
23A6
 10
32.5518
 20
56.4212
 30
0.00000
  70
    32
  0
VERTEX
  8
0
  5
23A7
 10
32.5498
 20
56.4301
 30
0.00000
  70
    32
  0
VERTEX
  8
0
  5
23A8
 10
32.5479
 20
56.4389
 30
0.00000
  70
    32
  0
VERTEX
  8
0
  5
23A9
 10
32.5459
 20
56.4477
 30
0.00000
  70
    32
  0
VERTEX
  8
0
  5
23AA
 10
32.5440
 20
56.4564
 30
0.00000
  70
    32
  0
VERTEX
  8
0
  5
23AB
 10
32.5420
 20
56.4651
 30
0.00000
  70
    32
  0
VERTEX
  8
0
  5
23AC
 10
32.5400
 20
56.4738
 30
0.00000
  70
    32
  0
VERTEX
  8
0
  5
23AD
 10
32.5381
 20
56.4825
 30
0.00000
  70
    32
  0
VERTEX
  8
0
  5
23AE
 10
32.5361
 20
56.4910
 30
0.00000
  70
    32
  0
VERTEX
  8
0
  5
23AF
 10
32.5341
 20
56.4996
 30
0.00000
  70
    32
  0
VERTEX
  8
0
  5
23B0
 10
32.5322
 20
56.5081
 30
0.00000
  70
    32
  0
VERTEX
  8
0
  5
23B1
 10
32.5302
 20
56.5166
 30
0.00000
  70
    32
  0
VERTEX
  8
0
  5
23B2
 10
32.5282
 20
56.5251
 30
0.00000
  70
    32
  0
VERTEX
  8
0
  5
23B3
 10
32.5263
 20
56.5335
 30
0.00000
  70
    32
  0
VERTEX
  8
0
  5
23B4
 10
32.5243
 20
56.5418
 30
0.00000
  70
    32
  0
VERTEX
  8
0
  5
23B5
 10
32.5223
 20
56.5502
 30
0.00000
  70
    32
  0
VERTEX
  8
0
  5
23B6
 10
32.5204
 20
56.5585
 30
0.00000
  70
    32
  0
VERTEX
  8
0
  5
23B7
 10
32.5184
 20
56.5667
 30
0.00000
  70
    32
  0
VERTEX
  8
0
  5
23B8
 10
32.5164
 20
56.5749
 30
0.00000
  70
    32
  0
VERTEX
  8
0
  5
23B9
 10
32.5145
 20
56.5831
 30
0.00000
  70
    32
  0
VERTEX
  8
0
  5
23BA
 10
32.5125
 20
56.5913
 30
0.00000
  70
    32
  0
VERTEX
  8
0
  5
23BB
 10
32.5105
 20
56.5994
 30
0.00000
  70
    32
  0
VERTEX
  8
0
  5
23BC
 10
32.5085
 20
56.6074
 30
0.00000
  70
    32
  0
VERTEX
  8
0
  5
23BD
 10
32.5066
 20
56.6155
 30
0.00000
  70
    32
  0
VERTEX
  8
0
  5
23BE
 10
32.5046
 20
56.6235
 30
0.00000
  70
    32
  0
VERTEX
  8
0
  5
23BF
 10
32.5026
 20
56.6314
 30
0.00000
  70
    32
  0
VERTEX
  8
0
  5
23C0
 10
32.5007
 20
56.6393
 30
0.00000
  70
    32
  0
VERTEX
  8
0
  5
23C1
 10
32.4987
 20
56.6472
 30
0.00000
  70
    32
  0
VERTEX
  8
0
  5
23C2
 10
32.4967
 20
56.6551
 30
0.00000
  70
    32
  0
VERTEX
  8
0
  5
23C3
 10
32.4947
 20
56.6629
 30
0.00000
  70
    32
  0
VERTEX
  8
0
  5
23C4
 10
32.4928
 20
56.6706
 30
0.00000
  70
    32
  0
VERTEX
  8
0
  5
23C5
 10
32.4908
 20
56.6784
 30
0.00000
  70
    32
  0
VERTEX
  8
0
  5
23C6
 10
32.4888
 20
56.6861
 30
0.00000
  70
    32
  0
VERTEX
  8
0
  5
23C7
 10
32.4869
 20
56.6937
 30
0.00000
  70
    32
  0
VERTEX
  8
0
  5
23C8
 10
32.4849
 20
56.7013
 30
0.00000
  70
    32
  0
VERTEX
  8
0
  5
23C9
 10
32.4829
 20
56.7089
 30
0.00000
  70
    32
  0
VERTEX
  8
0
  5
23CA
 10
32.4809
 20
56.7164
 30
0.00000
  70
    32
  0
VERTEX
  8
0
  5
23CB
 10
32.4790
 20
56.7239
 30
0.00000
  70
    32
  0
VERTEX
  8
0
  5
23CC
 10
32.4770
 20
56.7314
 30
0.00000
  70
    32
  0
VERTEX
  8
0
  5
23CD
 10
32.4750
 20
56.7388
 30
0.00000
  70
    32
  0
VERTEX
  8
0
  5
23CE
 10
32.4730
 20
56.7462
 30
0.00000
  70
    32
  0
VERTEX
  8
0
  5
23CF
 10
32.4710
 20
56.7536
 30
0.00000
  70
    32
  0
VERTEX
  8
0
  5
23D0
 10
32.4691
 20
56.7609
 30
0.00000
  70
    32
  0
VERTEX
  8
0
  5
23D1
 10
32.4671
 20
56.7681
 30
0.00000
  70
    32
  0
VERTEX
  8
0
  5
23D2
 10
32.4651
 20
56.7754
 30
0.00000
  70
    32
  0
VERTEX
  8
0
  5
23D3
 10
32.4631
 20
56.7826
 30
0.00000
  70
    32
  0
VERTEX
  8
0
  5
23D4
 10
32.4612
 20
56.7897
 30
0.00000
  70
    32
  0
VERTEX
  8
0
  5
23D5
 10
32.4592
 20
56.7969
 30
0.00000
  70
    32
  0
VERTEX
  8
0
  5
23D6
 10
32.4572
 20
56.8039
 30
0.00000
  70
    32
  0
VERTEX
  8
0
  5
23D7
 10
32.4552
 20
56.8110
 30
0.00000
  70
    32
  0
VERTEX
  8
0
  5
23D8
 10
32.4532
 20
56.8180
 30
0.00000
  70
    32
  0
VERTEX
  8
0
  5
23D9
 10
32.4513
 20
56.8250
 30
0.00000
  70
    32
  0
VERTEX
  8
0
  5
23DA
 10
32.4493
 20
56.8319
 30
0.00000
  70
    32
  0
VERTEX
  8
0
  5
23DB
 10
32.4473
 20
56.8388
 30
0.00000
  70
    32
  0
VERTEX
  8
0
  5
23DC
 10
32.4453
 20
56.8457
 30
0.00000
  70
    32
  0
VERTEX
  8
0
  5
23DD
 10
32.4433
 20
56.8525
 30
0.00000
  70
    32
  0
VERTEX
  8
0
  5
23DE
 10
32.4414
 20
56.8593
 30
0.00000
  70
    32
  0
VERTEX
  8
0
  5
23DF
 10
32.4394
 20
56.8660
 30
0.00000
  70
    32
  0
VERTEX
  8
0
  5
23E0
 10
32.4374
 20
56.8727
 30
0.00000
  70
    32
  0
VERTEX
  8
0
  5
23E1
 10
32.4354
 20
56.8794
 30
0.00000
  70
    32
  0
VERTEX
  8
0
  5
23E2
 10
32.4334
 20
56.8860
 30
0.00000
  70
    32
  0
VERTEX
  8
0
  5
23E3
 10
32.4314
 20
56.8926
 30
0.00000
  70
    32
  0
VERTEX
  8
0
  5
23E4
 10
32.4295
 20
56.8991
 30
0.00000
  70
    32
  0
VERTEX
  8
0
  5
23E5
 10
32.4275
 20
56.9057
 30
0.00000
  70
    32
  0
VERTEX
  8
0
  5
23E6
 10
32.4255
 20
56.9121
 30
0.00000
  70
    32
  0
VERTEX
  8
0
  5
23E7
 10
32.4235
 20
56.9186
 30
0.00000
  70
    32
  0
VERTEX
  8
0
  5
23E8
 10
32.4215
 20
56.9250
 30
0.00000
  70
    32
  0
VERTEX
  8
0
  5
23E9
 10
32.4195
 20
56.9313
 30
0.00000
  70
    32
  0
VERTEX
  8
0
  5
23EA
 10
32.4176
 20
56.9377
 30
0.00000
  70
    32
  0
VERTEX
  8
0
  5
23EB
 10
32.4156
 20
56.9439
 30
0.00000
  70
    32
  0
VERTEX
  8
0
  5
23EC
 10
32.4136
 20
56.9502
 30
0.00000
  70
    32
  0
VERTEX
  8
0
  5
23ED
 10
32.4116
 20
56.9564
 30
0.00000
  70
    32
  0
VERTEX
  8
0
  5
23EE
 10
32.4096
 20
56.9626
 30
0.00000
  70
    32
  0
VERTEX
  8
0
  5
23EF
 10
32.4076
 20
56.9687
 30
0.00000
  70
    32
  0
VERTEX
  8
0
  5
23F0
 10
32.4056
 20
56.9748
 30
0.00000
  70
    32
  0
VERTEX
  8
0
  5
23F1
 10
32.4036
 20
56.9809
 30
0.00000
  70
    32
  0
VERTEX
  8
0
  5
23F2
 10
32.4017
 20
56.9869
 30
0.00000
  70
    32
  0
VERTEX
  8
0
  5
23F3
 10
32.3997
 20
56.9929
 30
0.00000
  70
    32
  0
VERTEX
  8
0
  5
23F4
 10
32.3977
 20
56.9988
 30
0.00000
  70
    32
  0
VERTEX
  8
0
  5
23F5
 10
32.3957
 20
57.0047
 30
0.00000
  70
    32
  0
VERTEX
  8
0
  5
23F6
 10
32.3937
 20
57.0106
 30
0.00000
  70
    32
  0
VERTEX
  8
0
  5
23F7
 10
32.3917
 20
57.0164
 30
0.00000
  70
    32
  0
VERTEX
  8
0
  5
23F8
 10
32.3897
 20
57.0222
 30
0.00000
  70
    32
  0
VERTEX
  8
0
  5
23F9
 10
32.3877
 20
57.0279
 30
0.00000
  70
    32
  0
VERTEX
  8
0
  5
23FA
 10
32.3858
 20
57.0337
 30
0.00000
  70
    32
  0
VERTEX
  8
0
  5
23FB
 10
32.3838
 20
57.0393
 30
0.00000
  70
    32
  0
VERTEX
  8
0
  5
23FC
 10
32.3818
 20
57.0450
 30
0.00000
  70
    32
  0
VERTEX
  8
0
  5
23FD
 10
32.3798
 20
57.0506
 30
0.00000
  70
    32
  0
VERTEX
  8
0
  5
23FE
 10
32.3778
 20
57.0561
 30
0.00000
  70
    32
  0
VERTEX
  8
0
  5
23FF
 10
32.3758
 20
57.0616
 30
0.00000
  70
    32
  0
VERTEX
  8
0
  5
2400
 10
32.3738
 20
57.0671
 30
0.00000
  70
    32
  0
VERTEX
  8
0
  5
2401
 10
32.3718
 20
57.0726
 30
0.00000
  70
    32
  0
VERTEX
  8
0
  5
2402
 10
32.3698
 20
57.0780
 30
0.00000
  70
    32
  0
VERTEX
  8
0
  5
2403
 10
32.3678
 20
57.0834
 30
0.00000
  70
    32
  0
VERTEX
  8
0
  5
2404
 10
32.3658
 20
57.0887
 30
0.00000
  70
    32
  0
VERTEX
  8
0
  5
2405
 10
32.3639
 20
57.0940
 30
0.00000
  70
    32
  0
VERTEX
  8
0
  5
2406
 10
32.3619
 20
57.0992
 30
0.00000
  70
    32
  0
VERTEX
  8
0
  5
2407
 10
32.3599
 20
57.1045
 30
0.00000
  70
    32
  0
VERTEX
  8
0
  5
2408
 10
32.3579
 20
57.1096
 30
0.00000
  70
    32
  0
VERTEX
  8
0
  5
2409
 10
32.3559
 20
57.1148
 30
0.00000
  70
    32
  0
VERTEX
  8
0
  5
240A
 10
32.3539
 20
57.1199
 30
0.00000
  70
    32
  0
VERTEX
  8
0
  5
240B
 10
32.3519
 20
57.1250
 30
0.00000
  70
    32
  0
VERTEX
  8
0
  5
240C
 10
32.3499
 20
57.1300
 30
0.00000
  70
    32
  0
VERTEX
  8
0
  5
240D
 10
32.3479
 20
57.1350
 30
0.00000
  70
    32
  0
VERTEX
  8
0
  5
240E
 10
32.3459
 20
57.1399
 30
0.00000
  70
    32
  0
VERTEX
  8
0
  5
240F
 10
32.3439
 20
57.1448
 30
0.00000
  70
    32
  0
VERTEX
  8
0
  5
2410
 10
32.3419
 20
57.1497
 30
0.00000
  70
    32
  0
VERTEX
  8
0
  5
2411
 10
32.3399
 20
57.1545
 30
0.00000
  70
    32
  0
VERTEX
  8
0
  5
2412
 10
32.3379
 20
57.1593
 30
0.00000
  70
    32
  0
VERTEX
  8
0
  5
2413
 10
32.3359
 20
57.1641
 30
0.00000
  70
    32
  0
VERTEX
  8
0
  5
2414
 10
32.3339
 20
57.1688
 30
0.00000
  70
    32
  0
VERTEX
  8
0
  5
2415
 10
32.3319
 20
57.1735
 30
0.00000
  70
    32
  0
VERTEX
  8
0
  5
2416
 10
32.3300
 20
57.1781
 30
0.00000
  70
    32
  0
SEQEND
  8
0
  5
2417
  0
POLYLINE
  5
204F
  8
0
 10
32.8434738668607196
 20
60.8720868390655596
 30
0.0
 66
     1
 70
     8
  0
VERTEX
  8
0
  5
2418
 10
32.8435
 20
60.8721
 30
0.00000
  70
    32
  0
VERTEX
  8
0
  5
2419
 10
32.8396
 20
60.8982
 30
0.00000
  70
    32
  0
VERTEX
  8
0
  5
241A
 10
32.8357
 20
60.9242
 30
0.00000
  70
    32
  0
VERTEX
  8
0
  5
241B
 10
32.8317
 20
60.9500
 30
0.00000
  70
    32
  0
VERTEX
  8
0
  5
241C
 10
32.8278
 20
60.9757
 30
0.00000
  70
    32
  0
VERTEX
  8
0
  5
241D
 10
32.8239
 20
61.0012
 30
0.00000
  70
    32
  0
VERTEX
  8
0
  5
241E
 10
32.8200
 20
61.0267
 30
0.00000
  70
    32
  0
VERTEX
  8
0
  5
241F
 10
32.8161
 20
61.0519
 30
0.00000
  70
    32
  0
VERTEX
  8
0
  5
2420
 10
32.8122
 20
61.0771
 30
0.00000
  70
    32
  0
VERTEX
  8
0
  5
2421
 10
32.8082
 20
61.1021
 30
0.00000
  70
    32
  0
VERTEX
  8
0
  5
2422
 10
32.8043
 20
61.1270
 30
0.00000
  70
    32
  0
VERTEX
  8
0
  5
2423
 10
32.8004
 20
61.1517
 30
0.00000
  70
    32
  0
VERTEX
  8
0
  5
2424
 10
32.7964
 20
61.1763
 30
0.00000
  70
    32
  0
VERTEX
  8
0
  5
2425
 10
32.7925
 20
61.2008
 30
0.00000
  70
    32
  0
VERTEX
  8
0
  5
2426
 10
32.7886
 20
61.2251
 30
0.00000
  70
    32
  0
VERTEX
  8
0
  5
2427
 10
32.7846
 20
61.2493
 30
0.00000
  70
    32
  0
VERTEX
  8
0
  5
2428
 10
32.7807
 20
61.2734
 30
0.00000
  70
    32
  0
VERTEX
  8
0
  5
2429
 10
32.7768
 20
61.2973
 30
0.00000
  70
    32
  0
VERTEX
  8
0
  5
242A
 10
32.7728
 20
61.3211
 30
0.00000
  70
    32
  0
VERTEX
  8
0
  5
242B
 10
32.7689
 20
61.3447
 30
0.00000
  70
    32
  0
VERTEX
  8
0
  5
242C
 10
32.7649
 20
61.3682
 30
0.00000
  70
    32
  0
VERTEX
  8
0
  5
242D
 10
32.7610
 20
61.3916
 30
0.00000
  70
    32
  0
VERTEX
  8
0
  5
242E
 10
32.7570
 20
61.4149
 30
0.00000
  70
    32
  0
VERTEX
  8
0
  5
242F
 10
32.7531
 20
61.4380
 30
0.00000
  70
    32
  0
VERTEX
  8
0
  5
2430
 10
32.7491
 20
61.4609
 30
0.00000
  70
    32
  0
VERTEX
  8
0
  5
2431
 10
32.7452
 20
61.4838
 30
0.00000
  70
    32
  0
VERTEX
  8
0
  5
2432
 10
32.7412
 20
61.5064
 30
0.00000
  70
    32
  0
VERTEX
  8
0
  5
2433
 10
32.7372
 20
61.5290
 30
0.00000
  70
    32
  0
VERTEX
  8
0
  5
2434
 10
32.7333
 20
61.5514
 30
0.00000
  70
    32
  0
VERTEX
  8
0
  5
2435
 10
32.7293
 20
61.5737
 30
0.00000
  70
    32
  0
VERTEX
  8
0
  5
2436
 10
32.7254
 20
61.5958
 30
0.00000
  70
    32
  0
VERTEX
  8
0
  5
2437
 10
32.7214
 20
61.6178
 30
0.00000
  70
    32
  0
VERTEX
  8
0
  5
2438
 10
32.7174
 20
61.6397
 30
0.00000
  70
    32
  0
VERTEX
  8
0
  5
2439
 10
32.7135
 20
61.6614
 30
0.00000
  70
    32
  0
VERTEX
  8
0
  5
243A
 10
32.7095
 20
61.6830
 30
0.00000
  70
    32
  0
VERTEX
  8
0
  5
243B
 10
32.7055
 20
61.7045
 30
0.00000
  70
    32
  0
VERTEX
  8
0
  5
243C
 10
32.7015
 20
61.7258
 30
0.00000
  70
    32
  0
VERTEX
  8
0
  5
243D
 10
32.6976
 20
61.7470
 30
0.00000
  70
    32
  0
VERTEX
  8
0
  5
243E
 10
32.6936
 20
61.7680
 30
0.00000
  70
    32
  0
VERTEX
  8
0
  5
243F
 10
32.6896
 20
61.7889
 30
0.00000
  70
    32
  0
VERTEX
  8
0
  5
2440
 10
32.6856
 20
61.8097
 30
0.00000
  70
    32
  0
VERTEX
  8
0
  5
2441
 10
32.6816
 20
61.8303
 30
0.00000
  70
    32
  0
VERTEX
  8
0
  5
2442
 10
32.6777
 20
61.8508
 30
0.00000
  70
    32
  0
VERTEX
  8
0
  5
2443
 10
32.6737
 20
61.8711
 30
0.00000
  70
    32
  0
VERTEX
  8
0
  5
2444
 10
32.6697
 20
61.8913
 30
0.00000
  70
    32
  0
VERTEX
  8
0
  5
2445
 10
32.6657
 20
61.9114
 30
0.00000
  70
    32
  0
VERTEX
  8
0
  5
2446
 10
32.6617
 20
61.9314
 30
0.00000
  70
    32
  0
VERTEX
  8
0
  5
2447
 10
32.6577
 20
61.9511
 30
0.00000
  70
    32
  0
VERTEX
  8
0
  5
2448
 10
32.6537
 20
61.9708
 30
0.00000
  70
    32
  0
VERTEX
  8
0
  5
2449
 10
32.6497
 20
61.9903
 30
0.00000
  70
    32
  0
VERTEX
  8
0
  5
244A
 10
32.6457
 20
62.0097
 30
0.00000
  70
    32
  0
VERTEX
  8
0
  5
244B
 10
32.6417
 20
62.0289
 30
0.00000
  70
    32
  0
VERTEX
  8
0
  5
244C
 10
32.6377
 20
62.0480
 30
0.00000
  70
    32
  0
VERTEX
  8
0
  5
244D
 10
32.6337
 20
62.0670
 30
0.00000
  70
    32
  0
VERTEX
  8
0
  5
244E
 10
32.6297
 20
62.0858
 30
0.00000
  70
    32
  0
VERTEX
  8
0
  5
244F
 10
32.6257
 20
62.1045
 30
0.00000
  70
    32
  0
VERTEX
  8
0
  5
2450
 10
32.6217
 20
62.1231
 30
0.00000
  70
    32
  0
VERTEX
  8
0
  5
2451
 10
32.6177
 20
62.1415
 30
0.00000
  70
    32
  0
VERTEX
  8
0
  5
2452
 10
32.6137
 20
62.1597
 30
0.00000
  70
    32
  0
VERTEX
  8
0
  5
2453
 10
32.6097
 20
62.1779
 30
0.00000
  70
    32
  0
VERTEX
  8
0
  5
2454
 10
32.6056
 20
62.1959
 30
0.00000
  70
    32
  0
VERTEX
  8
0
  5
2455
 10
32.6016
 20
62.2137
 30
0.00000
  70
    32
  0
VERTEX
  8
0
  5
2456
 10
32.5976
 20
62.2314
 30
0.00000
  70
    32
  0
VERTEX
  8
0
  5
2457
 10
32.5936
 20
62.2490
 30
0.00000
  70
    32
  0
VERTEX
  8
0
  5
2458
 10
32.5896
 20
62.2664
 30
0.00000
  70
    32
  0
VERTEX
  8
0
  5
2459
 10
32.5856
 20
62.2837
 30
0.00000
  70
    32
  0
VERTEX
  8
0
  5
245A
 10
32.5815
 20
62.3009
 30
0.00000
  70
    32
  0
VERTEX
  8
0
  5
245B
 10
32.5775
 20
62.3179
 30
0.00000
  70
    32
  0
VERTEX
  8
0
  5
245C
 10
32.5735
 20
62.3348
 30
0.00000
  70
    32
  0
VERTEX
  8
0
  5
245D
 10
32.5695
 20
62.3515
 30
0.00000
  70
    32
  0
VERTEX
  8
0
  5
245E
 10
32.5654
 20
62.3681
 30
0.00000
  70
    32
  0
VERTEX
  8
0
  5
245F
 10
32.5614
 20
62.3846
 30
0.00000
  70
    32
  0
VERTEX
  8
0
  5
2460
 10
32.5574
 20
62.4009
 30
0.00000
  70
    32
  0
VERTEX
  8
0
  5
2461
 10
32.5533
 20
62.4171
 30
0.00000
  70
    32
  0
VERTEX
  8
0
  5
2462
 10
32.5493
 20
62.4331
 30
0.00000
  70
    32
  0
VERTEX
  8
0
  5
2463
 10
32.5453
 20
62.4490
 30
0.00000
  70
    32
  0
VERTEX
  8
0
  5
2464
 10
32.5412
 20
62.4648
 30
0.00000
  70
    32
  0
VERTEX
  8
0
  5
2465
 10
32.5372
 20
62.4804
 30
0.00000
  70
    32
  0
VERTEX
  8
0
  5
2466
 10
32.5332
 20
62.4959
 30
0.00000
  70
    32
  0
VERTEX
  8
0
  5
2467
 10
32.5291
 20
62.5112
 30
0.00000
  70
    32
  0
VERTEX
  8
0
  5
2468
 10
32.5251
 20
62.5264
 30
0.00000
  70
    32
  0
VERTEX
  8
0
  5
2469
 10
32.5211
 20
62.5415
 30
0.00000
  70
    32
  0
VERTEX
  8
0
  5
246A
 10
32.5170
 20
62.5564
 30
0.00000
  70
    32
  0
VERTEX
  8
0
  5
246B
 10
32.5130
 20
62.5712
 30
0.00000
  70
    32
  0
VERTEX
  8
0
  5
246C
 10
32.5089
 20
62.5858
 30
0.00000
  70
    32
  0
VERTEX
  8
0
  5
246D
 10
32.5049
 20
62.6003
 30
0.00000
  70
    32
  0
VERTEX
  8
0
  5
246E
 10
32.5008
 20
62.6146
 30
0.00000
  70
    32
  0
VERTEX
  8
0
  5
246F
 10
32.4968
 20
62.6289
 30
0.00000
  70
    32
  0
VERTEX
  8
0
  5
2470
 10
32.4927
 20
62.6429
 30
0.00000
  70
    32
  0
VERTEX
  8
0
  5
2471
 10
32.4887
 20
62.6569
 30
0.00000
  70
    32
  0
VERTEX
  8
0
  5
2472
 10
32.4846
 20
62.6707
 30
0.00000
  70
    32
  0
VERTEX
  8
0
  5
2473
 10
32.4806
 20
62.6843
 30
0.00000
  70
    32
  0
VERTEX
  8
0
  5
2474
 10
32.4765
 20
62.6978
 30
0.00000
  70
    32
  0
VERTEX
  8
0
  5
2475
 10
32.4725
 20
62.7112
 30
0.00000
  70
    32
  0
VERTEX
  8
0
  5
2476
 10
32.4684
 20
62.7245
 30
0.00000
  70
    32
  0
VERTEX
  8
0
  5
2477
 10
32.4644
 20
62.7375
 30
0.00000
  70
    32
  0
VERTEX
  8
0
  5
2478
 10
32.4603
 20
62.7505
 30
0.00000
  70
    32
  0
VERTEX
  8
0
  5
2479
 10
32.4562
 20
62.7633
 30
0.00000
  70
    32
  0
VERTEX
  8
0
  5
247A
 10
32.4522
 20
62.7760
 30
0.00000
  70
    32
  0
VERTEX
  8
0
  5
247B
 10
32.4481
 20
62.7885
 30
0.00000
  70
    32
  0
VERTEX
  8
0
  5
247C
 10
32.4441
 20
62.8009
 30
0.00000
  70
    32
  0
VERTEX
  8
0
  5
247D
 10
32.4400
 20
62.8131
 30
0.00000
  70
    32
  0
VERTEX
  8
0
  5
247E
 10
32.4359
 20
62.8253
 30
0.00000
  70
    32
  0
VERTEX
  8
0
  5
247F
 10
32.4319
 20
62.8372
 30
0.00000
  70
    32
  0
VERTEX
  8
0
  5
2480
 10
32.4278
 20
62.8490
 30
0.00000
  70
    32
  0
VERTEX
  8
0
  5
2481
 10
32.4237
 20
62.8607
 30
0.00000
  70
    32
  0
VERTEX
  8
0
  5
2482
 10
32.4197
 20
62.8723
 30
0.00000
  70
    32
  0
VERTEX
  8
0
  5
2483
 10
32.4156
 20
62.8837
 30
0.00000
  70
    32
  0
VERTEX
  8
0
  5
2484
 10
32.4115
 20
62.8949
 30
0.00000
  70
    32
  0
VERTEX
  8
0
  5
2485
 10
32.4075
 20
62.9061
 30
0.00000
  70
    32
  0
VERTEX
  8
0
  5
2486
 10
32.4034
 20
62.9170
 30
0.00000
  70
    32
  0
VERTEX
  8
0
  5
2487
 10
32.3993
 20
62.9279
 30
0.00000
  70
    32
  0
VERTEX
  8
0
  5
2488
 10
32.3952
 20
62.9386
 30
0.00000
  70
    32
  0
VERTEX
  8
0
  5
2489
 10
32.3912
 20
62.9491
 30
0.00000
  70
    32
  0
VERTEX
  8
0
  5
248A
 10
32.3871
 20
62.9595
 30
0.00000
  70
    32
  0
VERTEX
  8
0
  5
248B
 10
32.3830
 20
62.9698
 30
0.00000
  70
    32
  0
VERTEX
  8
0
  5
248C
 10
32.3789
 20
62.9800
 30
0.00000
  70
    32
  0
VERTEX
  8
0
  5
248D
 10
32.3749
 20
62.9899
 30
0.00000
  70
    32
  0
VERTEX
  8
0
  5
248E
 10
32.3708
 20
62.9998
 30
0.00000
  70
    32
  0
VERTEX
  8
0
  5
248F
 10
32.3667
 20
63.0095
 30
0.00000
  70
    32
  0
VERTEX
  8
0
  5
2490
 10
32.3626
 20
63.0191
 30
0.00000
  70
    32
  0
VERTEX
  8
0
  5
2491
 10
32.3585
 20
63.0285
 30
0.00000
  70
    32
  0
VERTEX
  8
0
  5
2492
 10
32.3545
 20
63.0378
 30
0.00000
  70
    32
  0
VERTEX
  8
0
  5
2493
 10
32.3504
 20
63.0469
 30
0.00000
  70
    32
  0
VERTEX
  8
0
  5
2494
 10
32.3463
 20
63.0559
 30
0.00000
  70
    32
  0
VERTEX
  8
0
  5
2495
 10
32.3422
 20
63.0648
 30
0.00000
  70
    32
  0
VERTEX
  8
0
  5
2496
 10
32.3381
 20
63.0735
 30
0.00000
  70
    32
  0
VERTEX
  8
0
  5
2497
 10
32.3340
 20
63.0821
 30
0.00000
  70
    32
  0
VERTEX
  8
0
  5
2498
 10
32.3300
 20
63.0905
 30
0.00000
  70
    32
  0
SEQEND
  8
0
  5
2499
  0
POLYLINE
  5
2050
  8
0
 10
32.3299516641292968
 20
63.0904959311133169
 30
0.0
 66
     1
 70
     8
  0
VERTEX
  8
0
  5
249A
 10
32.3300
 20
63.0905
 30
0.00000
  70
    32
  0
VERTEX
  8
0
  5
249B
 10
32.3144
 20
63.1036
 30
0.00000
  70
    32
  0
VERTEX
  8
0
  5
249C
 10
32.2989
 20
63.1164
 30
0.00000
  70
    32
  0
VERTEX
  8
0
  5
249D
 10
32.2834
 20
63.1289
 30
0.00000
  70
    32
  0
VERTEX
  8
0
  5
249E
 10
32.2678
 20
63.1409
 30
0.00000
  70
    32
  0
VERTEX
  8
0
  5
249F
 10
32.2523
 20
63.1526
 30
0.00000
  70
    32
  0
VERTEX
  8
0
  5
24A0
 10
32.2367
 20
63.1640
 30
0.00000
  70
    32
  0
VERTEX
  8
0
  5
24A1
 10
32.2212
 20
63.1750
 30
0.00000
  70
    32
  0
VERTEX
  8
0
  5
24A2
 10
32.2056
 20
63.1856
 30
0.00000
  70
    32
  0
VERTEX
  8
0
  5
24A3
 10
32.1901
 20
63.1959
 30
0.00000
  70
    32
  0
VERTEX
  8
0
  5
24A4
 10
32.1745
 20
63.2058
 30
0.00000
  70
    32
  0
VERTEX
  8
0
  5
24A5
 10
32.1589
 20
63.2153
 30
0.00000
  70
    32
  0
VERTEX
  8
0
  5
24A6
 10
32.1434
 20
63.2245
 30
0.00000
  70
    32
  0
VERTEX
  8
0
  5
24A7
 10
32.1278
 20
63.2333
 30
0.00000
  70
    32
  0
VERTEX
  8
0
  5
24A8
 10
32.1122
 20
63.2418
 30
0.00000
  70
    32
  0
VERTEX
  8
0
  5
24A9
 10
32.0967
 20
63.2499
 30
0.00000
  70
    32
  0
VERTEX
  8
0
  5
24AA
 10
32.0811
 20
63.2576
 30
0.00000
  70
    32
  0
VERTEX
  8
0
  5
24AB
 10
32.0655
 20
63.2650
 30
0.00000
  70
    32
  0
VERTEX
  8
0
  5
24AC
 10
32.0499
 20
63.2720
 30
0.00000
  70
    32
  0
VERTEX
  8
0
  5
24AD
 10
32.0343
 20
63.2787
 30
0.00000
  70
    32
  0
VERTEX
  8
0
  5
24AE
 10
32.0188
 20
63.2850
 30
0.00000
  70
    32
  0
VERTEX
  8
0
  5
24AF
 10
32.0032
 20
63.2909
 30
0.00000
  70
    32
  0
VERTEX
  8
0
  5
24B0
 10
31.9876
 20
63.2965
 30
0.00000
  70
    32
  0
VERTEX
  8
0
  5
24B1
 10
31.9720
 20
63.3017
 30
0.00000
  70
    32
  0
VERTEX
  8
0
  5
24B2
 10
31.9564
 20
63.3065
 30
0.00000
  70
    32
  0
VERTEX
  8
0
  5
24B3
 10
31.9408
 20
63.3110
 30
0.00000
  70
    32
  0
VERTEX
  8
0
  5
24B4
 10
31.9252
 20
63.3152
 30
0.00000
  70
    32
  0
VERTEX
  8
0
  5
24B5
 10
31.9096
 20
63.3189
 30
0.00000
  70
    32
  0
VERTEX
  8
0
  5
24B6
 10
31.8940
 20
63.3223
 30
0.00000
  70
    32
  0
VERTEX
  8
0
  5
24B7
 10
31.8784
 20
63.3254
 30
0.00000
  70
    32
  0
VERTEX
  8
0
  5
24B8
 10
31.8628
 20
63.3281
 30
0.00000
  70
    32
  0
VERTEX
  8
0
  5
24B9
 10
31.8472
 20
63.3304
 30
0.00000
  70
    32
  0
VERTEX
  8
0
  5
24BA
 10
31.8316
 20
63.3323
 30
0.00000
  70
    32
  0
VERTEX
  8
0
  5
24BB
 10
31.8160
 20
63.3339
 30
0.00000
  70
    32
  0
VERTEX
  8
0
  5
24BC
 10
31.8004
 20
63.3352
 30
0.00000
  70
    32
  0
VERTEX
  8
0
  5
24BD
 10
31.7848
 20
63.3361
 30
0.00000
  70
    32
  0
VERTEX
  8
0
  5
24BE
 10
31.7692
 20
63.3366
 30
0.00000
  70
    32
  0
VERTEX
  8
0
  5
24BF
 10
31.7536
 20
63.3367
 30
0.00000
  70
    32
  0
VERTEX
  8
0
  5
24C0
 10
31.7380
 20
63.3365
 30
0.00000
  70
    32
  0
VERTEX
  8
0
  5
24C1
 10
31.7224
 20
63.3359
 30
0.00000
  70
    32
  0
VERTEX
  8
0
  5
24C2
 10
31.7068
 20
63.3350
 30
0.00000
  70
    32
  0
VERTEX
  8
0
  5
24C3
 10
31.6912
 20
63.3337
 30
0.00000
  70
    32
  0
VERTEX
  8
0
  5
24C4
 10
31.6756
 20
63.3321
 30
0.00000
  70
    32
  0
VERTEX
  8
0
  5
24C5
 10
31.6600
 20
63.3300
 30
0.00000
  70
    32
  0
VERTEX
  8
0
  5
24C6
 10
31.6444
 20
63.3277
 30
0.00000
  70
    32
  0
VERTEX
  8
0
  5
24C7
 10
31.6288
 20
63.3249
 30
0.00000
  70
    32
  0
VERTEX
  8
0
  5
24C8
 10
31.6132
 20
63.3218
 30
0.00000
  70
    32
  0
VERTEX
  8
0
  5
24C9
 10
31.5976
 20
63.3183
 30
0.00000
  70
    32
  0
VERTEX
  8
0
  5
24CA
 10
31.5820
 20
63.3145
 30
0.00000
  70
    32
  0
VERTEX
  8
0
  5
24CB
 10
31.5664
 20
63.3103
 30
0.00000
  70
    32
  0
VERTEX
  8
0
  5
24CC
 10
31.5508
 20
63.3058
 30
0.00000
  70
    32
  0
VERTEX
  8
0
  5
24CD
 10
31.5353
 20
63.3009
 30
0.00000
  70
    32
  0
VERTEX
  8
0
  5
24CE
 10
31.5197
 20
63.2956
 30
0.00000
  70
    32
  0
VERTEX
  8
0
  5
24CF
 10
31.5041
 20
63.2900
 30
0.00000
  70
    32
  0
VERTEX
  8
0
  5
24D0
 10
31.4885
 20
63.2840
 30
0.00000
  70
    32
  0
VERTEX
  8
0
  5
24D1
 10
31.4729
 20
63.2776
 30
0.00000
  70
    32
  0
VERTEX
  8
0
  5
24D2
 10
31.4573
 20
63.2709
 30
0.00000
  70
    32
  0
VERTEX
  8
0
  5
24D3
 10
31.4417
 20
63.2638
 30
0.00000
  70
    32
  0
VERTEX
  8
0
  5
24D4
 10
31.4262
 20
63.2564
 30
0.00000
  70
    32
  0
VERTEX
  8
0
  5
24D5
 10
31.4106
 20
63.2486
 30
0.00000
  70
    32
  0
VERTEX
  8
0
  5
24D6
 10
31.3950
 20
63.2404
 30
0.00000
  70
    32
  0
VERTEX
  8
0
  5
24D7
 10
31.3794
 20
63.2319
 30
0.00000
  70
    32
  0
VERTEX
  8
0
  5
24D8
 10
31.3639
 20
63.2230
 30
0.00000
  70
    32
  0
VERTEX
  8
0
  5
24D9
 10
31.3483
 20
63.2138
 30
0.00000
  70
    32
  0
VERTEX
  8
0
  5
24DA
 10
31.3328
 20
63.2042
 30
0.00000
  70
    32
  0
VERTEX
  8
0
  5
24DB
 10
31.3172
 20
63.1942
 30
0.00000
  70
    32
  0
VERTEX
  8
0
  5
24DC
 10
31.3016
 20
63.1839
 30
0.00000
  70
    32
  0
VERTEX
  8
0
  5
24DD
 10
31.2861
 20
63.1732
 30
0.00000
  70
    32
  0
VERTEX
  8
0
  5
24DE
 10
31.2705
 20
63.1622
 30
0.00000
  70
    32
  0
VERTEX
  8
0
  5
24DF
 10
31.2550
 20
63.1508
 30
0.00000
  70
    32
  0
VERTEX
  8
0
  5
24E0
 10
31.2394
 20
63.1390
 30
0.00000
  70
    32
  0
VERTEX
  8
0
  5
24E1
 10
31.2239
 20
63.1269
 30
0.00000
  70
    32
  0
VERTEX
  8
0
  5
24E2
 10
31.2084
 20
63.1144
 30
0.00000
  70
    32
  0
VERTEX
  8
0
  5
24E3
 10
31.1928
 20
63.1015
 30
0.00000
  70
    32
  0
VERTEX
  8
0
  5
24E4
 10
31.1773
 20
63.0883
 30
0.00000
  70
    32
  0
VERTEX
  8
0
  5
24E5
 10
31.1618
 20
63.0748
 30
0.00000
  70
    32
  0
VERTEX
  8
0
  5
24E6
 10
31.1463
 20
63.0608
 30
0.00000
  70
    32
  0
VERTEX
  8
0
  5
24E7
 10
31.1308
 20
63.0466
 30
0.00000
  70
    32
  0
VERTEX
  8
0
  5
24E8
 10
31.1152
 20
63.0319
 30
0.00000
  70
    32
  0
VERTEX
  8
0
  5
24E9
 10
31.0997
 20
63.0169
 30
0.00000
  70
    32
  0
VERTEX
  8
0
  5
24EA
 10
31.0842
 20
63.0015
 30
0.00000
  70
    32
  0
VERTEX
  8
0
  5
24EB
 10
31.0687
 20
62.9858
 30
0.00000
  70
    32
  0
VERTEX
  8
0
  5
24EC
 10
31.0533
 20
62.9697
 30
0.00000
  70
    32
  0
VERTEX
  8
0
  5
24ED
 10
31.0378
 20
62.9533
 30
0.00000
  70
    32
  0
VERTEX
  8
0
  5
24EE
 10
31.0223
 20
62.9365
 30
0.00000
  70
    32
  0
VERTEX
  8
0
  5
24EF
 10
31.0068
 20
62.9193
 30
0.00000
  70
    32
  0
VERTEX
  8
0
  5
24F0
 10
30.9913
 20
62.9018
 30
0.00000
  70
    32
  0
VERTEX
  8
0
  5
24F1
 10
30.9759
 20
62.8840
 30
0.00000
  70
    32
  0
VERTEX
  8
0
  5
24F2
 10
30.9604
 20
62.8657
 30
0.00000
  70
    32
  0
VERTEX
  8
0
  5
24F3
 10
30.9450
 20
62.8471
 30
0.00000
  70
    32
  0
VERTEX
  8
0
  5
24F4
 10
30.9295
 20
62.8282
 30
0.00000
  70
    32
  0
VERTEX
  8
0
  5
24F5
 10
30.9141
 20
62.8089
 30
0.00000
  70
    32
  0
VERTEX
  8
0
  5
24F6
 10
30.8986
 20
62.7892
 30
0.00000
  70
    32
  0
VERTEX
  8
0
  5
24F7
 10
30.8832
 20
62.7692
 30
0.00000
  70
    32
  0
VERTEX
  8
0
  5
24F8
 10
30.8678
 20
62.7488
 30
0.00000
  70
    32
  0
VERTEX
  8
0
  5
24F9
 10
30.8524
 20
62.7281
 30
0.00000
  70
    32
  0
VERTEX
  8
0
  5
24FA
 10
30.8369
 20
62.7070
 30
0.00000
  70
    32
  0
VERTEX
  8
0
  5
24FB
 10
30.8215
 20
62.6855
 30
0.00000
  70
    32
  0
VERTEX
  8
0
  5
24FC
 10
30.8061
 20
62.6637
 30
0.00000
  70
    32
  0
VERTEX
  8
0
  5
24FD
 10
30.7907
 20
62.6415
 30
0.00000
  70
    32
  0
VERTEX
  8
0
  5
24FE
 10
30.7754
 20
62.6190
 30
0.00000
  70
    32
  0
VERTEX
  8
0
  5
24FF
 10
30.7600
 20
62.5961
 30
0.00000
  70
    32
  0
VERTEX
  8
0
  5
2500
 10
30.7446
 20
62.5729
 30
0.00000
  70
    32
  0
VERTEX
  8
0
  5
2501
 10
30.7293
 20
62.5493
 30
0.00000
  70
    32
  0
VERTEX
  8
0
  5
2502
 10
30.7139
 20
62.5254
 30
0.00000
  70
    32
  0
VERTEX
  8
0
  5
2503
 10
30.6985
 20
62.5010
 30
0.00000
  70
    32
  0
VERTEX
  8
0
  5
2504
 10
30.6832
 20
62.4764
 30
0.00000
  70
    32
  0
VERTEX
  8
0
  5
2505
 10
30.6679
 20
62.4514
 30
0.00000
  70
    32
  0
VERTEX
  8
0
  5
2506
 10
30.6525
 20
62.4260
 30
0.00000
  70
    32
  0
VERTEX
  8
0
  5
2507
 10
30.6372
 20
62.4003
 30
0.00000
  70
    32
  0
VERTEX
  8
0
  5
2508
 10
30.6219
 20
62.3742
 30
0.00000
  70
    32
  0
VERTEX
  8
0
  5
2509
 10
30.6066
 20
62.3478
 30
0.00000
  70
    32
  0
VERTEX
  8
0
  5
250A
 10
30.5913
 20
62.3210
 30
0.00000
  70
    32
  0
VERTEX
  8
0
  5
250B
 10
30.5760
 20
62.2938
 30
0.00000
  70
    32
  0
VERTEX
  8
0
  5
250C
 10
30.5608
 20
62.2663
 30
0.00000
  70
    32
  0
VERTEX
  8
0
  5
250D
 10
30.5455
 20
62.2385
 30
0.00000
  70
    32
  0
VERTEX
  8
0
  5
250E
 10
30.5302
 20
62.2103
 30
0.00000
  70
    32
  0
VERTEX
  8
0
  5
250F
 10
30.5150
 20
62.1817
 30
0.00000
  70
    32
  0
VERTEX
  8
0
  5
2510
 10
30.4997
 20
62.1528
 30
0.00000
  70
    32
  0
VERTEX
  8
0
  5
2511
 10
30.4845
 20
62.1235
 30
0.00000
  70
    32
  0
VERTEX
  8
0
  5
2512
 10
30.4693
 20
62.0939
 30
0.00000
  70
    32
  0
VERTEX
  8
0
  5
2513
 10
30.4541
 20
62.0639
 30
0.00000
  70
    32
  0
VERTEX
  8
0
  5
2514
 10
30.4388
 20
62.0336
 30
0.00000
  70
    32
  0
VERTEX
  8
0
  5
2515
 10
30.4237
 20
62.0029
 30
0.00000
  70
    32
  0
VERTEX
  8
0
  5
2516
 10
30.4085
 20
61.9719
 30
0.00000
  70
    32
  0
VERTEX
  8
0
  5
2517
 10
30.3933
 20
61.9405
 30
0.00000
  70
    32
  0
VERTEX
  8
0
  5
2518
 10
30.3781
 20
61.9088
 30
0.00000
  70
    32
  0
VERTEX
  8
0
  5
2519
 10
30.3630
 20
61.8767
 30
0.00000
  70
    32
  0
VERTEX
  8
0
  5
251A
 10
30.3478
 20
61.8443
 30
0.00000
  70
    32
  0
SEQEND
  8
0
  5
251B
  0
POLYLINE
  5
2051
  8
0
 66
     1
 10
0.0
 20
0.0
 30
0.0
  0
VERTEX
  5
2209
  8
0
 10
49.3299516641300215
 20
63.0904959311126774
 30
0.0
  0
VERTEX
  5
220A
  8
0
 10
49.7339069627805586
 20
63.3367194131633369
 30
0.0
  0
VERTEX
  5
220B
  8
0
 10
50.1271452256128498
 20
63.2998525630564401
 30
0.0
  0
VERTEX
  5
220C
  8
0
 10
50.526363639110599
 20
63.0497220775133087
 30
0.0
  0
VERTEX
  5
220D
  8
0
 10
50.921453172656129
 20
62.5641803735920234
 30
0.0
  0
VERTEX
  5
220E
  8
0
 10
51.3120939496388289
 20
61.8442757632747373
 30
0.0
  0
SEQEND
  5
220F
  8
0
  0
POLYLINE
  5
2052
  8
0
 10
51.5799516641295099
 20
55.0356567617756696
 30
0.0
 66
     1
 70
     8
  0
VERTEX
  8
0
  5
251C
 10
51.5800
 20
55.0357
 30
0.00000
  70
    32
  0
VERTEX
  8
0
  5
251D
 10
51.5631
 20
55.0856
 30
0.00000
  70
    32
  0
VERTEX
  8
0
  5
251E
 10
51.5462
 20
55.1349
 30
0.00000
  70
    32
  0
VERTEX
  8
0
  5
251F
 10
51.5293
 20
55.1838
 30
0.00000
  70
    32
  0
VERTEX
  8
0
  5
2520
 10
51.5123
 20
55.2322
 30
0.00000
  70
    32
  0
VERTEX
  8
0
  5
2521
 10
51.4954
 20
55.2801
 30
0.00000
  70
    32
  0
VERTEX
  8
0
  5
2522
 10
51.4784
 20
55.3275
 30
0.00000
  70
    32
  0
VERTEX
  8
0
  5
2523
 10
51.4614
 20
55.3743
 30
0.00000
  70
    32
  0
VERTEX
  8
0
  5
2524
 10
51.4444
 20
55.4207
 30
0.00000
  70
    32
  0
VERTEX
  8
0
  5
2525
 10
51.4274
 20
55.4665
 30
0.00000
  70
    32
  0
VERTEX
  8
0
  5
2526
 10
51.4103
 20
55.5118
 30
0.00000
  70
    32
  0
VERTEX
  8
0
  5
2527
 10
51.3932
 20
55.5566
 30
0.00000
  70
    32
  0
VERTEX
  8
0
  5
2528
 10
51.3762
 20
55.6009
 30
0.00000
  70
    32
  0
VERTEX
  8
0
  5
2529
 10
51.3591
 20
55.6447
 30
0.00000
  70
    32
  0
VERTEX
  8
0
  5
252A
 10
51.3419
 20
55.6880
 30
0.00000
  70
    32
  0
VERTEX
  8
0
  5
252B
 10
51.3248
 20
55.7308
 30
0.00000
  70
    32
  0
VERTEX
  8
0
  5
252C
 10
51.3077
 20
55.7730
 30
0.00000
  70
    32
  0
VERTEX
  8
0
  5
252D
 10
51.2905
 20
55.8148
 30
0.00000
  70
    32
  0
VERTEX
  8
0
  5
252E
 10
51.2733
 20
55.8560
 30
0.00000
  70
    32
  0
VERTEX
  8
0
  5
252F
 10
51.2561
 20
55.8967
 30
0.00000
  70
    32
  0
VERTEX
  8
0
  5
2530
 10
51.2389
 20
55.9369
 30
0.00000
  70
    32
  0
VERTEX
  8
0
  5
2531
 10
51.2216
 20
55.9766
 30
0.00000
  70
    32
  0
VERTEX
  8
0
  5
2532
 10
51.2044
 20
56.0158
 30
0.00000
  70
    32
  0
VERTEX
  8
0
  5
2533
 10
51.1871
 20
56.0544
 30
0.00000
  70
    32
  0
VERTEX
  8
0
  5
2534
 10
51.1699
 20
56.0925
 30
0.00000
  70
    32
  0
VERTEX
  8
0
  5
2535
 10
51.1526
 20
56.1301
 30
0.00000
  70
    32
  0
VERTEX
  8
0
  5
2536
 10
51.1353
 20
56.1672
 30
0.00000
  70
    32
  0
VERTEX
  8
0
  5
2537
 10
51.1179
 20
56.2038
 30
0.00000
  70
    32
  0
VERTEX
  8
0
  5
2538
 10
51.1006
 20
56.2399
 30
0.00000
  70
    32
  0
VERTEX
  8
0
  5
2539
 10
51.0832
 20
56.2754
 30
0.00000
  70
    32
  0
VERTEX
  8
0
  5
253A
 10
51.0659
 20
56.3104
 30
0.00000
  70
    32
  0
VERTEX
  8
0
  5
253B
 10
51.0485
 20
56.3449
 30
0.00000
  70
    32
  0
VERTEX
  8
0
  5
253C
 10
51.0311
 20
56.3789
 30
0.00000
  70
    32
  0
VERTEX
  8
0
  5
253D
 10
51.0137
 20
56.4124
 30
0.00000
  70
    32
  0
VERTEX
  8
0
  5
253E
 10
50.9963
 20
56.4453
 30
0.00000
  70
    32
  0
VERTEX
  8
0
  5
253F
 10
50.9788
 20
56.4777
 30
0.00000
  70
    32
  0
VERTEX
  8
0
  5
2540
 10
50.9614
 20
56.5096
 30
0.00000
  70
    32
  0
VERTEX
  8
0
  5
2541
 10
50.9439
 20
56.5410
 30
0.00000
  70
    32
  0
VERTEX
  8
0
  5
2542
 10
50.9265
 20
56.5718
 30
0.00000
  70
    32
  0
VERTEX
  8
0
  5
2543
 10
50.9090
 20
56.6021
 30
0.00000
  70
    32
  0
VERTEX
  8
0
  5
2544
 10
50.8915
 20
56.6319
 30
0.00000
  70
    32
  0
VERTEX
  8
0
  5
2545
 10
50.8740
 20
56.6612
 30
0.00000
  70
    32
  0
VERTEX
  8
0
  5
2546
 10
50.8565
 20
56.6900
 30
0.00000
  70
    32
  0
VERTEX
  8
0
  5
2547
 10
50.8389
 20
56.7182
 30
0.00000
  70
    32
  0
VERTEX
  8
0
  5
2548
 10
50.8214
 20
56.7459
 30
0.00000
  70
    32
  0
VERTEX
  8
0
  5
2549
 10
50.8038
 20
56.7731
 30
0.00000
  70
    32
  0
VERTEX
  8
0
  5
254A
 10
50.7863
 20
56.7997
 30
0.00000
  70
    32
  0
VERTEX
  8
0
  5
254B
 10
50.7687
 20
56.8258
 30
0.00000
  70
    32
  0
VERTEX
  8
0
  5
254C
 10
50.7511
 20
56.8514
 30
0.00000
  70
    32
  0
VERTEX
  8
0
  5
254D
 10
50.7335
 20
56.8765
 30
0.00000
  70
    32
  0
VERTEX
  8
0
  5
254E
 10
50.7159
 20
56.9011
 30
0.00000
  70
    32
  0
VERTEX
  8
0
  5
254F
 10
50.6983
 20
56.9251
 30
0.00000
  70
    32
  0
VERTEX
  8
0
  5
2550
 10
50.6807
 20
56.9486
 30
0.00000
  70
    32
  0
VERTEX
  8
0
  5
2551
 10
50.6631
 20
56.9715
 30
0.00000
  70
    32
  0
VERTEX
  8
0
  5
2552
 10
50.6454
 20
56.9940
 30
0.00000
  70
    32
  0
VERTEX
  8
0
  5
2553
 10
50.6278
 20
57.0159
 30
0.00000
  70
    32
  0
VERTEX
  8
0
  5
2554
 10
50.6101
 20
57.0372
 30
0.00000
  70
    32
  0
VERTEX
  8
0
  5
2555
 10
50.5925
 20
57.0581
 30
0.00000
  70
    32
  0
VERTEX
  8
0
  5
2556
 10
50.5748
 20
57.0784
 30
0.00000
  70
    32
  0
VERTEX
  8
0
  5
2557
 10
50.5571
 20
57.0982
 30
0.00000
  70
    32
  0
VERTEX
  8
0
  5
2558
 10
50.5394
 20
57.1175
 30
0.00000
  70
    32
  0
VERTEX
  8
0
  5
2559
 10
50.5217
 20
57.1362
 30
0.00000
  70
    32
  0
VERTEX
  8
0
  5
255A
 10
50.5040
 20
57.1544
 30
0.00000
  70
    32
  0
VERTEX
  8
0
  5
255B
 10
50.4863
 20
57.1721
 30
0.00000
  70
    32
  0
VERTEX
  8
0
  5
255C
 10
50.4686
 20
57.1892
 30
0.00000
  70
    32
  0
VERTEX
  8
0
  5
255D
 10
50.4509
 20
57.2058
 30
0.00000
  70
    32
  0
VERTEX
  8
0
  5
255E
 10
50.4331
 20
57.2219
 30
0.00000
  70
    32
  0
VERTEX
  8
0
  5
255F
 10
50.4154
 20
57.2374
 30
0.00000
  70
    32
  0
VERTEX
  8
0
  5
2560
 10
50.3976
 20
57.2525
 30
0.00000
  70
    32
  0
VERTEX
  8
0
  5
2561
 10
50.3799
 20
57.2669
 30
0.00000
  70
    32
  0
VERTEX
  8
0
  5
2562
 10
50.3621
 20
57.2809
 30
0.00000
  70
    32
  0
VERTEX
  8
0
  5
2563
 10
50.3444
 20
57.2943
 30
0.00000
  70
    32
  0
VERTEX
  8
0
  5
2564
 10
50.3266
 20
57.3072
 30
0.00000
  70
    32
  0
VERTEX
  8
0
  5
2565
 10
50.3088
 20
57.3196
 30
0.00000
  70
    32
  0
VERTEX
  8
0
  5
2566
 10
50.2911
 20
57.3314
 30
0.00000
  70
    32
  0
VERTEX
  8
0
  5
2567
 10
50.2733
 20
57.3427
 30
0.00000
  70
    32
  0
VERTEX
  8
0
  5
2568
 10
50.2555
 20
57.3534
 30
0.00000
  70
    32
  0
VERTEX
  8
0
  5
2569
 10
50.2377
 20
57.3637
 30
0.00000
  70
    32
  0
VERTEX
  8
0
  5
256A
 10
50.2199
 20
57.3734
 30
0.00000
  70
    32
  0
VERTEX
  8
0
  5
256B
 10
50.2021
 20
57.3825
 30
0.00000
  70
    32
  0
VERTEX
  8
0
  5
256C
 10
50.1843
 20
57.3912
 30
0.00000
  70
    32
  0
VERTEX
  8
0
  5
256D
 10
50.1665
 20
57.3992
 30
0.00000
  70
    32
  0
VERTEX
  8
0
  5
256E
 10
50.1487
 20
57.4068
 30
0.00000
  70
    32
  0
VERTEX
  8
0
  5
256F
 10
50.1309
 20
57.4138
 30
0.00000
  70
    32
  0
VERTEX
  8
0
  5
2570
 10
50.1131
 20
57.4203
 30
0.00000
  70
    32
  0
VERTEX
  8
0
  5
2571
 10
50.0953
 20
57.4263
 30
0.00000
  70
    32
  0
VERTEX
  8
0
  5
2572
 10
50.0775
 20
57.4317
 30
0.00000
  70
    32
  0
VERTEX
  8
0
  5
2573
 10
50.0597
 20
57.4366
 30
0.00000
  70
    32
  0
VERTEX
  8
0
  5
2574
 10
50.0418
 20
57.4410
 30
0.00000
  70
    32
  0
VERTEX
  8
0
  5
2575
 10
50.0240
 20
57.4448
 30
0.00000
  70
    32
  0
VERTEX
  8
0
  5
2576
 10
50.0062
 20
57.4481
 30
0.00000
  70
    32
  0
VERTEX
  8
0
  5
2577
 10
49.9884
 20
57.4509
 30
0.00000
  70
    32
  0
VERTEX
  8
0
  5
2578
 10
49.9705
 20
57.4531
 30
0.00000
  70
    32
  0
VERTEX
  8
0
  5
2579
 10
49.9527
 20
57.4548
 30
0.00000
  70
    32
  0
VERTEX
  8
0
  5
257A
 10
49.9349
 20
57.4560
 30
0.00000
  70
    32
  0
VERTEX
  8
0
  5
257B
 10
49.9171
 20
57.4566
 30
0.00000
  70
    32
  0
VERTEX
  8
0
  5
257C
 10
49.8992
 20
57.4567
 30
0.00000
  70
    32
  0
VERTEX
  8
0
  5
257D
 10
49.8814
 20
57.4563
 30
0.00000
  70
    32
  0
VERTEX
  8
0
  5
257E
 10
49.8636
 20
57.4553
 30
0.00000
  70
    32
  0
VERTEX
  8
0
  5
257F
 10
49.8458
 20
57.4538
 30
0.00000
  70
    32
  0
VERTEX
  8
0
  5
2580
 10
49.8279
 20
57.4517
 30
0.00000
  70
    32
  0
VERTEX
  8
0
  5
2581
 10
49.8101
 20
57.4492
 30
0.00000
  70
    32
  0
VERTEX
  8
0
  5
2582
 10
49.7923
 20
57.4460
 30
0.00000
  70
    32
  0
VERTEX
  8
0
  5
2583
 10
49.7745
 20
57.4424
 30
0.00000
  70
    32
  0
VERTEX
  8
0
  5
2584
 10
49.7566
 20
57.4382
 30
0.00000
  70
    32
  0
VERTEX
  8
0
  5
2585
 10
49.7388
 20
57.4335
 30
0.00000
  70
    32
  0
VERTEX
  8
0
  5
2586
 10
49.7210
 20
57.4283
 30
0.00000
  70
    32
  0
VERTEX
  8
0
  5
2587
 10
49.7032
 20
57.4225
 30
0.00000
  70
    32
  0
VERTEX
  8
0
  5
2588
 10
49.6854
 20
57.4162
 30
0.00000
  70
    32
  0
VERTEX
  8
0
  5
2589
 10
49.6676
 20
57.4093
 30
0.00000
  70
    32
  0
VERTEX
  8
0
  5
258A
 10
49.6498
 20
57.4020
 30
0.00000
  70
    32
  0
VERTEX
  8
0
  5
258B
 10
49.6320
 20
57.3941
 30
0.00000
  70
    32
  0
VERTEX
  8
0
  5
258C
 10
49.6142
 20
57.3856
 30
0.00000
  70
    32
  0
VERTEX
  8
0
  5
258D
 10
49.5964
 20
57.3766
 30
0.00000
  70
    32
  0
VERTEX
  8
0
  5
258E
 10
49.5786
 20
57.3671
 30
0.00000
  70
    32
  0
VERTEX
  8
0
  5
258F
 10
49.5608
 20
57.3571
 30
0.00000
  70
    32
  0
VERTEX
  8
0
  5
2590
 10
49.5430
 20
57.3465
 30
0.00000
  70
    32
  0
VERTEX
  8
0
  5
2591
 10
49.5252
 20
57.3354
 30
0.00000
  70
    32
  0
VERTEX
  8
0
  5
2592
 10
49.5074
 20
57.3238
 30
0.00000
  70
    32
  0
VERTEX
  8
0
  5
2593
 10
49.4897
 20
57.3116
 30
0.00000
  70
    32
  0
VERTEX
  8
0
  5
2594
 10
49.4719
 20
57.2989
 30
0.00000
  70
    32
  0
VERTEX
  8
0
  5
2595
 10
49.4541
 20
57.2857
 30
0.00000
  70
    32
  0
VERTEX
  8
0
  5
2596
 10
49.4364
 20
57.2719
 30
0.00000
  70
    32
  0
VERTEX
  8
0
  5
2597
 10
49.4186
 20
57.2576
 30
0.00000
  70
    32
  0
VERTEX
  8
0
  5
2598
 10
49.4009
 20
57.2428
 30
0.00000
  70
    32
  0
VERTEX
  8
0
  5
2599
 10
49.3831
 20
57.2274
 30
0.00000
  70
    32
  0
VERTEX
  8
0
  5
259A
 10
49.3654
 20
57.2115
 30
0.00000
  70
    32
  0
VERTEX
  8
0
  5
259B
 10
49.3477
 20
57.1951
 30
0.00000
  70
    32
  0
VERTEX
  8
0
  5
259C
 10
49.3300
 20
57.1781
 30
0.00000
  70
    32
  0
SEQEND
  8
0
  5
259D
  0
LINE
  5
2053
  8
0
 10
51.5799516641300215
 20
55.0356567617742698
 30
0.0
 11
51.5799516641300215
 21
54.8433406802775778
 31
0.0
  0
ARC
  5
2054
  8
0
 10
46.0511737732869832
 20
56.9716619924187171
 30
0.0
 40
5.924283633823503
 50
292.6220365136313148
 51
338.9456245861180719
  0
ARC
  5
2055
  8
0
 10
35.62750832476695
 20
56.9900192446764891
 30
0.0
 40
5.9484127094399346
 50
201.1544085753660909
 51
247.2788216011178122
  0
LINE
  5
2056
  8
0
 10
30.0799516641300215
 20
55.0356567617742698
 30
0.0
 11
30.0799516641300215
 21
54.8433406802775991
 31
0.0
  0
POLYLINE
  5
2057
  8
0
 10
32.3299516641293891
 20
57.1781412550860892
 30
0.0
 66
     1
 70
     8
  0
VERTEX
  8
0
  5
259E
 10
32.3300
 20
57.1781
 30
0.00000
  70
    32
  0
VERTEX
  8
0
  5
259F
 10
32.3122
 20
57.1951
 30
0.00000
  70
    32
  0
VERTEX
  8
0
  5
25A0
 10
32.2945
 20
57.2115
 30
0.00000
  70
    32
  0
VERTEX
  8
0
  5
25A1
 10
32.2768
 20
57.2274
 30
0.00000
  70
    32
  0
VERTEX
  8
0
  5
25A2
 10
32.2590
 20
57.2428
 30
0.00000
  70
    32
  0
VERTEX
  8
0
  5
25A3
 10
32.2413
 20
57.2576
 30
0.00000
  70
    32
  0
VERTEX
  8
0
  5
25A4
 10
32.2235
 20
57.2719
 30
0.00000
  70
    32
  0
VERTEX
  8
0
  5
25A5
 10
32.2058
 20
57.2857
 30
0.00000
  70
    32
  0
VERTEX
  8
0
  5
25A6
 10
32.1880
 20
57.2989
 30
0.00000
  70
    32
  0
VERTEX
  8
0
  5
25A7
 10
32.1702
 20
57.3116
 30
0.00000
  70
    32
  0
VERTEX
  8
0
  5
25A8
 10
32.1525
 20
57.3238
 30
0.00000
  70
    32
  0
VERTEX
  8
0
  5
25A9
 10
32.1347
 20
57.3354
 30
0.00000
  70
    32
  0
VERTEX
  8
0
  5
25AA
 10
32.1169
 20
57.3465
 30
0.00000
  70
    32
  0
VERTEX
  8
0
  5
25AB
 10
32.0991
 20
57.3571
 30
0.00000
  70
    32
  0
VERTEX
  8
0
  5
25AC
 10
32.0813
 20
57.3671
 30
0.00000
  70
    32
  0
VERTEX
  8
0
  5
25AD
 10
32.0635
 20
57.3766
 30
0.00000
  70
    32
  0
VERTEX
  8
0
  5
25AE
 10
32.0458
 20
57.3856
 30
0.00000
  70
    32
  0
VERTEX
  8
0
  5
25AF
 10
32.0280
 20
57.3941
 30
0.00000
  70
    32
  0
VERTEX
  8
0
  5
25B0
 10
32.0101
 20
57.4020
 30
0.00000
  70
    32
  0
VERTEX
  8
0
  5
25B1
 10
31.9923
 20
57.4093
 30
0.00000
  70
    32
  0
VERTEX
  8
0
  5
25B2
 10
31.9745
 20
57.4162
 30
0.00000
  70
    32
  0
VERTEX
  8
0
  5
25B3
 10
31.9567
 20
57.4225
 30
0.00000
  70
    32
  0
VERTEX
  8
0
  5
25B4
 10
31.9389
 20
57.4283
 30
0.00000
  70
    32
  0
VERTEX
  8
0
  5
25B5
 10
31.9211
 20
57.4335
 30
0.00000
  70
    32
  0
VERTEX
  8
0
  5
25B6
 10
31.9033
 20
57.4382
 30
0.00000
  70
    32
  0
VERTEX
  8
0
  5
25B7
 10
31.8854
 20
57.4424
 30
0.00000
  70
    32
  0
VERTEX
  8
0
  5
25B8
 10
31.8676
 20
57.4460
 30
0.00000
  70
    32
  0
VERTEX
  8
0
  5
25B9
 10
31.8498
 20
57.4492
 30
0.00000
  70
    32
  0
VERTEX
  8
0
  5
25BA
 10
31.8320
 20
57.4517
 30
0.00000
  70
    32
  0
VERTEX
  8
0
  5
25BB
 10
31.8142
 20
57.4538
 30
0.00000
  70
    32
  0
VERTEX
  8
0
  5
25BC
 10
31.7963
 20
57.4553
 30
0.00000
  70
    32
  0
VERTEX
  8
0
  5
25BD
 10
31.7785
 20
57.4563
 30
0.00000
  70
    32
  0
VERTEX
  8
0
  5
25BE
 10
31.7607
 20
57.4567
 30
0.00000
  70
    32
  0
VERTEX
  8
0
  5
25BF
 10
31.7428
 20
57.4566
 30
0.00000
  70
    32
  0
VERTEX
  8
0
  5
25C0
 10
31.7250
 20
57.4560
 30
0.00000
  70
    32
  0
VERTEX
  8
0
  5
25C1
 10
31.7072
 20
57.4548
 30
0.00000
  70
    32
  0
VERTEX
  8
0
  5
25C2
 10
31.6894
 20
57.4531
 30
0.00000
  70
    32
  0
VERTEX
  8
0
  5
25C3
 10
31.6715
 20
57.4509
 30
0.00000
  70
    32
  0
VERTEX
  8
0
  5
25C4
 10
31.6537
 20
57.4481
 30
0.00000
  70
    32
  0
VERTEX
  8
0
  5
25C5
 10
31.6359
 20
57.4448
 30
0.00000
  70
    32
  0
VERTEX
  8
0
  5
25C6
 10
31.6181
 20
57.4410
 30
0.00000
  70
    32
  0
VERTEX
  8
0
  5
25C7
 10
31.6002
 20
57.4366
 30
0.00000
  70
    32
  0
VERTEX
  8
0
  5
25C8
 10
31.5824
 20
57.4317
 30
0.00000
  70
    32
  0
VERTEX
  8
0
  5
25C9
 10
31.5646
 20
57.4263
 30
0.00000
  70
    32
  0
VERTEX
  8
0
  5
25CA
 10
31.5468
 20
57.4203
 30
0.00000
  70
    32
  0
VERTEX
  8
0
  5
25CB
 10
31.5290
 20
57.4138
 30
0.00000
  70
    32
  0
VERTEX
  8
0
  5
25CC
 10
31.5112
 20
57.4068
 30
0.00000
  70
    32
  0
VERTEX
  8
0
  5
25CD
 10
31.4934
 20
57.3992
 30
0.00000
  70
    32
  0
VERTEX
  8
0
  5
25CE
 10
31.4756
 20
57.3912
 30
0.00000
  70
    32
  0
VERTEX
  8
0
  5
25CF
 10
31.4578
 20
57.3825
 30
0.00000
  70
    32
  0
VERTEX
  8
0
  5
25D0
 10
31.4400
 20
57.3734
 30
0.00000
  70
    32
  0
VERTEX
  8
0
  5
25D1
 10
31.4222
 20
57.3637
 30
0.00000
  70
    32
  0
VERTEX
  8
0
  5
25D2
 10
31.4044
 20
57.3534
 30
0.00000
  70
    32
  0
VERTEX
  8
0
  5
25D3
 10
31.3866
 20
57.3427
 30
0.00000
  70
    32
  0
VERTEX
  8
0
  5
25D4
 10
31.3688
 20
57.3314
 30
0.00000
  70
    32
  0
VERTEX
  8
0
  5
25D5
 10
31.3511
 20
57.3196
 30
0.00000
  70
    32
  0
VERTEX
  8
0
  5
25D6
 10
31.3333
 20
57.3072
 30
0.00000
  70
    32
  0
VERTEX
  8
0
  5
25D7
 10
31.3155
 20
57.2943
 30
0.00000
  70
    32
  0
VERTEX
  8
0
  5
25D8
 10
31.2978
 20
57.2809
 30
0.00000
  70
    32
  0
VERTEX
  8
0
  5
25D9
 10
31.2800
 20
57.2669
 30
0.00000
  70
    32
  0
VERTEX
  8
0
  5
25DA
 10
31.2623
 20
57.2525
 30
0.00000
  70
    32
  0
VERTEX
  8
0
  5
25DB
 10
31.2445
 20
57.2374
 30
0.00000
  70
    32
  0
VERTEX
  8
0
  5
25DC
 10
31.2268
 20
57.2219
 30
0.00000
  70
    32
  0
VERTEX
  8
0
  5
25DD
 10
31.2090
 20
57.2058
 30
0.00000
  70
    32
  0
VERTEX
  8
0
  5
25DE
 10
31.1913
 20
57.1892
 30
0.00000
  70
    32
  0
VERTEX
  8
0
  5
25DF
 10
31.1736
 20
57.1721
 30
0.00000
  70
    32
  0
VERTEX
  8
0
  5
25E0
 10
31.1559
 20
57.1544
 30
0.00000
  70
    32
  0
VERTEX
  8
0
  5
25E1
 10
31.1382
 20
57.1362
 30
0.00000
  70
    32
  0
VERTEX
  8
0
  5
25E2
 10
31.1205
 20
57.1175
 30
0.00000
  70
    32
  0
VERTEX
  8
0
  5
25E3
 10
31.1028
 20
57.0982
 30
0.00000
  70
    32
  0
VERTEX
  8
0
  5
25E4
 10
31.0851
 20
57.0784
 30
0.00000
  70
    32
  0
VERTEX
  8
0
  5
25E5
 10
31.0674
 20
57.0581
 30
0.00000
  70
    32
  0
VERTEX
  8
0
  5
25E6
 10
31.0498
 20
57.0372
 30
0.00000
  70
    32
  0
VERTEX
  8
0
  5
25E7
 10
31.0321
 20
57.0159
 30
0.00000
  70
    32
  0
VERTEX
  8
0
  5
25E8
 10
31.0145
 20
56.9940
 30
0.00000
  70
    32
  0
VERTEX
  8
0
  5
25E9
 10
30.9968
 20
56.9715
 30
0.00000
  70
    32
  0
VERTEX
  8
0
  5
25EA
 10
30.9792
 20
56.9486
 30
0.00000
  70
    32
  0
VERTEX
  8
0
  5
25EB
 10
30.9616
 20
56.9251
 30
0.00000
  70
    32
  0
VERTEX
  8
0
  5
25EC
 10
30.9440
 20
56.9011
 30
0.00000
  70
    32
  0
VERTEX
  8
0
  5
25ED
 10
30.9264
 20
56.8765
 30
0.00000
  70
    32
  0
VERTEX
  8
0
  5
25EE
 10
30.9088
 20
56.8514
 30
0.00000
  70
    32
  0
VERTEX
  8
0
  5
25EF
 10
30.8912
 20
56.8258
 30
0.00000
  70
    32
  0
VERTEX
  8
0
  5
25F0
 10
30.8736
 20
56.7997
 30
0.00000
  70
    32
  0
VERTEX
  8
0
  5
25F1
 10
30.8561
 20
56.7731
 30
0.00000
  70
    32
  0
VERTEX
  8
0
  5
25F2
 10
30.8385
 20
56.7459
 30
0.00000
  70
    32
  0
VERTEX
  8
0
  5
25F3
 10
30.8210
 20
56.7182
 30
0.00000
  70
    32
  0
VERTEX
  8
0
  5
25F4
 10
30.8034
 20
56.6900
 30
0.00000
  70
    32
  0
VERTEX
  8
0
  5
25F5
 10
30.7859
 20
56.6612
 30
0.00000
  70
    32
  0
VERTEX
  8
0
  5
25F6
 10
30.7684
 20
56.6319
 30
0.00000
  70
    32
  0
VERTEX
  8
0
  5
25F7
 10
30.7509
 20
56.6021
 30
0.00000
  70
    32
  0
VERTEX
  8
0
  5
25F8
 10
30.7334
 20
56.5718
 30
0.00000
  70
    32
  0
VERTEX
  8
0
  5
25F9
 10
30.7160
 20
56.5410
 30
0.00000
  70
    32
  0
VERTEX
  8
0
  5
25FA
 10
30.6985
 20
56.5096
 30
0.00000
  70
    32
  0
VERTEX
  8
0
  5
25FB
 10
30.6811
 20
56.4777
 30
0.00000
  70
    32
  0
VERTEX
  8
0
  5
25FC
 10
30.6636
 20
56.4453
 30
0.00000
  70
    32
  0
VERTEX
  8
0
  5
25FD
 10
30.6462
 20
56.4124
 30
0.00000
  70
    32
  0
VERTEX
  8
0
  5
25FE
 10
30.6288
 20
56.3789
 30
0.00000
  70
    32
  0
VERTEX
  8
0
  5
25FF
 10
30.6114
 20
56.3449
 30
0.00000
  70
    32
  0
VERTEX
  8
0
  5
2600
 10
30.5940
 20
56.3104
 30
0.00000
  70
    32
  0
VERTEX
  8
0
  5
2601
 10
30.5767
 20
56.2754
 30
0.00000
  70
    32
  0
VERTEX
  8
0
  5
2602
 10
30.5593
 20
56.2399
 30
0.00000
  70
    32
  0
VERTEX
  8
0
  5
2603
 10
30.5420
 20
56.2038
 30
0.00000
  70
    32
  0
VERTEX
  8
0
  5
2604
 10
30.5247
 20
56.1672
 30
0.00000
  70
    32
  0
VERTEX
  8
0
  5
2605
 10
30.5073
 20
56.1301
 30
0.00000
  70
    32
  0
VERTEX
  8
0
  5
2606
 10
30.4900
 20
56.0925
 30
0.00000
  70
    32
  0
VERTEX
  8
0
  5
2607
 10
30.4728
 20
56.0544
 30
0.00000
  70
    32
  0
VERTEX
  8
0
  5
2608
 10
30.4555
 20
56.0158
 30
0.00000
  70
    32
  0
VERTEX
  8
0
  5
2609
 10
30.4383
 20
55.9766
 30
0.00000
  70
    32
  0
VERTEX
  8
0
  5
260A
 10
30.4210
 20
55.9369
 30
0.00000
  70
    32
  0
VERTEX
  8
0
  5
260B
 10
30.4038
 20
55.8967
 30
0.00000
  70
    32
  0
VERTEX
  8
0
  5
260C
 10
30.3866
 20
55.8560
 30
0.00000
  70
    32
  0
VERTEX
  8
0
  5
260D
 10
30.3694
 20
55.8148
 30
0.00000
  70
    32
  0
VERTEX
  8
0
  5
260E
 10
30.3522
 20
55.7730
 30
0.00000
  70
    32
  0
VERTEX
  8
0
  5
260F
 10
30.3351
 20
55.7308
 30
0.00000
  70
    32
  0
VERTEX
  8
0
  5
2610
 10
30.3180
 20
55.6880
 30
0.00000
  70
    32
  0
VERTEX
  8
0
  5
2611
 10
30.3008
 20
55.6447
 30
0.00000
  70
    32
  0
VERTEX
  8
0
  5
2612
 10
30.2837
 20
55.6009
 30
0.00000
  70
    32
  0
VERTEX
  8
0
  5
2613
 10
30.2667
 20
55.5566
 30
0.00000
  70
    32
  0
VERTEX
  8
0
  5
2614
 10
30.2496
 20
55.5118
 30
0.00000
  70
    32
  0
VERTEX
  8
0
  5
2615
 10
30.2325
 20
55.4665
 30
0.00000
  70
    32
  0
VERTEX
  8
0
  5
2616
 10
30.2155
 20
55.4207
 30
0.00000
  70
    32
  0
VERTEX
  8
0
  5
2617
 10
30.1985
 20
55.3743
 30
0.00000
  70
    32
  0
VERTEX
  8
0
  5
2618
 10
30.1815
 20
55.3275
 30
0.00000
  70
    32
  0
VERTEX
  8
0
  5
2619
 10
30.1645
 20
55.2801
 30
0.00000
  70
    32
  0
VERTEX
  8
0
  5
261A
 10
30.1476
 20
55.2322
 30
0.00000
  70
    32
  0
VERTEX
  8
0
  5
261B
 10
30.1306
 20
55.1838
 30
0.00000
  70
    32
  0
VERTEX
  8
0
  5
261C
 10
30.1137
 20
55.1349
 30
0.00000
  70
    32
  0
VERTEX
  8
0
  5
261D
 10
30.0968
 20
55.0856
 30
0.00000
  70
    32
  0
VERTEX
  8
0
  5
261E
 10
30.0800
 20
55.0357
 30
0.00000
  70
    32
  0
SEQEND
  8
0
  5
261F
  0
LINE
  5
2058
  8
0
 10
51.3120939496388289
 20
61.8442757632747586
 30
0.0
 11
51.5799516641300215
 21
61.1985508296204372
 31
0.0
  0
LINE
  5
2059
  8
0
 10
51.5799516641300215
 20
61.1985508296203875
 30
0.0
 11
51.5799516641300215
 21
55.0356567617742485
 31
0.0
  0
POLYLINE
  5
205A
  8
0
 10
30.3478093786216228
 20
61.8442757632755047
 30
0.0
 66
     1
 70
     8
  0
VERTEX
  8
0
  5
2620
 10
30.3478
 20
61.8443
 30
0.00000
  70
    32
  0
VERTEX
  8
0
  5
2621
 10
30.3457
 20
61.8399
 30
0.00000
  70
    32
  0
VERTEX
  8
0
  5
2622
 10
30.3436
 20
61.8355
 30
0.00000
  70
    32
  0
VERTEX
  8
0
  5
2623
 10
30.3415
 20
61.8311
 30
0.00000
  70
    32
  0
VERTEX
  8
0
  5
2624
 10
30.3394
 20
61.8267
 30
0.00000
  70
    32
  0
VERTEX
  8
0
  5
2625
 10
30.3372
 20
61.8223
 30
0.00000
  70
    32
  0
VERTEX
  8
0
  5
2626
 10
30.3351
 20
61.8179
 30
0.00000
  70
    32
  0
VERTEX
  8
0
  5
2627
 10
30.3330
 20
61.8135
 30
0.00000
  70
    32
  0
VERTEX
  8
0
  5
2628
 10
30.3309
 20
61.8090
 30
0.00000
  70
    32
  0
VERTEX
  8
0
  5
2629
 10
30.3288
 20
61.8046
 30
0.00000
  70
    32
  0
VERTEX
  8
0
  5
262A
 10
30.3267
 20
61.8001
 30
0.00000
  70
    32
  0
VERTEX
  8
0
  5
262B
 10
30.3246
 20
61.7957
 30
0.00000
  70
    32
  0
VERTEX
  8
0
  5
262C
 10
30.3225
 20
61.7912
 30
0.00000
  70
    32
  0
VERTEX
  8
0
  5
262D
 10
30.3204
 20
61.7867
 30
0.00000
  70
    32
  0
VERTEX
  8
0
  5
262E
 10
30.3183
 20
61.7822
 30
0.00000
  70
    32
  0
VERTEX
  8
0
  5
262F
 10
30.3161
 20
61.7777
 30
0.00000
  70
    32
  0
VERTEX
  8
0
  5
2630
 10
30.3140
 20
61.7731
 30
0.00000
  70
    32
  0
VERTEX
  8
0
  5
2631
 10
30.3119
 20
61.7686
 30
0.00000
  70
    32
  0
VERTEX
  8
0
  5
2632
 10
30.3098
 20
61.7640
 30
0.00000
  70
    32
  0
VERTEX
  8
0
  5
2633
 10
30.3077
 20
61.7595
 30
0.00000
  70
    32
  0
VERTEX
  8
0
  5
2634
 10
30.3056
 20
61.7549
 30
0.00000
  70
    32
  0
VERTEX
  8
0
  5
2635
 10
30.3035
 20
61.7503
 30
0.00000
  70
    32
  0
VERTEX
  8
0
  5
2636
 10
30.3014
 20
61.7457
 30
0.00000
  70
    32
  0
VERTEX
  8
0
  5
2637
 10
30.2993
 20
61.7411
 30
0.00000
  70
    32
  0
VERTEX
  8
0
  5
2638
 10
30.2972
 20
61.7365
 30
0.00000
  70
    32
  0
VERTEX
  8
0
  5
2639
 10
30.2951
 20
61.7319
 30
0.00000
  70
    32
  0
VERTEX
  8
0
  5
263A
 10
30.2930
 20
61.7273
 30
0.00000
  70
    32
  0
VERTEX
  8
0
  5
263B
 10
30.2909
 20
61.7226
 30
0.00000
  70
    32
  0
VERTEX
  8
0
  5
263C
 10
30.2888
 20
61.7180
 30
0.00000
  70
    32
  0
VERTEX
  8
0
  5
263D
 10
30.2866
 20
61.7133
 30
0.00000
  70
    32
  0
VERTEX
  8
0
  5
263E
 10
30.2845
 20
61.7086
 30
0.00000
  70
    32
  0
VERTEX
  8
0
  5
263F
 10
30.2824
 20
61.7039
 30
0.00000
  70
    32
  0
VERTEX
  8
0
  5
2640
 10
30.2803
 20
61.6992
 30
0.00000
  70
    32
  0
VERTEX
  8
0
  5
2641
 10
30.2782
 20
61.6945
 30
0.00000
  70
    32
  0
VERTEX
  8
0
  5
2642
 10
30.2761
 20
61.6898
 30
0.00000
  70
    32
  0
VERTEX
  8
0
  5
2643
 10
30.2740
 20
61.6851
 30
0.00000
  70
    32
  0
VERTEX
  8
0
  5
2644
 10
30.2719
 20
61.6803
 30
0.00000
  70
    32
  0
VERTEX
  8
0
  5
2645
 10
30.2698
 20
61.6756
 30
0.00000
  70
    32
  0
VERTEX
  8
0
  5
2646
 10
30.2677
 20
61.6708
 30
0.00000
  70
    32
  0
VERTEX
  8
0
  5
2647
 10
30.2656
 20
61.6660
 30
0.00000
  70
    32
  0
VERTEX
  8
0
  5
2648
 10
30.2635
 20
61.6612
 30
0.00000
  70
    32
  0
VERTEX
  8
0
  5
2649
 10
30.2614
 20
61.6565
 30
0.00000
  70
    32
  0
VERTEX
  8
0
  5
264A
 10
30.2593
 20
61.6516
 30
0.00000
  70
    32
  0
VERTEX
  8
0
  5
264B
 10
30.2572
 20
61.6468
 30
0.00000
  70
    32
  0
VERTEX
  8
0
  5
264C
 10
30.2551
 20
61.6420
 30
0.00000
  70
    32
  0
VERTEX
  8
0
  5
264D
 10
30.2530
 20
61.6372
 30
0.00000
  70
    32
  0
VERTEX
  8
0
  5
264E
 10
30.2509
 20
61.6323
 30
0.00000
  70
    32
  0
VERTEX
  8
0
  5
264F
 10
30.2488
 20
61.6275
 30
0.00000
  70
    32
  0
VERTEX
  8
0
  5
2650
 10
30.2467
 20
61.6226
 30
0.00000
  70
    32
  0
VERTEX
  8
0
  5
2651
 10
30.2446
 20
61.6177
 30
0.00000
  70
    32
  0
VERTEX
  8
0
  5
2652
 10
30.2425
 20
61.6128
 30
0.00000
  70
    32
  0
VERTEX
  8
0
  5
2653
 10
30.2404
 20
61.6079
 30
0.00000
  70
    32
  0
VERTEX
  8
0
  5
2654
 10
30.2383
 20
61.6030
 30
0.00000
  70
    32
  0
VERTEX
  8
0
  5
2655
 10
30.2362
 20
61.5981
 30
0.00000
  70
    32
  0
VERTEX
  8
0
  5
2656
 10
30.2341
 20
61.5931
 30
0.00000
  70
    32
  0
VERTEX
  8
0
  5
2657
 10
30.2320
 20
61.5882
 30
0.00000
  70
    32
  0
VERTEX
  8
0
  5
2658
 10
30.2299
 20
61.5832
 30
0.00000
  70
    32
  0
VERTEX
  8
0
  5
2659
 10
30.2278
 20
61.5783
 30
0.00000
  70
    32
  0
VERTEX
  8
0
  5
265A
 10
30.2258
 20
61.5733
 30
0.00000
  70
    32
  0
VERTEX
  8
0
  5
265B
 10
30.2237
 20
61.5683
 30
0.00000
  70
    32
  0
VERTEX
  8
0
  5
265C
 10
30.2216
 20
61.5633
 30
0.00000
  70
    32
  0
VERTEX
  8
0
  5
265D
 10
30.2195
 20
61.5583
 30
0.00000
  70
    32
  0
VERTEX
  8
0
  5
265E
 10
30.2174
 20
61.5533
 30
0.00000
  70
    32
  0
VERTEX
  8
0
  5
265F
 10
30.2153
 20
61.5483
 30
0.00000
  70
    32
  0
VERTEX
  8
0
  5
2660
 10
30.2132
 20
61.5432
 30
0.00000
  70
    32
  0
VERTEX
  8
0
  5
2661
 10
30.2111
 20
61.5382
 30
0.00000
  70
    32
  0
VERTEX
  8
0
  5
2662
 10
30.2090
 20
61.5331
 30
0.00000
  70
    32
  0
VERTEX
  8
0
  5
2663
 10
30.2069
 20
61.5280
 30
0.00000
  70
    32
  0
VERTEX
  8
0
  5
2664
 10
30.2048
 20
61.5229
 30
0.00000
  70
    32
  0
VERTEX
  8
0
  5
2665
 10
30.2027
 20
61.5179
 30
0.00000
  70
    32
  0
VERTEX
  8
0
  5
2666
 10
30.2006
 20
61.5127
 30
0.00000
  70
    32
  0
VERTEX
  8
0
  5
2667
 10
30.1985
 20
61.5076
 30
0.00000
  70
    32
  0
VERTEX
  8
0
  5
2668
 10
30.1965
 20
61.5025
 30
0.00000
  70
    32
  0
VERTEX
  8
0
  5
2669
 10
30.1944
 20
61.4974
 30
0.00000
  70
    32
  0
VERTEX
  8
0
  5
266A
 10
30.1923
 20
61.4922
 30
0.00000
  70
    32
  0
VERTEX
  8
0
  5
266B
 10
30.1902
 20
61.4871
 30
0.00000
  70
    32
  0
VERTEX
  8
0
  5
266C
 10
30.1881
 20
61.4819
 30
0.00000
  70
    32
  0
VERTEX
  8
0
  5
266D
 10
30.1860
 20
61.4767
 30
0.00000
  70
    32
  0
VERTEX
  8
0
  5
266E
 10
30.1839
 20
61.4715
 30
0.00000
  70
    32
  0
VERTEX
  8
0
  5
266F
 10
30.1818
 20
61.4663
 30
0.00000
  70
    32
  0
VERTEX
  8
0
  5
2670
 10
30.1797
 20
61.4611
 30
0.00000
  70
    32
  0
VERTEX
  8
0
  5
2671
 10
30.1777
 20
61.4559
 30
0.00000
  70
    32
  0
VERTEX
  8
0
  5
2672
 10
30.1756
 20
61.4507
 30
0.00000
  70
    32
  0
VERTEX
  8
0
  5
2673
 10
30.1735
 20
61.4454
 30
0.00000
  70
    32
  0
VERTEX
  8
0
  5
2674
 10
30.1714
 20
61.4402
 30
0.00000
  70
    32
  0
VERTEX
  8
0
  5
2675
 10
30.1693
 20
61.4349
 30
0.00000
  70
    32
  0
VERTEX
  8
0
  5
2676
 10
30.1672
 20
61.4296
 30
0.00000
  70
    32
  0
VERTEX
  8
0
  5
2677
 10
30.1651
 20
61.4243
 30
0.00000
  70
    32
  0
VERTEX
  8
0
  5
2678
 10
30.1630
 20
61.4191
 30
0.00000
  70
    32
  0
VERTEX
  8
0
  5
2679
 10
30.1610
 20
61.4137
 30
0.00000
  70
    32
  0
VERTEX
  8
0
  5
267A
 10
30.1589
 20
61.4084
 30
0.00000
  70
    32
  0
VERTEX
  8
0
  5
267B
 10
30.1568
 20
61.4031
 30
0.00000
  70
    32
  0
VERTEX
  8
0
  5
267C
 10
30.1547
 20
61.3978
 30
0.00000
  70
    32
  0
VERTEX
  8
0
  5
267D
 10
30.1526
 20
61.3924
 30
0.00000
  70
    32
  0
VERTEX
  8
0
  5
267E
 10
30.1505
 20
61.3871
 30
0.00000
  70
    32
  0
VERTEX
  8
0
  5
267F
 10
30.1485
 20
61.3817
 30
0.00000
  70
    32
  0
VERTEX
  8
0
  5
2680
 10
30.1464
 20
61.3763
 30
0.00000
  70
    32
  0
VERTEX
  8
0
  5
2681
 10
30.1443
 20
61.3709
 30
0.00000
  70
    32
  0
VERTEX
  8
0
  5
2682
 10
30.1422
 20
61.3655
 30
0.00000
  70
    32
  0
VERTEX
  8
0
  5
2683
 10
30.1401
 20
61.3601
 30
0.00000
  70
    32
  0
VERTEX
  8
0
  5
2684
 10
30.1381
 20
61.3547
 30
0.00000
  70
    32
  0
VERTEX
  8
0
  5
2685
 10
30.1360
 20
61.3492
 30
0.00000
  70
    32
  0
VERTEX
  8
0
  5
2686
 10
30.1339
 20
61.3438
 30
0.00000
  70
    32
  0
VERTEX
  8
0
  5
2687
 10
30.1318
 20
61.3383
 30
0.00000
  70
    32
  0
VERTEX
  8
0
  5
2688
 10
30.1297
 20
61.3329
 30
0.00000
  70
    32
  0
VERTEX
  8
0
  5
2689
 10
30.1277
 20
61.3274
 30
0.00000
  70
    32
  0
VERTEX
  8
0
  5
268A
 10
30.1256
 20
61.3219
 30
0.00000
  70
    32
  0
VERTEX
  8
0
  5
268B
 10
30.1235
 20
61.3164
 30
0.00000
  70
    32
  0
VERTEX
  8
0
  5
268C
 10
30.1214
 20
61.3109
 30
0.00000
  70
    32
  0
VERTEX
  8
0
  5
268D
 10
30.1193
 20
61.3054
 30
0.00000
  70
    32
  0
VERTEX
  8
0
  5
268E
 10
30.1173
 20
61.2999
 30
0.00000
  70
    32
  0
VERTEX
  8
0
  5
268F
 10
30.1152
 20
61.2943
 30
0.00000
  70
    32
  0
VERTEX
  8
0
  5
2690
 10
30.1131
 20
61.2888
 30
0.00000
  70
    32
  0
VERTEX
  8
0
  5
2691
 10
30.1110
 20
61.2832
 30
0.00000
  70
    32
  0
VERTEX
  8
0
  5
2692
 10
30.1090
 20
61.2776
 30
0.00000
  70
    32
  0
VERTEX
  8
0
  5
2693
 10
30.1069
 20
61.2721
 30
0.00000
  70
    32
  0
VERTEX
  8
0
  5
2694
 10
30.1048
 20
61.2665
 30
0.00000
  70
    32
  0
VERTEX
  8
0
  5
2695
 10
30.1027
 20
61.2609
 30
0.00000
  70
    32
  0
VERTEX
  8
0
  5
2696
 10
30.1007
 20
61.2553
 30
0.00000
  70
    32
  0
VERTEX
  8
0
  5
2697
 10
30.0986
 20
61.2496
 30
0.00000
  70
    32
  0
VERTEX
  8
0
  5
2698
 10
30.0965
 20
61.2440
 30
0.00000
  70
    32
  0
VERTEX
  8
0
  5
2699
 10
30.0945
 20
61.2384
 30
0.00000
  70
    32
  0
VERTEX
  8
0
  5
269A
 10
30.0924
 20
61.2327
 30
0.00000
  70
    32
  0
VERTEX
  8
0
  5
269B
 10
30.0903
 20
61.2270
 30
0.00000
  70
    32
  0
VERTEX
  8
0
  5
269C
 10
30.0882
 20
61.2214
 30
0.00000
  70
    32
  0
VERTEX
  8
0
  5
269D
 10
30.0862
 20
61.2157
 30
0.00000
  70
    32
  0
VERTEX
  8
0
  5
269E
 10
30.0841
 20
61.2100
 30
0.00000
  70
    32
  0
VERTEX
  8
0
  5
269F
 10
30.0820
 20
61.2043
 30
0.00000
  70
    32
  0
VERTEX
  8
0
  5
26A0
 10
30.0800
 20
61.1986
 30
0.00000
  70
    32
  0
SEQEND
  8
0
  5
26A1
  0
LINE
  5
205B
  8
0
 10
30.0799516641300215
 20
55.0356567617742485
 30
0.0
 11
30.0799516641300215
 21
61.1985508296203875
 31
0.0
  0
LINE
  5
205C
  8
0
 10
38.8299516641300215
 20
61.7097607608720296
 30
0.0
 11
38.8299516641300002
 21
61.4835078395180332
 31
0.0
  0
LINE
  5
205D
  8
0
 10
38.8299516641300002
 20
52.8099309868087801
 30
0.0
 11
38.8299516641300215
 21
50.5640999612814994
 31
0.0
  0
LINE
  5
205E
  8
0
 10
42.8299516641300215
 20
61.7097607608720296
 30
0.0
 11
42.8299516641300215
 21
61.4835078395180119
 31
0.0
  0
LINE
  5
205F
  8
0
 10
42.8299516641299931
 20
52.8099309868085172
 30
0.0
 11
42.8299516641300215
 21
50.5640999612814994
 31
0.0
  0
ARC
  5
20D2
  8
0
 10
40.4820062239611786
 20
69.3301715243753307
 30
0.0
 40
8.1904199387618775
 50
277.7060773375176268
 51
290.2647271203534842
  0
ARC
  5
20D3
  8
0
 10
40.8299516641295881
 20
49.0662138638549976
 30
0.0
 40
4.0830386716670768
 50
79.4108765866692607
 51
100.5891234133306966
  0
ARC
  5
20D4
  8
0
 10
41.1778971042984097
 20
44.9632673019513405
 30
0.0
 40
8.1904199387618775
 50
97.7060773375192611
 51
110.2647271203517931
  0
ARC
  5
20D5
  8
0
 10
40.4820062239607168
 20
44.9632673019513405
 30
0.0
 40
8.1904199387618775
 50
69.7352728796465442
 51
82.2939226624823448
  0
LINE
  5
20DE
  8
1
 10
82.5439315498080646
 20
100.9683264246372971
 30
0.0
 11
171.9939315498079964
 21
100.9683264246372971
 31
0.0
  0
LINE
  5
20DF
  8
1
 10
96.5939315498080759
 20
86.9183264246373568
 30
0.0
 11
96.5939315498080759
 21
115.0183264246372943
 31
0.0
  0
CIRCLE
  5
20FB
  8
3
 10
96.5939315498080759
 20
100.9683264246372971
 30
0.0
 40
2.5
  0
CIRCLE
  5
20FC
  8
0
 10
96.5939315498080759
 20
100.9683264246372971
 30
0.0
 40
2.067000000000462
  0
LINE
  5
20FF
  8
1
 10
82.8963952749884356
 20
57.1467194131633605
 30
0.0
 11
110.291467824627702
 21
57.1467194131633605
 31
0.0
  0
LINE
  5
2100
  8
1
 10
82.8439315498080759
 20
55.9467194131633789
 30
0.0
 11
110.3439315498081044
 21
55.9467194131633789
 31
0.0
  0
LINE
  5
2101
  8
1
 10
96.5939315498081328
 20
37.6467194131634031
 30
0.0
 11
96.5939315498080759
 21
69.6967194131633789
 31
0.0
  0
LINE
  5
210D
  8
1
 10
40.8299516641300073
 20
68.3367194131633653
 30
0.0
 11
40.8299516641300073
 21
37.6467194131633605
 31
0.0
  0
LINE
  5
210E
  8
1
 10
25.0799516641300215
 20
57.1467194131633605
 30
0.0
 11
56.5799516641300215
 21
57.1467194131633605
 31
0.0
  0
LINE
  5
2156
  8
2
 10
38.3299516641300215
 20
52.6467194131633605
 30
0.0
 11
38.3299516641300215
 21
61.6467194131631899
 31
0.0
  0
LINE
  5
2157
  8
2
 10
38.7629516641295595
 20
52.7907690069872615
 30
0.0
 11
38.7629516641295595
 21
61.5028117252993383
 31
0.0
  0
LINE
  5
2158
  8
2
 10
42.8969516641304836
 20
52.7906271010273471
 30
0.0
 11
42.8969516641304836
 21
61.5026698193394594
 31
0.0
  0
LINE
  5
2159
  8
2
 10
43.3299516641300073
 20
52.646719413163531
 30
0.0
 11
43.3299516641300073
 21
61.6467194131633605
 31
0.0
  0
ENDSEC
  0
EOF
