  0
SECTION
  2
HEADER
  9
$ACADVER
  1
AC1009
  9
$INSBASE
 10
0.0
 20
0.0
 30
0.0
  9
$EXTMIN
 10
0.0
 20
-2.960436562073669
 30
0.0
  9
$EXTMAX
 10
195.1999999999999034
 20
156.0999999999999943
 30
0.0
  9
$LIMMIN
 10
0.0
 20
0.0
  9
$LIMMAX
 10
375.0
 20
270.0
  9
$ORTHOMODE
 70
     0
  9
$REGENMODE
 70
     1
  9
$FILLMODE
 70
     1
  9
$QTEXTMODE
 70
     0
  9
$MIRRTEXT
 70
     0
  9
$DRAGMODE
 70
     2
  9
$LTSCALE
 40
5.0
  9
$OSMODE
 70
    37
  9
$ATTMODE
 70
     1
  9
$TEXTSIZE
 40
0.2
  9
$TRACEWID
 40
0.05
  9
$TEXTSTYLE
  7
STANDARD
  9
$CLAYER
  8
0
  9
$CELTYPE
  6
BYLAYER
  9
$CECOLOR
 62
   256
  9
$DIMSCALE
 40
1.0
  9
$DIMASZ
 40
3.0
  9
$DIMEXO
 40
2.0
  9
$DIMDLI
 40
10.0
  9
$DIMRND
 40
0.0
  9
$DIMDLE
 40
0.0
  9
$DIMEXE
 40
2.0
  9
$DIMTP
 40
0.0
  9
$DIMTM
 40
0.0
  9
$DIMTXT
 40
3.2000000000000002
  9
$DIMCEN
 40
0.0
  9
$DIMTSZ
 40
0.0
  9
$DIMTOL
 70
     0
  9
$DIMLIM
 70
     0
  9
$DIMTIH
 70
     0
  9
$DIMTOH
 70
     0
  9
$DIMSE1
 70
     0
  9
$DIMSE2
 70
     0
  9
$DIMTAD
 70
     1
  9
$DIMZIN
 70
     8
  9
$DIMBLK
  1

  9
$DIMASO
 70
     0
  9
$DIMSHO
 70
     0
  9
$DIMPOST
  1

  9
$DIMAPOST
  1

  9
$DIMALT
 70
     0
  9
$DIMALTD
 70
     2
  9
$DIMALTF
 40
25.3999999999999986
  9
$DIMLFAC
 40
1.0
  9
$DIMTOFL
 70
     1
  9
$DIMTVP
 40
1.6000000000000001
  9
$DIMTIX
 70
     0
  9
$DIMSOXD
 70
     0
  9
$DIMSAH
 70
     0
  9
$DIMBLK1
  1

  9
$DIMBLK2
  1

  9
$DIMSTYLE
  2
STANDARD
  9
$DIMCLRD
 70
   256
  9
$DIMCLRE
 70
   256
  9
$DIMCLRT
 70
   256
  9
$DIMTFAC
 40
1.0
  9
$DIMGAP
 40
0.5
  9
$LUNITS
 70
     2
  9
$LUPREC
 70
     1
  9
$SKETCHINC
 40
0.1
  9
$FILLETRAD
 40
0.0
  9
$AUNITS
 70
     0
  9
$AUPREC
 70
     1
  9
$MENU
  1
E:\r13\win\SUPPORT\ACAD
  9
$ELEVATION
 40
0.0
  9
$PELEVATION
 40
0.0
  9
$THICKNESS
 40
0.0
  9
$LIMCHECK
 70
     0
  9
$BLIPMODE
 70
     0
  9
$CHAMFERA
 40
0.0
  9
$CHAMFERB
 40
0.0
  9
$SKPOLY
 70
     0
  9
$TDCREATE
 40
2449840.6171180559322238
  9
$TDUPDATE
 40
2460566.5208101850003004
  9
$TDINDWG
 40
0.3156445139
  9
$TDUSRTIMER
 40
0.3156445139
  9
$USRTIMER
 70
     1
  9
$ANGBASE
 50
0.0
  9
$ANGDIR
 70
     0
  9
$PDMODE
 70
     0
  9
$PDSIZE
 40
0.0
  9
$PLINEWID
 40
0.0
  9
$COORDS
 70
     1
  9
$SPLFRAME
 70
     0
  9
$SPLINETYPE
 70
     6
  9
$SPLINESEGS
 70
     8
  9
$ATTDIA
 70
     1
  9
$ATTREQ
 70
     1
  9
$HANDLING
 70
     1
  9
$HANDSEED
  5
314E
  9
$SURFTAB1
 70
     6
  9
$SURFTAB2
 70
     6
  9
$SURFTYPE
 70
     6
  9
$SURFU
 70
     6
  9
$SURFV
 70
     6
  9
$UCSNAME
  2

  9
$UCSORG
 10
0.0
 20
0.0
 30
0.0
  9
$UCSXDIR
 10
1.0
 20
0.0
 30
0.0
  9
$UCSYDIR
 10
0.0
 20
1.0
 30
0.0
  9
$PUCSNAME
  2

  9
$PUCSORG
 10
0.0
 20
0.0
 30
0.0
  9
$PUCSXDIR
 10
1.0
 20
0.0
 30
0.0
  9
$PUCSYDIR
 10
0.0
 20
1.0
 30
0.0
  9
$USERI1
 70
     0
  9
$USERI2
 70
     1
  9
$USERI3
 70
     0
  9
$USERI4
 70
     0
  9
$USERI5
 70
     0
  9
$USERR1
 40
0.0
  9
$USERR2
 40
0.0
  9
$USERR3
 40
0.0
  9
$USERR4
 40
0.0
  9
$USERR5
 40
0.0
  9
$WORLDVIEW
 70
     1
  9
$SHADEDGE
 70
     3
  9
$SHADEDIF
 70
    70
  9
$TILEMODE
 70
     1
  9
$MAXACTVP
 70
    16
  9
$PLIMCHECK
 70
     0
  9
$PEXTMIN
 10
1.0000000000000000E+20
 20
1.0000000000000000E+20
 30
1.0000000000000000E+20
  9
$PEXTMAX
 10
-1.0000000000000000E+20
 20
-1.0000000000000000E+20
 30
-1.0000000000000000E+20
  9
$PLIMMIN
 10
0.0
 20
0.0
  9
$PLIMMAX
 10
12.0
 20
9.0
  9
$UNITMODE
 70
     0
  9
$VISRETAIN
 70
     0
  9
$PLINEGEN
 70
     0
  9
$PSLTSCALE
 70
     0
  0
ENDSEC
  0
SECTION
  2
TABLES
  0
TABLE
  2
VPORT
 70
     1
  0
VPORT
  2
*ACTIVE
 70
     0
 10
0.0
 20
0.0
 11
1.0
 21
1.0
 12
122.631527972166694
 22
76.5718027631785247
 13
0.0
 23
0.0
 14
10.0
 24
10.0
 15
10.0
 25
10.0
 16
0.0
 26
0.0
 36
1.0
 17
0.0
 27
0.0
 37
0.0
 40
160.4142956504487927
 41
2.3485221674876842
 42
50.0
 43
0.0
 44
0.0
 50
0.0
 51
0.0
 71
     0
 72
   100
 73
     1
 74
     0
 75
     0
 76
     0
 77
     0
 78
     0
  0
ENDTAB
  0
TABLE
  2
LTYPE
 70
     4
  0
LTYPE
  2
CONTINUOUS
 70
     0
  3
Solid Line
 72
    65
 73
     0
 40
0.0
  0
LTYPE
  2
CENTER
 70
     0
  3
____ _ ____ _ ____ _ ____ _ ____ _ ____ _ ____
 72
    65
 73
     4
 40
2.0
 49
1.25
 49
-0.25
 49
0.25
 49
-0.25
  0
LTYPE
  2
PHANTOM2
 70
     0
  3
___ _ _ ___ _ _ ___ _ _ ___ _ _
 72
    65
 73
     6
 40
1.25
 49
0.625
 49
-0.125
 49
0.125
 49
-0.125
 49
0.125
 49
-0.125
  0
LTYPE
  2
HIDDEN
 70
     0
  3
Hidden __ __ __ __ __ __ __ __ __ __ __ __ __ _
 72
    65
 73
     2
 40
0.375
 49
0.25
 49
-0.125
  0
ENDTAB
  0
TABLE
  2
LAYER
 70
     5
  0
LAYER
  2
0
 70
     0
 62
     7
  6
CONTINUOUS
  0
LAYER
  2
1
 70
     0
 62
     1
  6
CENTER
  0
LAYER
  2
3
 70
     0
 62
     3
  6
CONTINUOUS
  0
LAYER
  2
DEFPOINTS
 70
     0
 62
     7
  6
CONTINUOUS
  0
LAYER
  2
2
 70
     0
 62
     2
  6
HIDDEN
  0
ENDTAB
  0
TABLE
  2
STYLE
 70
     2
  0
STYLE
  2
STANDARD
 70
     0
 40
0.0
 41
1.0
 50
0.0
 71
     0
 42
0.2
  3
TXT
  4
BIGFONT
  0
STYLE
  2
STANDARD1
 70
     0
 40
0.0
 41
1.0
 50
0.0
 71
     0
 42
3.0
  3
txt
  4

  0
ENDTAB
  0
TABLE
  2
VIEW
 70
     2
  0
VIEW
  2
ALL
 70
     0
 40
270.0
 10
220.9915970000000129
 20
135.0
 41
0.0
 11
0.0
 21
0.0
 31
1.0
 12
0.0
 22
0.0
 32
0.0
 42
0.0
 43
0.0
 44
0.0
 50
0.0
 71
     0
  0
VIEW
  2
OLE1
 70
     0
 40
213.1298745173315865
 10
219.0304491487297014
 20
79.0110767274265839
 41
384.0937666661263279
 11
0.0
 21
0.0
 31
1.0
 12
0.0
 22
0.0
 32
0.0
 42
50.0
 43
0.0
 44
0.0
 50
0.0
 71
     0
  0
ENDTAB
  0
TABLE
  2
UCS
 70
     0
  0
ENDTAB
  0
TABLE
  2
APPID
 70
     6
  0
APPID
  2
ACAD
 70
     0
  0
APPID
  2
ACAD_EXEMPT_FROM_CAD_STANDARDS
 70
     0
  0
APPID
  2
ACAD_MLEADERVER
 70
     0
  0
APPID
  2
ACAD_NAV_VCDISPLAY
 70
     0
  0
APPID
  2
ACAD_DSTYLE_DIMJAG
 70
     0
  0
APPID
  2
ACAD_DSTYLE_DIMTALN
 70
     0
  0
ENDTAB
  0
TABLE
  2
DIMSTYLE
 70
     1
  0
DIMSTYLE
  2
STANDARD
 70
     0
  3

  4

  5

  6

  7

 40
1.0
 41
0.18
 42
0.0625
 43
0.38
 44
0.18
 45
0.0
 46
0.0
 47
0.0
 48
0.0
140
0.18
141
0.09
142
0.0
143
25.3999999999999986
144
1.0
145
0.0
146
1.0
147
0.09
 71
     0
 72
     0
 73
     1
 74
     1
 75
     0
 76
     0
 77
     0
 78
     0
170
     0
171
     2
172
     0
173
     0
174
     0
175
     0
176
     0
177
     0
178
     0
  0
ENDTAB
  0
ENDSEC
  0
SECTION
  2
BLOCKS
  0
BLOCK
  8
0
  2
$MODEL_SPACE
 70
     0
 10
0.0
 20
0.0
 30
0.0
  3
$MODEL_SPACE
  1

  0
ENDBLK
  5
E8
  8
0
  0
BLOCK
 67
     1
  8
0
  2
$PAPER_SPACE
 70
     0
 10
0.0
 20
0.0
 30
0.0
  3
$PAPER_SPACE
  1

  0
ENDBLK
  5
E6
 67
     1
  8
0
  0
ENDSEC
  0
SECTION
  2
ENTITIES
  0
TEXT
  5
E56
  8
0
 62
     3
 10
0.0
 20
0.0
 30
0.0
 40
10.0
  1
KCLFS06X40
  7
STANDARD1
  0
LINE
  5
13FC
  8
1
 10
119.7999999999998977
 20
97.2500000000000284
 30
0.0
 11
119.7999999999999972
 21
24.9999999999999893
 31
0.0
  0
LINE
  5
1417
  8
0
 10
122.1864999999999952
 20
30.0000000000000213
 30
0.0
 11
122.7999999999999972
 21
30.6134999999999984
 31
0.0
  0
LINE
  5
1418
  8
0
 10
116.7999999999999972
 20
30.6134999999999984
 30
0.0
 11
117.4134999999999991
 21
30.0000000000000213
 31
0.0
  0
LINE
  5
1419
  8
0
 10
122.1864999999999952
 20
30.0000000000000213
 30
0.0
 11
117.4134999999999991
 21
30.0000000000000213
 31
0.0
  0
LINE
  5
141A
  8
0
 10
116.7999999999999972
 20
70.0000000000000142
 30
0.0
 11
116.7999999999999972
 21
30.6134999999999984
 31
0.0
  0
LINE
  5
141B
  8
0
 10
122.7999999999999972
 20
30.6134999999999984
 30
0.0
 11
122.7999999999999972
 21
70.0000000000000142
 31
0.0
  0
LINE
  5
141C
  8
0
 10
122.7999999999999972
 20
30.6134999999999984
 30
0.0
 11
116.7999999999999972
 21
30.6134999999999984
 31
0.0
  0
LINE
  5
1422
  8
3
 10
122.258499999999998
 20
30.0719999999999885
 30
0.0
 11
122.258499999999998
 21
70.0000000000000142
 31
0.0
  0
LINE
  5
1424
  8
3
 10
117.3414999999999964
 20
30.0719999999999885
 30
0.0
 11
117.3414999999998969
 21
70.0000000000000142
 31
0.0
  0
POLYLINE
  5
14F0
  8
0
 66
     1
 10
0.0
 20
0.0
 30
0.0
  0
VERTEX
  5
2C34
  8
0
 10
58.6332655319963365
 20
88.6569693958502256
 30
0.0
  0
VERTEX
  5
2C35
  8
0
 10
58.6894814703120602
 20
88.6285748232976545
 30
0.0
  0
VERTEX
  5
2C36
  8
0
 10
58.9124985757049799
 20
88.5219218170314264
 30
0.0
  0
VERTEX
  5
2C37
  8
0
 10
59.1596702919698032
 20
88.4152239182764248
 30
0.0
  0
VERTEX
  5
2C38
  8
0
 10
59.4307926351286895
 20
88.3132576065043082
 30
0.0
  0
VERTEX
  5
2C39
  8
0
 10
59.7240280274750504
 20
88.2220121189503885
 30
0.0
  0
VERTEX
  5
2C3A
  8
0
 10
60.0345437121363616
 20
88.148521268931276
 30
0.0
  0
VERTEX
  5
2C3B
  8
0
 10
60.4003982585720678
 20
88.0950175007425855
 30
0.0
  0
VERTEX
  5
2C3C
  8
0
 10
60.7759617901125822
 20
88.0777791665425553
 30
0.0
  0
VERTEX
  5
2C3D
  8
0
 10
61.1510579571903108
 20
88.1003725889229941
 30
0.0
  0
VERTEX
  5
2C3E
  8
0
 10
61.51510751100232
 20
88.1585815903697352
 30
0.0
  0
VERTEX
  5
2C3F
  8
0
 10
61.86205620261223
 20
88.2465891478342002
 30
0.0
  0
VERTEX
  5
2C40
  8
0
 10
62.1843566720184384
 20
88.3545050022751468
 30
0.0
  0
VERTEX
  5
2C41
  8
0
 10
62.4196791095044219
 20
88.4480942174383955
 30
0.0
  0
VERTEX
  5
2C42
  8
0
 10
62.6365584435939695
 20
88.5445875053533342
 30
0.0
  0
VERTEX
  5
2C43
  8
0
 10
62.8325427010020121
 20
88.6396634949590663
 30
0.0
  0
VERTEX
  5
2C44
  8
0
 10
62.8667495374978671
 20
88.6569770692773034
 30
0.0
  0
SEQEND
  5
2C45
  8
0
  0
LINE
  5
1528
  8
1
 10
60.75
 20
95.890000000000029
 30
0.0
 11
60.75
 21
25.0000000000000213
 31
0.0
  0
LINE
  5
153F
  8
0
 10
58.2500000000000213
 20
80.0000000000000284
 30
0.0
 11
58.2500000000000213
 21
76.7000000000000028
 31
0.0
  0
LINE
  5
1540
  8
0
 10
63.2500000000000213
 20
76.7000000000000028
 30
0.0
 11
63.2500000000000284
 21
80.0000000000000284
 31
0.0
  0
LINE
  5
1541
  8
0
 10
57.75
 20
70.0000000000000142
 30
0.0
 11
57.75
 21
30.6135000000000304
 31
0.0
  0
LINE
  5
1542
  8
0
 10
63.75
 20
30.6135000000000304
 30
0.0
 11
63.75
 21
70.0000000000000142
 31
0.0
  0
LINE
  5
1543
  8
0
 10
63.136499999999991
 20
30.0000000000000213
 30
0.0
 11
58.3635000000000019
 21
30.0000000000000213
 31
0.0
  0
LINE
  5
1544
  8
0
 10
63.75
 20
30.6135000000000304
 30
0.0
 11
57.75
 21
30.6135000000000304
 31
0.0
  0
LINE
  5
1545
  8
0
 10
63.136499999999991
 20
30.0000000000000213
 30
0.0
 11
63.75
 21
30.6135000000000304
 31
0.0
  0
LINE
  5
1546
  8
0
 10
57.75
 20
30.6135000000000304
 30
0.0
 11
58.3635000000000019
 21
30.0000000000000213
 31
0.0
  0
LINE
  5
1547
  8
0
 10
63.420663260315699
 20
91.5000000000000142
 30
0.0
 11
58.0793367396843365
 21
91.5000000000000142
 31
0.0
  0
LINE
  5
1548
  8
0
 10
58.0793367396843507
 20
91.5000000000000142
 30
0.0
 11
57.7704866169121019
 21
91.1935000000000144
 31
0.0
  0
LINE
  5
1549
  8
0
 10
63.7295133830879408
 20
91.1935000000000144
 30
0.0
 11
63.420663260315699
 21
91.5000000000000142
 31
0.0
  0
LINE
  5
154B
  8
3
 10
58.2915000000000205
 20
91.5000000000000142
 30
0.0
 11
58.2915000000000205
 21
88.797716390392921
 31
0.0
  0
LINE
  5
154C
  8
3
 10
58.2914999999999921
 20
30.0720000000000383
 30
0.0
 11
58.2914999999999921
 21
70.0000000000000142
 31
0.0
  0
LINE
  5
154D
  8
3
 10
63.2085000000000008
 20
91.5
 30
0.0
 11
63.2085000000000719
 21
88.7978117580455688
 31
0.0
  0
LINE
  5
154E
  8
3
 10
63.2084999999999866
 20
30.0720000000000383
 30
0.0
 11
63.2084999999999866
 21
70.0000000000000142
 31
0.0
  0
POLYLINE
  5
154F
  8
0
 66
     1
 10
0.0
 20
0.0
 30
0.0
  0
VERTEX
  5
2C46
  8
0
 10
63.0058458502300027
 20
88.7294999999999874
 30
0.0
  0
VERTEX
  5
2C47
  8
0
 10
63.2386039614202105
 20
88.8079593643545451
 30
0.0
  0
VERTEX
  5
2C48
  8
0
 10
63.4410459606092303
 20
88.8808902738936837
 30
0.0
  0
VERTEX
  5
2C49
  8
0
 10
63.58737550246871
 20
88.9361700816707952
 30
0.0
  0
VERTEX
  5
2C4A
  8
0
 10
63.6925794861304766
 20
88.977182181769237
 30
0.0
  0
VERTEX
  5
2C4B
  8
0
 10
63.7443727772071966
 20
88.9977505472536308
 30
0.0
  0
VERTEX
  5
2C4C
  8
0
 10
63.7499999999472706
 20
88.9999999999789253
 30
0.0
  0
SEQEND
  5
2C4D
  8
0
  0
LINE
  5
1550
  8
0
 10
62.8667495374978671
 20
88.6569770692773034
 30
0.0
 11
63.0058458502300596
 21
88.7295000000000158
 31
0.0
  0
LINE
  5
1551
  8
0
 10
58.4941541497700115
 20
88.7295000000000158
 30
0.0
 11
58.6332655319963365
 21
88.6569693958502256
 31
0.0
  0
POLYLINE
  5
1552
  8
0
 66
     1
 10
0.0
 20
0.0
 30
0.0
  0
VERTEX
  5
2C4E
  8
0
 10
58.4941541497700612
 20
80.2705000000000837
 30
0.0
  0
VERTEX
  5
2C4F
  8
0
 10
58.2613960385798606
 20
80.1920406356454833
 30
0.0
  0
VERTEX
  5
2C50
  8
0
 10
58.0589540393908194
 20
80.1191097261063732
 30
0.0
  0
VERTEX
  5
2C51
  8
0
 10
57.9126244975313327
 20
80.0638299183292759
 30
0.0
  0
VERTEX
  5
2C52
  8
0
 10
57.8074205138695589
 20
80.0228178182308199
 30
0.0
  0
VERTEX
  5
2C53
  8
0
 10
57.7556272227928602
 20
80.0022494527464261
 30
0.0
  0
VERTEX
  5
2C54
  8
0
 10
57.750000000052772
 20
80.0000000000211031
 30
0.0
  0
SEQEND
  5
2C55
  8
0
  0
POLYLINE
  5
1553
  8
0
 66
     1
 10
0.0
 20
0.0
 30
0.0
  0
VERTEX
  5
2C56
  8
0
 10
63.0058458502300383
 20
80.2704999999999984
 30
0.0
  0
VERTEX
  5
2C57
  8
0
 10
62.8105185296879966
 20
80.3714251767024024
 30
0.0
  0
VERTEX
  5
2C58
  8
0
 10
62.5875014242950911
 20
80.4780781829686163
 30
0.0
  0
VERTEX
  5
2C59
  8
0
 10
62.3403297080302465
 20
80.584776081723632
 30
0.0
  0
VERTEX
  5
2C5A
  8
0
 10
62.0692073648713816
 20
80.6867423934957344
 30
0.0
  0
VERTEX
  5
2C5B
  8
0
 10
61.7759719725250065
 20
80.7779878810496257
 30
0.0
  0
VERTEX
  5
2C5C
  8
0
 10
61.4654562878637023
 20
80.8514787310687808
 30
0.0
  0
VERTEX
  5
2C5D
  8
0
 10
61.0996017414279819
 20
80.9049824992574145
 30
0.0
  0
VERTEX
  5
2C5E
  8
0
 10
60.7240382098874605
 20
80.9222208334574731
 30
0.0
  0
VERTEX
  5
2C5F
  8
0
 10
60.348942042809739
 20
80.8996274110770344
 30
0.0
  0
VERTEX
  5
2C60
  8
0
 10
59.9848924889977226
 20
80.8414184096303359
 30
0.0
  0
VERTEX
  5
2C61
  8
0
 10
59.6379437973878197
 20
80.7534108521658283
 30
0.0
  0
VERTEX
  5
2C62
  8
0
 10
59.3156433279816113
 20
80.6454949977249242
 30
0.0
  0
VERTEX
  5
2C63
  8
0
 10
59.0803208904956279
 20
80.5519057825616613
 30
0.0
  0
VERTEX
  5
2C64
  8
0
 10
58.8634415564060873
 20
80.4554124946466942
 30
0.0
  0
VERTEX
  5
2C65
  8
0
 10
58.6674572989980518
 20
80.3603365050409622
 30
0.0
  0
VERTEX
  5
2C66
  8
0
 10
58.4941541497700115
 20
80.2704999999999984
 30
0.0
  0
SEQEND
  5
2C67
  8
0
  0
POLYLINE
  5
1558
  8
0
 66
     1
 10
0.0
 20
0.0
 30
0.0
  0
VERTEX
  5
2C68
  8
0
 10
57.750000000052772
 20
88.9999999999789253
 30
0.0
  0
VERTEX
  5
2C69
  8
0
 10
57.7594739395972923
 20
88.996214497192355
 30
0.0
  0
VERTEX
  5
2C6A
  8
0
 10
57.8096545520893272
 20
88.9763005349172573
 30
0.0
  0
VERTEX
  5
2C6B
  8
0
 10
57.9028679014016205
 20
88.9399296190354249
 30
0.0
  0
VERTEX
  5
2C6C
  8
0
 10
58.0367553269092724
 20
88.8891411525286941
 30
0.0
  0
VERTEX
  5
2C6D
  8
0
 10
58.206943222362419
 20
88.8271593320880157
 30
0.0
  0
VERTEX
  5
2C6E
  8
0
 10
58.3439713644998506
 20
88.7794456926582853
 30
0.0
  0
VERTEX
  5
2C6F
  8
0
 10
58.4941541497700115
 20
88.7295000000000158
 30
0.0
  0
SEQEND
  5
2C70
  8
0
  0
POLYLINE
  5
1559
  8
0
 66
     1
 10
0.0
 20
0.0
 30
0.0
  0
VERTEX
  5
2C71
  8
0
 10
63.7499999999472706
 20
80.0000000000211031
 30
0.0
  0
VERTEX
  5
2C72
  8
0
 10
63.7405260604027717
 20
80.0037855028076876
 30
0.0
  0
VERTEX
  5
2C73
  8
0
 10
63.6903454479107083
 20
80.0236994650827711
 30
0.0
  0
VERTEX
  5
2C74
  8
0
 10
63.5971320985984434
 20
80.0600703809646319
 30
0.0
  0
VERTEX
  5
2C75
  8
0
 10
63.4632446730907773
 20
80.1108588474713343
 30
0.0
  0
VERTEX
  5
2C76
  8
0
 10
63.2930567776376307
 20
80.1728406679120127
 30
0.0
  0
VERTEX
  5
2C77
  8
0
 10
63.1560286355001992
 20
80.2205543073417431
 30
0.0
  0
VERTEX
  5
2C78
  8
0
 10
63.0058458502300383
 20
80.2704999999999984
 30
0.0
  0
SEQEND
  5
2C79
  8
0
  0
LINE
  5
1567
  8
0
 10
63.7295133830879408
 20
91.1935000000000144
 30
0.0
 11
57.7704866169121019
 21
91.1935000000000144
 31
0.0
  0
POLYLINE
  5
1580
  8
0
 66
     1
 10
0.0
 20
0.0
 30
0.0
  0
VERTEX
  5
2C7A
  8
0
 10
63.2500000000000213
 20
77.7558644870671287
 30
0.0
  0
VERTEX
  5
2C7B
  8
0
 10
63.3168272705080568
 20
77.7107870624085848
 30
0.0
  0
VERTEX
  5
2C7C
  8
0
 10
63.3776497297264427
 20
77.662793434639056
 30
0.0
  0
VERTEX
  5
2C7D
  8
0
 10
63.4385036998801723
 20
77.6068210365828151
 30
0.0
  0
VERTEX
  5
2C7E
  8
0
 10
63.488211665683238
 20
77.5538742512000283
 30
0.0
  0
VERTEX
  5
2C7F
  8
0
 10
63.6071376844443535
 20
77.3855788624458256
 30
0.0
  0
VERTEX
  5
2C80
  8
0
 10
63.694713394081937
 20
77.2003297159684649
 30
0.0
  0
VERTEX
  5
2C81
  8
0
 10
63.7359608300358005
 20
77.0490829464632867
 30
0.0
  0
VERTEX
  5
2C82
  8
0
 10
63.7500000000000284
 20
76.8993827957757077
 30
0.0
  0
SEQEND
  5
2C83
  8
0
  0
LINE
  5
2267
  8
0
 10
120.1500000000000057
 20
145.0295133830879877
 30
0.0
 11
120.1500000000000057
 21
139.0704866169120919
 31
0.0
  0
LINE
  5
2268
  8
0
 10
119.4500000000000028
 20
145.0295133830879877
 30
0.0
 11
119.4500000000000028
 21
139.0704866169120919
 31
0.0
  0
POLYLINE
  5
2365
  8
0
 66
     1
 10
0.0
 20
0.0
 30
0.0
  0
VERTEX
  5
2C84
  8
0
 10
58.2500000000000213
 20
77.7558644870671287
 30
0.0
  0
VERTEX
  5
2C85
  8
0
 10
58.183172729492
 20
77.7107870624085848
 30
0.0
  0
VERTEX
  5
2C86
  8
0
 10
58.122350270273607
 20
77.662793434639056
 30
0.0
  0
VERTEX
  5
2C87
  8
0
 10
58.0614963001198774
 20
77.6068210365828151
 30
0.0
  0
VERTEX
  5
2C88
  8
0
 10
58.0117883343168188
 20
77.5538742512000283
 30
0.0
  0
VERTEX
  5
2C89
  8
0
 10
57.8928623155557034
 20
77.3855788624458256
 30
0.0
  0
VERTEX
  5
2C8A
  8
0
 10
57.8052866059181127
 20
77.2003297159684649
 30
0.0
  0
VERTEX
  5
2C8B
  8
0
 10
57.7640391699642493
 20
77.0490829464632867
 30
0.0
  0
VERTEX
  5
2C8C
  8
0
 10
57.7500000000000284
 20
76.8993827957757077
 30
0.0
  0
SEQEND
  5
2C8D
  8
0
  0
LINE
  5
236B
  8
0
 10
63.7500000000000284
 20
80.0000000000000142
 30
0.0
 11
57.7500000000000284
 21
80.0000000000000142
 31
0.0
  0
LINE
  5
236C
  8
3
 10
63.2085000000002779
 20
80.2022836096070222
 30
0.0
 11
63.2085000000002779
 21
80.0000000000000142
 31
0.0
  0
LINE
  5
236D
  8
3
 10
58.2915000000000205
 20
80.2021882419544454
 30
0.0
 11
58.2915000000000205
 21
80.0000000000000142
 31
0.0
  0
LINE
  5
2829
  8
0
 10
63.7295133830879408
 20
91.1935000000000144
 30
0.0
 11
63.7295133830879195
 21
90.8900000000000006
 31
0.0
  0
LINE
  5
282A
  8
0
 10
63.7295133830879195
 20
90.8900000000000006
 30
0.0
 11
63.75
 21
90.8900000000000006
 31
0.0
  0
LINE
  5
282B
  8
0
 10
57.7704866169121019
 20
91.1935000000000144
 30
0.0
 11
57.7704866169120805
 21
90.8900000000000006
 31
0.0
  0
LINE
  5
282C
  8
0
 10
57.7704866169120805
 20
90.8900000000000006
 30
0.0
 11
57.75
 21
90.8900000000000006
 31
0.0
  0
CIRCLE
  5
29A6
  8
0
 10
119.7999999999999972
 20
142.0500000000000114
 30
0.0
 40
3.0
  0
ARC
  5
29A7
  8
3
 10
119.7999999999999972
 20
142.0500000000000114
 30
0.0
 40
2.458499999999999
 50
98.1846193225849362
 51
261.8153806774150212
  0
LINE
  5
29AC
  8
0
 10
111.7999999999999972
 20
71.0
 30
0.0
 11
112.7999999999999972
 21
70.0
 31
0.0
  0
LINE
  5
29AD
  8
0
 10
126.7999999999998977
 20
70.0
 30
0.0
 11
127.7999999999998977
 21
71.0
 31
0.0
  0
LINE
  5
29AE
  8
0
 10
127.7999999999998977
 20
71.0
 30
0.0
 11
127.7999999999998977
 21
75.7000000000001023
 31
0.0
  0
LINE
  5
29AF
  8
0
 10
111.7999999999999972
 20
75.7000000000001023
 30
0.0
 11
111.7999999999999972
 21
71.0
 31
0.0
  0
LINE
  5
29B0
  8
0
 10
112.7999999999999972
 20
76.6999999999999886
 30
0.0
 11
111.8000000000000966
 21
75.7000000000001023
 31
0.0
  0
LINE
  5
29B1
  8
0
 10
127.7999999999997982
 20
75.7000000000001023
 30
0.0
 11
126.7999999999998977
 21
76.6999999999999886
 31
0.0
  0
LINE
  5
29B2
  8
0
 10
111.7999999999999972
 20
71.0
 30
0.0
 11
127.7999999999998977
 21
71.0
 31
0.0
  0
LINE
  5
29B3
  8
0
 10
112.7999999999998977
 20
70.0
 30
0.0
 11
126.7999999999997982
 21
70.0
 31
0.0
  0
LINE
  5
29B4
  8
0
 10
127.7999999999998977
 20
75.7000000000001023
 30
0.0
 11
124.189297808170906
 21
75.7000000000001307
 31
0.0
  0
LINE
  5
29B5
  8
0
 10
115.8348392214183065
 20
75.7000000000001023
 30
0.0
 11
111.7999999999999972
 21
75.7000000000001023
 31
0.0
  0
LINE
  5
29B6
  8
0
 10
114.2934130352821001
 20
76.6999999999999886
 30
0.0
 11
112.7999999999999972
 21
76.6999999999999886
 31
0.0
  0
LINE
  5
29B7
  8
0
 10
126.7999999999998977
 20
76.6999999999999886
 30
0.0
 11
125.8120837781922035
 21
76.6999999999999886
 31
0.0
  0
CIRCLE
  5
29B8
  8
0
 10
119.7999999999998977
 20
84.6999999999999744
 30
0.0
 40
4.5
  0
LINE
  5
29B9
  8
0
 10
190.1999999999999034
 20
80.7895611645920866
 30
0.0
 11
190.1999999999999886
 21
81.6229007952895813
 31
0.0
  0
ARC
  5
29BA
  8
0
 10
188.1900716592789991
 20
80.7894374679968337
 30
0.0
 40
2.0099283445272769
 50
240.1651766476219905
 51
0.003526142050936
  0
ARC
  5
29BB
  8
0
 10
187.7065944246270135
 20
81.6261543523461768
 30
0.0
 40
2.4934076980980659
 50
359.9252367991045958
 51
52.596380782975757
  0
ARC
  5
29BC
  8
0
 10
169.579999999999302
 20
57.9899999999987728
 30
0.0
 40
32.2800000000014222
 50
52.5216175820793225
 51
71.3292277442377127
  0
ARC
  5
29BD
  8
0
 10
164.7982889777944138
 20
39.9962843893087694
 30
0.0
 40
45.0140744153158607
 50
60.169166131274693
 51
70.3791133258037149
  0
LINE
  5
29BE
  8
0
 10
179.3630530973449879
 20
88.7518314164570938
 30
0.0
 11
179.9137885764249916
 21
88.5712232204296583
 31
0.0
  0
LINE
  5
29BF
  8
0
 10
179.3630530973449879
 20
82.5889373486109264
 30
0.0
 11
179.9137885764249916
 21
82.3966212671142131
 31
0.0
  0
ARC
  5
29C0
  8
0
 10
164.8000000000000114
 20
40.0000000000009166
 30
0.0
 40
50.8899999999990698
 50
76.0896677445099527
 51
95.6384716391328027
  0
LINE
  5
29C1
  8
0
 10
177.0341132346225947
 20
89.3975563501114152
 30
0.0
 11
179.3630530973449879
 21
88.7518314164570938
 31
0.0
  0
ARC
  5
29C2
  8
0
 10
164.7999999999998977
 20
39.9999999999997868
 30
0.0
 40
45.0100000000001828
 50
71.1221587576221168
 51
96.3779470016016404
  0
ARC
  5
29C3
  8
0
 10
139.0700000000001069
 20
152.7799999999990916
 30
0.0
 40
65.1399999999991195
 50
270.0
 51
278.9060987494024744
  0
ARC
  5
29C4
  8
0
 10
141.3100000000000875
 20
157.6799999999981878
 30
0.0
 40
75.0299999999982816
 50
268.2891960663245072
 51
280.1646527152312842
  0
ARC
  5
29C5
  8
0
 10
164.7999999999998977
 20
39.9999999999999929
 30
0.0
 40
50.8900000000000077
 50
95.6384716391311258
 51
107.9046580861958944
  0
ARC
  5
29C6
  8
0
 10
164.7999999999998977
 20
39.9999999999997868
 30
0.0
 40
45.010000000000197
 50
96.3779470016016404
 51
103.1618477545109016
  0
ARC
  5
29C7
  8
0
 10
135.8699100650700871
 20
72.8400802801861431
 30
0.0
 40
10.0100000000000495
 50
90.1994608608010253
 51
144.3093582997549049
  0
ARC
  5
29C8
  8
0
 10
120.0419853909143058
 20
84.2469175562696933
 30
0.0
 40
9.4999999999999751
 50
268.5403956471843117
 51
324.1269467429281121
  0
ARC
  5
29C9
  8
0
 10
119.7999999999998977
 20
83.4999999999999858
 30
0.0
 40
8.7500000000000142
 50
55.0211520291481122
 51
270.0
  0
ARC
  5
29CA
  8
0
 10
133.4152572345049919
 20
102.9598887570881942
 30
0.0
 40
14.9999999999997904
 50
235.0211520291481122
 51
263.5244580538733885
  0
POLYLINE
  5
29CB
  8
0
 66
     1
 10
0.0
 20
0.0
 30
0.0
  0
VERTEX
  5
2C8E
  8
0
 10
139.0699999999999079
 20
87.6399999999999864
 30
0.0
  0
VERTEX
  5
2C8F
  8
0
 10
135.390912813224503
 20
87.743979845995284
 30
0.0
  0
VERTEX
  5
2C90
  8
0
 10
131.7235711259604045
 20
88.0555874279365867
 30
0.0
  0
SEQEND
  5
2C91
  8
0
  0
LINE
  5
29CC
  8
0
 10
139.0699999999999932
 20
82.683444745775148
 30
0.0
 11
135.8350628354704099
 21
82.8500196241876665
 31
0.0
  0
LINE
  5
29CD
  8
0
 10
115.2999999999999972
 20
145.0500000000000114
 30
0.0
 11
115.2999999999999972
 21
139.0499999999998977
 31
0.0
  0
LINE
  5
29CE
  8
0
 10
124.2999999999999972
 20
139.0499999999998977
 30
0.0
 11
124.2999999999999972
 21
145.0500000000000114
 31
0.0
  0
LINE
  5
29CF
  8
0
 10
111.0499999999999972
 20
149.5500000000000114
 30
0.0
 11
111.0499999999999972
 21
145.0500000000000114
 31
0.0
  0
LINE
  5
29D0
  8
0
 10
111.0499999999999972
 20
139.0500000000000114
 30
0.0
 11
111.0499999999999972
 21
134.5500000000000114
 31
0.0
  0
ARC
  5
29D1
  8
0
 10
119.7957172547737059
 20
141.3955118822534871
 30
0.0
 40
7.3700398042937998
 50
248.2531158296729927
 51
291.7468841703285989
  0
ARC
  5
29D2
  8
0
 10
119.8042827452320012
 20
142.7044881175795865
 30
0.0
 40
7.3700398044532243
 50
68.2531158288719126
 51
111.7468841711281016
  0
ARC
  5
29D3
  8
0
 10
119.7999999999999972
 20
142.0500000000000114
 30
0.0
 40
6.9999999999999947
 50
154.553186102950491
 51
205.5097039963910106
  0
ARC
  5
29D4
  8
0
 10
119.7999999999999972
 20
142.0500000000000114
 30
0.0
 40
7.999999999999992
 50
157.8773108123826034
 51
202.0482870069438945
  0
ARC
  5
29D5
  8
0
 10
119.7999999999999972
 20
142.0500000000000114
 30
0.0
 40
6.9999999999999813
 50
334.6230664748484855
 51
25.3769335251515216
  0
POLYLINE
  5
29D6
  8
0
 66
     1
 10
0.0
 20
0.0
 30
0.0
  0
VERTEX
  5
2C92
  8
0
 10
149.1546847373801938
 20
134.0635222027312921
 30
0.0
  0
VERTEX
  5
2C93
  8
0
 10
151.4295941161645089
 20
133.9537249452947947
 30
0.0
  0
VERTEX
  5
2C94
  8
0
 10
153.9614713263624139
 20
133.8315388256941105
 30
0.0
  0
VERTEX
  5
2C95
  8
0
 10
156.7521180620173027
 20
133.6969638439290975
 30
0.0
  0
VERTEX
  5
2C96
  8
0
 10
159.8000000000000114
 20
133.5500000000000114
 30
0.0
  0
SEQEND
  5
2C97
  8
0
  0
LINE
  5
29D7
  8
0
 10
159.8000000000000114
 20
150.5500000000000114
 30
0.0
 11
149.1546847373801938
 21
150.0364777972685886
 31
0.0
  0
LINE
  5
29D8
  8
0
 10
177.0341132346196957
 20
152.5321422855083995
 30
0.0
 11
159.8000000000000114
 21
150.5500000000000114
 31
0.0
  0
POLYLINE
  5
29D9
  8
0
 66
     1
 10
0.0
 20
0.0
 30
0.0
  0
VERTEX
  5
2C98
  8
0
 10
159.8000000000000114
 20
133.5500000000000114
 30
0.0
  0
VERTEX
  5
2C99
  8
0
 10
163.2647955751156985
 20
133.1519687973732005
 30
0.0
  0
VERTEX
  5
2C9A
  8
0
 10
166.7367366468475041
 20
132.7528064385170978
 30
0.0
  0
VERTEX
  5
2C9B
  8
0
 10
170.1970567304585131
 20
132.3535880250194054
 30
0.0
  0
VERTEX
  5
2C9C
  8
0
 10
173.633584033669905
 20
131.9584984914739039
 30
0.0
  0
VERTEX
  5
2C9D
  8
0
 10
177.0341132346225947
 20
131.5678577144911969
 30
0.0
  0
SEQEND
  5
2C9E
  8
0
  0
ARC
  5
29DA
  8
0
 10
126.2999999999999972
 20
140.0499999999998977
 30
0.0
 40
0.9999999999999715
 50
269.9999999999984084
 51
0.0000000000016284
  0
LINE
  5
29DB
  8
0
 10
127.2999999999999972
 20
140.0500000000000114
 30
0.0
 11
127.2999999999999972
 21
144.0500000000000114
 31
0.0
  0
ARC
  5
29DC
  8
0
 10
126.3000000000000966
 20
144.0500000000000966
 30
0.0
 40
0.999999999999943
 50
359.9999999999968168
 51
90.0000000000032543
  0
LINE
  5
29DD
  8
0
 10
111.0499999999999972
 20
139.0500000000000114
 30
0.0
 11
126.2999999999999972
 21
139.0500000000000114
 31
0.0
  0
LINE
  5
29DE
  8
0
 10
126.2999999999999972
 20
145.0500000000000114
 30
0.0
 11
111.0499999999999972
 21
145.0500000000000114
 31
0.0
  0
ARC
  5
29DF
  8
0
 10
179.4499998314126117
 20
142.0500000000002103
 30
0.0
 40
10.7600000000002094
 50
272.4703878077360741
 51
335.244083274852585
  0
LINE
  5
29E0
  8
0
 10
179.3630530973451016
 20
131.3000000000000114
 30
0.0
 11
179.9137885764251052
 21
131.3000000000000114
 31
0.0
  0
LINE
  5
29E1
  8
0
 10
179.9137885764249916
 20
152.8000000000000114
 30
0.0
 11
179.3630530973451016
 21
152.8000000000000114
 31
0.0
  0
ARC
  5
29E2
  8
0
 10
179.4499998314126969
 20
142.0499999999998977
 30
0.0
 40
10.7600000000000602
 50
24.7559167251474186
 51
87.5296121922654748
  0
LINE
  5
29E3
  8
0
 10
179.3630530973451016
 20
152.8000000000000114
 30
0.0
 11
177.0341132346196957
 21
152.5321422855083995
 31
0.0
  0
LINE
  5
29E4
  8
0
 10
177.0341132346225947
 20
131.5678577144911969
 30
0.0
 11
179.3630530973451016
 21
131.3000000000000114
 31
0.0
  0
LINE
  5
29E5
  8
0
 10
149.1546847373801938
 20
150.0364777972685886
 30
0.0
 11
139.0699999999999932
 21
149.5500000000000114
 31
0.0
  0
POLYLINE
  5
29E6
  8
0
 66
     1
 10
0.0
 20
0.0
 30
0.0
  0
VERTEX
  5
2C9F
  8
0
 10
139.0699999999999932
 20
134.5500000000000114
 30
0.0
  0
VERTEX
  5
2CA0
  8
0
 10
142.4436267737571029
 20
134.3878407342436958
 30
0.0
  0
VERTEX
  5
2CA1
  8
0
 10
145.8081985755493974
 20
134.2256814684874939
 30
0.0
  0
VERTEX
  5
2CA2
  8
0
 10
149.1546847373801938
 20
134.0635222027312921
 30
0.0
  0
SEQEND
  5
2CA3
  8
0
  0
LINE
  5
29E7
  8
0
 10
139.0699999999999932
 20
134.5500000000000114
 30
0.0
 11
111.0499999999999972
 21
134.5500000000000114
 31
0.0
  0
LINE
  5
29E8
  8
0
 10
111.0499999999999972
 20
149.5500000000000114
 30
0.0
 11
139.0699999999999932
 21
149.5500000000000114
 31
0.0
  0
LINE
  5
29E9
  8
0
 10
190.1999999999999886
 20
141.5862151626321861
 30
0.0
 11
190.1999999999999886
 21
142.5137848373680072
 31
0.0
  0
ARC
  5
29EA
  8
0
 10
179.4499998313970082
 20
142.0499999999962029
 30
0.0
 40
10.76000000001582
 50
2.470366980634223
 51
24.7559167251312999
  0
ARC
  5
29EB
  8
0
 10
179.4499998314080074
 20
142.0500000000012051
 30
0.0
 40
10.7600000000047196
 50
335.2440832748570188
 51
357.5296330193837093
  0
LINE
  5
29EC
  8
0
 10
68.75
 20
71.0000000000000142
 30
0.0
 11
68.75
 21
74.7025572392075361
 31
0.0
  0
LINE
  5
29ED
  8
0
 10
52.75
 20
74.7025572392075361
 30
0.0
 11
52.75
 21
71.0000000000000142
 31
0.0
  0
LINE
  5
29EE
  8
0
 10
52.75
 20
71.0000000000000142
 30
0.0
 11
53.75
 21
70.0000000000000142
 31
0.0
  0
LINE
  5
29EF
  8
0
 10
67.75
 20
70.0000000000000142
 30
0.0
 11
68.75
 21
71.0000000000000142
 31
0.0
  0
LINE
  5
29F4
  8
0
 10
57.75
 20
92.2500000000000142
 30
0.0
 11
53.25
 21
92.2500000000000142
 31
0.0
  0
LINE
  5
29F5
  8
0
 10
68.25
 20
92.2500000000000142
 30
0.0
 11
63.75
 21
92.2500000000000142
 31
0.0
  0
LINE
  5
29F6
  8
0
 10
69.6539552986505441
 20
90.8900000000000006
 30
0.0
 11
68.2500000000001705
 21
90.8900000000000006
 31
0.0
  0
LINE
  5
29F8
  8
0
 10
53.2500000000001705
 20
90.8900000000000006
 30
0.0
 11
51.6749363867684224
 21
90.8900000000000006
 31
0.0
  0
ARC
  5
29F9
  8
0
 10
83.4487375139426462
 20
36.3781691180076265
 30
0.0
 40
49.1016760319490331
 50
126.791080255543406
 51
128.6926330096048048
  0
LINE
  5
29FA
  8
0
 10
67.4582039324991456
 20
75.7000000000001165
 30
0.0
 11
54.0417960675009112
 21
75.700000000000145
 31
0.0
  0
POLYLINE
  5
29FB
  8
0
 66
     1
 10
0.0
 20
0.0
 30
0.0
  0
VERTEX
  5
2CA4
  8
0
 10
68.7467974102464154
 20
74.7025572392075361
 30
0.0
  0
VERTEX
  5
2CA5
  8
0
 10
68.7498806264646873
 20
74.7000954985717414
 30
0.0
  0
VERTEX
  5
2CA6
  8
0
 10
68.6725703615263541
 20
74.7618351224516147
 30
0.0
  0
VERTEX
  5
2CA7
  8
0
 10
68.4484657220660324
 20
74.9395504983722418
 30
0.0
  0
VERTEX
  5
2CA8
  8
0
 10
68.1041518195305571
 20
75.2087646228372932
 30
0.0
  0
VERTEX
  5
2CA9
  8
0
 10
67.6381519151753992
 20
75.5650869294484124
 30
0.0
  0
VERTEX
  5
2CAA
  8
0
 10
67.4582039324991456
 20
75.7000000000001734
 30
0.0
  0
SEQEND
  5
2CAB
  8
0
  0
LINE
  5
29FC
  8
0
 10
52.75
 20
71.0000000000000142
 30
0.0
 11
68.75
 21
71.0000000000000142
 31
0.0
  0
LINE
  5
29FD
  8
0
 10
53.75
 20
70.0000000000000142
 30
0.0
 11
67.75
 21
70.0000000000000142
 31
0.0
  0
ARC
  5
29FE
  8
0
 10
62.9202385415391632
 20
53.5055304808930288
 30
0.0
 40
23.9044183781865094
 50
104.5648502037213063
 51
111.8028664056809021
  0
LINE
  5
29FF
  8
0
 10
56.9088596086475107
 20
76.6417475728155324
 30
0.0
 11
57.3148871925365029
 21
76.7000000000000028
 31
0.0
  0
LINE
  5
2A00
  8
0
 10
64.185112807463554
 20
76.7000000000000028
 30
0.0
 11
57.3148871925365029
 21
76.7000000000000028
 31
0.0
  0
LINE
  5
2A01
  8
0
 10
64.185112807463554
 20
76.7000000000000028
 30
0.0
 11
64.5911403913524964
 21
76.6417475728155324
 31
0.0
  0
ARC
  5
2A02
  8
0
 10
58.5665414706489784
 20
53.4652834484991999
 30
0.0
 40
23.9466966711708515
 50
68.203531501739846
 51
75.4287518888570787
  0
LINE
  5
2A05
  8
0
 10
57.75
 20
76.7000000000000028
 30
0.0
 11
57.75
 21
92.2401479680617058
 31
0.0
  0
LINE
  5
2A06
  8
0
 10
53.25
 20
92.2401479680617058
 30
0.0
 11
53.25
 21
75.0947280128695951
 31
0.0
  0
LINE
  5
2A07
  8
0
 10
68.25
 20
75.0947280128695667
 30
0.0
 11
68.25
 21
92.2401479680617058
 31
0.0
  0
LINE
  5
2A08
  8
0
 10
63.75
 20
92.2401479680617058
 30
0.0
 11
63.75
 21
76.7000000000000028
 31
0.0
  0
POLYLINE
  5
2A0F
  8
0
 10
52.7635222027312949
 20
88.4253674258981306
 30
0.0
 66
     1
 70
     8
  0
VERTEX
  8
0
  5
2CBC
 10
52.7635
 20
88.4254
 30
0.00000
  70
    32
  0
VERTEX
  8
0
  5
2CBD
 10
52.7673
 20
88.4132
 30
0.00000
  70
    32
  0
VERTEX
  8
0
  5
2CBE
 10
52.7711
 20
88.4011
 30
0.00000
  70
    32
  0
VERTEX
  8
0
  5
2CBF
 10
52.7748
 20
88.3891
 30
0.00000
  70
    32
  0
VERTEX
  8
0
  5
2CC0
 10
52.7786
 20
88.3771
 30
0.00000
  70
    32
  0
VERTEX
  8
0
  5
2CC1
 10
52.7824
 20
88.3653
 30
0.00000
  70
    32
  0
VERTEX
  8
0
  5
2CC2
 10
52.7862
 20
88.3536
 30
0.00000
  70
    32
  0
VERTEX
  8
0
  5
2CC3
 10
52.7899
 20
88.3420
 30
0.00000
  70
    32
  0
VERTEX
  8
0
  5
2CC4
 10
52.7937
 20
88.3304
 30
0.00000
  70
    32
  0
VERTEX
  8
0
  5
2CC5
 10
52.7975
 20
88.3190
 30
0.00000
  70
    32
  0
VERTEX
  8
0
  5
2CC6
 10
52.8013
 20
88.3076
 30
0.00000
  70
    32
  0
VERTEX
  8
0
  5
2CC7
 10
52.8050
 20
88.2964
 30
0.00000
  70
    32
  0
VERTEX
  8
0
  5
2CC8
 10
52.8088
 20
88.2852
 30
0.00000
  70
    32
  0
VERTEX
  8
0
  5
2CC9
 10
52.8126
 20
88.2742
 30
0.00000
  70
    32
  0
VERTEX
  8
0
  5
2CCA
 10
52.8164
 20
88.2632
 30
0.00000
  70
    32
  0
VERTEX
  8
0
  5
2CCB
 10
52.8201
 20
88.2524
 30
0.00000
  70
    32
  0
VERTEX
  8
0
  5
2CCC
 10
52.8239
 20
88.2416
 30
0.00000
  70
    32
  0
VERTEX
  8
0
  5
2CCD
 10
52.8277
 20
88.2309
 30
0.00000
  70
    32
  0
VERTEX
  8
0
  5
2CCE
 10
52.8315
 20
88.2203
 30
0.00000
  70
    32
  0
VERTEX
  8
0
  5
2CCF
 10
52.8353
 20
88.2098
 30
0.00000
  70
    32
  0
VERTEX
  8
0
  5
2CD0
 10
52.8391
 20
88.1994
 30
0.00000
  70
    32
  0
VERTEX
  8
0
  5
2CD1
 10
52.8428
 20
88.1891
 30
0.00000
  70
    32
  0
VERTEX
  8
0
  5
2CD2
 10
52.8466
 20
88.1789
 30
0.00000
  70
    32
  0
VERTEX
  8
0
  5
2CD3
 10
52.8504
 20
88.1688
 30
0.00000
  70
    32
  0
VERTEX
  8
0
  5
2CD4
 10
52.8542
 20
88.1588
 30
0.00000
  70
    32
  0
VERTEX
  8
0
  5
2CD5
 10
52.8580
 20
88.1489
 30
0.00000
  70
    32
  0
VERTEX
  8
0
  5
2CD6
 10
52.8618
 20
88.1391
 30
0.00000
  70
    32
  0
VERTEX
  8
0
  5
2CD7
 10
52.8656
 20
88.1294
 30
0.00000
  70
    32
  0
VERTEX
  8
0
  5
2CD8
 10
52.8693
 20
88.1197
 30
0.00000
  70
    32
  0
VERTEX
  8
0
  5
2CD9
 10
52.8731
 20
88.1102
 30
0.00000
  70
    32
  0
VERTEX
  8
0
  5
2CDA
 10
52.8769
 20
88.1008
 30
0.00000
  70
    32
  0
VERTEX
  8
0
  5
2CDB
 10
52.8807
 20
88.0914
 30
0.00000
  70
    32
  0
VERTEX
  8
0
  5
2CDC
 10
52.8845
 20
88.0822
 30
0.00000
  70
    32
  0
VERTEX
  8
0
  5
2CDD
 10
52.8883
 20
88.0730
 30
0.00000
  70
    32
  0
VERTEX
  8
0
  5
2CDE
 10
52.8921
 20
88.0639
 30
0.00000
  70
    32
  0
VERTEX
  8
0
  5
2CDF
 10
52.8959
 20
88.0550
 30
0.00000
  70
    32
  0
VERTEX
  8
0
  5
2CE0
 10
52.8997
 20
88.0461
 30
0.00000
  70
    32
  0
VERTEX
  8
0
  5
2CE1
 10
52.9035
 20
88.0373
 30
0.00000
  70
    32
  0
VERTEX
  8
0
  5
2CE2
 10
52.9072
 20
88.0287
 30
0.00000
  70
    32
  0
VERTEX
  8
0
  5
2CE3
 10
52.9110
 20
88.0201
 30
0.00000
  70
    32
  0
VERTEX
  8
0
  5
2CE4
 10
52.9148
 20
88.0116
 30
0.00000
  70
    32
  0
VERTEX
  8
0
  5
2CE5
 10
52.9186
 20
88.0032
 30
0.00000
  70
    32
  0
VERTEX
  8
0
  5
2CE6
 10
52.9224
 20
87.9949
 30
0.00000
  70
    32
  0
VERTEX
  8
0
  5
2CE7
 10
52.9262
 20
87.9867
 30
0.00000
  70
    32
  0
VERTEX
  8
0
  5
2CE8
 10
52.9300
 20
87.9786
 30
0.00000
  70
    32
  0
VERTEX
  8
0
  5
2CE9
 10
52.9338
 20
87.9706
 30
0.00000
  70
    32
  0
VERTEX
  8
0
  5
2CEA
 10
52.9376
 20
87.9627
 30
0.00000
  70
    32
  0
VERTEX
  8
0
  5
2CEB
 10
52.9414
 20
87.9549
 30
0.00000
  70
    32
  0
VERTEX
  8
0
  5
2CEC
 10
52.9452
 20
87.9472
 30
0.00000
  70
    32
  0
VERTEX
  8
0
  5
2CED
 10
52.9490
 20
87.9395
 30
0.00000
  70
    32
  0
VERTEX
  8
0
  5
2CEE
 10
52.9528
 20
87.9320
 30
0.00000
  70
    32
  0
VERTEX
  8
0
  5
2CEF
 10
52.9566
 20
87.9246
 30
0.00000
  70
    32
  0
VERTEX
  8
0
  5
2CF0
 10
52.9604
 20
87.9172
 30
0.00000
  70
    32
  0
VERTEX
  8
0
  5
2CF1
 10
52.9642
 20
87.9100
 30
0.00000
  70
    32
  0
VERTEX
  8
0
  5
2CF2
 10
52.9680
 20
87.9028
 30
0.00000
  70
    32
  0
VERTEX
  8
0
  5
2CF3
 10
52.9718
 20
87.8958
 30
0.00000
  70
    32
  0
VERTEX
  8
0
  5
2CF4
 10
52.9756
 20
87.8888
 30
0.00000
  70
    32
  0
VERTEX
  8
0
  5
2CF5
 10
52.9794
 20
87.8820
 30
0.00000
  70
    32
  0
VERTEX
  8
0
  5
2CF6
 10
52.9832
 20
87.8752
 30
0.00000
  70
    32
  0
VERTEX
  8
0
  5
2CF7
 10
52.9870
 20
87.8685
 30
0.00000
  70
    32
  0
VERTEX
  8
0
  5
2CF8
 10
52.9908
 20
87.8620
 30
0.00000
  70
    32
  0
VERTEX
  8
0
  5
2CF9
 10
52.9946
 20
87.8555
 30
0.00000
  70
    32
  0
VERTEX
  8
0
  5
2CFA
 10
52.9984
 20
87.8491
 30
0.00000
  70
    32
  0
VERTEX
  8
0
  5
2CFB
 10
53.0022
 20
87.8428
 30
0.00000
  70
    32
  0
VERTEX
  8
0
  5
2CFC
 10
53.0060
 20
87.8366
 30
0.00000
  70
    32
  0
VERTEX
  8
0
  5
2CFD
 10
53.0098
 20
87.8305
 30
0.00000
  70
    32
  0
VERTEX
  8
0
  5
2CFE
 10
53.0136
 20
87.8245
 30
0.00000
  70
    32
  0
VERTEX
  8
0
  5
2CFF
 10
53.0174
 20
87.8186
 30
0.00000
  70
    32
  0
VERTEX
  8
0
  5
2D00
 10
53.0212
 20
87.8128
 30
0.00000
  70
    32
  0
VERTEX
  8
0
  5
2D01
 10
53.0251
 20
87.8071
 30
0.00000
  70
    32
  0
VERTEX
  8
0
  5
2D02
 10
53.0289
 20
87.8015
 30
0.00000
  70
    32
  0
VERTEX
  8
0
  5
2D03
 10
53.0327
 20
87.7960
 30
0.00000
  70
    32
  0
VERTEX
  8
0
  5
2D04
 10
53.0365
 20
87.7906
 30
0.00000
  70
    32
  0
VERTEX
  8
0
  5
2D05
 10
53.0403
 20
87.7852
 30
0.00000
  70
    32
  0
VERTEX
  8
0
  5
2D06
 10
53.0441
 20
87.7800
 30
0.00000
  70
    32
  0
VERTEX
  8
0
  5
2D07
 10
53.0479
 20
87.7749
 30
0.00000
  70
    32
  0
VERTEX
  8
0
  5
2D08
 10
53.0517
 20
87.7698
 30
0.00000
  70
    32
  0
VERTEX
  8
0
  5
2D09
 10
53.0555
 20
87.7649
 30
0.00000
  70
    32
  0
VERTEX
  8
0
  5
2D0A
 10
53.0593
 20
87.7600
 30
0.00000
  70
    32
  0
VERTEX
  8
0
  5
2D0B
 10
53.0631
 20
87.7553
 30
0.00000
  70
    32
  0
VERTEX
  8
0
  5
2D0C
 10
53.0669
 20
87.7506
 30
0.00000
  70
    32
  0
VERTEX
  8
0
  5
2D0D
 10
53.0707
 20
87.7461
 30
0.00000
  70
    32
  0
VERTEX
  8
0
  5
2D0E
 10
53.0746
 20
87.7416
 30
0.00000
  70
    32
  0
VERTEX
  8
0
  5
2D0F
 10
53.0784
 20
87.7372
 30
0.00000
  70
    32
  0
VERTEX
  8
0
  5
2D10
 10
53.0822
 20
87.7330
 30
0.00000
  70
    32
  0
VERTEX
  8
0
  5
2D11
 10
53.0860
 20
87.7288
 30
0.00000
  70
    32
  0
VERTEX
  8
0
  5
2D12
 10
53.0898
 20
87.7247
 30
0.00000
  70
    32
  0
VERTEX
  8
0
  5
2D13
 10
53.0936
 20
87.7207
 30
0.00000
  70
    32
  0
VERTEX
  8
0
  5
2D14
 10
53.0974
 20
87.7168
 30
0.00000
  70
    32
  0
VERTEX
  8
0
  5
2D15
 10
53.1012
 20
87.7130
 30
0.00000
  70
    32
  0
VERTEX
  8
0
  5
2D16
 10
53.1050
 20
87.7093
 30
0.00000
  70
    32
  0
VERTEX
  8
0
  5
2D17
 10
53.1089
 20
87.7057
 30
0.00000
  70
    32
  0
VERTEX
  8
0
  5
2D18
 10
53.1127
 20
87.7022
 30
0.00000
  70
    32
  0
VERTEX
  8
0
  5
2D19
 10
53.1165
 20
87.6988
 30
0.00000
  70
    32
  0
VERTEX
  8
0
  5
2D1A
 10
53.1203
 20
87.6955
 30
0.00000
  70
    32
  0
VERTEX
  8
0
  5
2D1B
 10
53.1241
 20
87.6923
 30
0.00000
  70
    32
  0
VERTEX
  8
0
  5
2D1C
 10
53.1279
 20
87.6892
 30
0.00000
  70
    32
  0
VERTEX
  8
0
  5
2D1D
 10
53.1317
 20
87.6862
 30
0.00000
  70
    32
  0
VERTEX
  8
0
  5
2D1E
 10
53.1355
 20
87.6832
 30
0.00000
  70
    32
  0
VERTEX
  8
0
  5
2D1F
 10
53.1394
 20
87.6804
 30
0.00000
  70
    32
  0
VERTEX
  8
0
  5
2D20
 10
53.1432
 20
87.6777
 30
0.00000
  70
    32
  0
VERTEX
  8
0
  5
2D21
 10
53.1470
 20
87.6750
 30
0.00000
  70
    32
  0
VERTEX
  8
0
  5
2D22
 10
53.1508
 20
87.6725
 30
0.00000
  70
    32
  0
VERTEX
  8
0
  5
2D23
 10
53.1546
 20
87.6700
 30
0.00000
  70
    32
  0
VERTEX
  8
0
  5
2D24
 10
53.1584
 20
87.6677
 30
0.00000
  70
    32
  0
VERTEX
  8
0
  5
2D25
 10
53.1622
 20
87.6654
 30
0.00000
  70
    32
  0
VERTEX
  8
0
  5
2D26
 10
53.1661
 20
87.6632
 30
0.00000
  70
    32
  0
VERTEX
  8
0
  5
2D27
 10
53.1699
 20
87.6612
 30
0.00000
  70
    32
  0
VERTEX
  8
0
  5
2D28
 10
53.1737
 20
87.6592
 30
0.00000
  70
    32
  0
VERTEX
  8
0
  5
2D29
 10
53.1775
 20
87.6573
 30
0.00000
  70
    32
  0
VERTEX
  8
0
  5
2D2A
 10
53.1813
 20
87.6556
 30
0.00000
  70
    32
  0
VERTEX
  8
0
  5
2D2B
 10
53.1851
 20
87.6539
 30
0.00000
  70
    32
  0
VERTEX
  8
0
  5
2D2C
 10
53.1889
 20
87.6523
 30
0.00000
  70
    32
  0
VERTEX
  8
0
  5
2D2D
 10
53.1928
 20
87.6508
 30
0.00000
  70
    32
  0
VERTEX
  8
0
  5
2D2E
 10
53.1966
 20
87.6494
 30
0.00000
  70
    32
  0
VERTEX
  8
0
  5
2D2F
 10
53.2004
 20
87.6481
 30
0.00000
  70
    32
  0
VERTEX
  8
0
  5
2D30
 10
53.2042
 20
87.6469
 30
0.00000
  70
    32
  0
VERTEX
  8
0
  5
2D31
 10
53.2080
 20
87.6458
 30
0.00000
  70
    32
  0
VERTEX
  8
0
  5
2D32
 10
53.2118
 20
87.6448
 30
0.00000
  70
    32
  0
VERTEX
  8
0
  5
2D33
 10
53.2157
 20
87.6439
 30
0.00000
  70
    32
  0
VERTEX
  8
0
  5
2D34
 10
53.2195
 20
87.6431
 30
0.00000
  70
    32
  0
VERTEX
  8
0
  5
2D35
 10
53.2233
 20
87.6424
 30
0.00000
  70
    32
  0
VERTEX
  8
0
  5
2D36
 10
53.2271
 20
87.6417
 30
0.00000
  70
    32
  0
VERTEX
  8
0
  5
2D37
 10
53.2309
 20
87.6412
 30
0.00000
  70
    32
  0
VERTEX
  8
0
  5
2D38
 10
53.2347
 20
87.6408
 30
0.00000
  70
    32
  0
VERTEX
  8
0
  5
2D39
 10
53.2386
 20
87.6404
 30
0.00000
  70
    32
  0
VERTEX
  8
0
  5
2D3A
 10
53.2424
 20
87.6402
 30
0.00000
  70
    32
  0
VERTEX
  8
0
  5
2D3B
 10
53.2462
 20
87.6400
 30
0.00000
  70
    32
  0
VERTEX
  8
0
  5
2D3C
 10
53.2500
 20
87.6400
 30
0.00000
  70
    32
  0
SEQEND
  8
0
  5
2D3D
  0
ARC
  5
2A10
  8
0
 10
67.7553319739568565
 20
88.4897631937996181
 30
0.0
 40
0.9832568034475571
 50
300.2047359433022962
 51
356.2448788420061874
  0
POLYLINE
  5
2A11
  8
0
 10
52.5032026483892054
 20
83.827620689437282
 30
0.0
 66
     1
 70
     8
  0
VERTEX
  8
0
  5
2D3E
 10
52.5032
 20
83.8276
 30
0.00000
  70
    32
  0
VERTEX
  8
0
  5
2D3F
 10
52.5090
 20
83.8063
 30
0.00000
  70
    32
  0
VERTEX
  8
0
  5
2D40
 10
52.5147
 20
83.7851
 30
0.00000
  70
    32
  0
VERTEX
  8
0
  5
2D41
 10
52.5205
 20
83.7642
 30
0.00000
  70
    32
  0
VERTEX
  8
0
  5
2D42
 10
52.5263
 20
83.7434
 30
0.00000
  70
    32
  0
VERTEX
  8
0
  5
2D43
 10
52.5321
 20
83.7228
 30
0.00000
  70
    32
  0
VERTEX
  8
0
  5
2D44
 10
52.5378
 20
83.7025
 30
0.00000
  70
    32
  0
VERTEX
  8
0
  5
2D45
 10
52.5436
 20
83.6823
 30
0.00000
  70
    32
  0
VERTEX
  8
0
  5
2D46
 10
52.5494
 20
83.6623
 30
0.00000
  70
    32
  0
VERTEX
  8
0
  5
2D47
 10
52.5552
 20
83.6425
 30
0.00000
  70
    32
  0
VERTEX
  8
0
  5
2D48
 10
52.5610
 20
83.6229
 30
0.00000
  70
    32
  0
VERTEX
  8
0
  5
2D49
 10
52.5668
 20
83.6035
 30
0.00000
  70
    32
  0
VERTEX
  8
0
  5
2D4A
 10
52.5725
 20
83.5843
 30
0.00000
  70
    32
  0
VERTEX
  8
0
  5
2D4B
 10
52.5783
 20
83.5653
 30
0.00000
  70
    32
  0
VERTEX
  8
0
  5
2D4C
 10
52.5841
 20
83.5465
 30
0.00000
  70
    32
  0
VERTEX
  8
0
  5
2D4D
 10
52.5899
 20
83.5278
 30
0.00000
  70
    32
  0
VERTEX
  8
0
  5
2D4E
 10
52.5957
 20
83.5094
 30
0.00000
  70
    32
  0
VERTEX
  8
0
  5
2D4F
 10
52.6015
 20
83.4912
 30
0.00000
  70
    32
  0
VERTEX
  8
0
  5
2D50
 10
52.6073
 20
83.4731
 30
0.00000
  70
    32
  0
VERTEX
  8
0
  5
2D51
 10
52.6131
 20
83.4553
 30
0.00000
  70
    32
  0
VERTEX
  8
0
  5
2D52
 10
52.6189
 20
83.4376
 30
0.00000
  70
    32
  0
VERTEX
  8
0
  5
2D53
 10
52.6247
 20
83.4201
 30
0.00000
  70
    32
  0
VERTEX
  8
0
  5
2D54
 10
52.6305
 20
83.4029
 30
0.00000
  70
    32
  0
VERTEX
  8
0
  5
2D55
 10
52.6363
 20
83.3858
 30
0.00000
  70
    32
  0
VERTEX
  8
0
  5
2D56
 10
52.6421
 20
83.3689
 30
0.00000
  70
    32
  0
VERTEX
  8
0
  5
2D57
 10
52.6479
 20
83.3523
 30
0.00000
  70
    32
  0
VERTEX
  8
0
  5
2D58
 10
52.6537
 20
83.3358
 30
0.00000
  70
    32
  0
VERTEX
  8
0
  5
2D59
 10
52.6595
 20
83.3195
 30
0.00000
  70
    32
  0
VERTEX
  8
0
  5
2D5A
 10
52.6653
 20
83.3034
 30
0.00000
  70
    32
  0
VERTEX
  8
0
  5
2D5B
 10
52.6711
 20
83.2875
 30
0.00000
  70
    32
  0
VERTEX
  8
0
  5
2D5C
 10
52.6770
 20
83.2718
 30
0.00000
  70
    32
  0
VERTEX
  8
0
  5
2D5D
 10
52.6828
 20
83.2563
 30
0.00000
  70
    32
  0
VERTEX
  8
0
  5
2D5E
 10
52.6886
 20
83.2409
 30
0.00000
  70
    32
  0
VERTEX
  8
0
  5
2D5F
 10
52.6944
 20
83.2258
 30
0.00000
  70
    32
  0
VERTEX
  8
0
  5
2D60
 10
52.7002
 20
83.2109
 30
0.00000
  70
    32
  0
VERTEX
  8
0
  5
2D61
 10
52.7060
 20
83.1962
 30
0.00000
  70
    32
  0
VERTEX
  8
0
  5
2D62
 10
52.7118
 20
83.1816
 30
0.00000
  70
    32
  0
VERTEX
  8
0
  5
2D63
 10
52.7177
 20
83.1673
 30
0.00000
  70
    32
  0
VERTEX
  8
0
  5
2D64
 10
52.7235
 20
83.1531
 30
0.00000
  70
    32
  0
VERTEX
  8
0
  5
2D65
 10
52.7293
 20
83.1392
 30
0.00000
  70
    32
  0
VERTEX
  8
0
  5
2D66
 10
52.7351
 20
83.1254
 30
0.00000
  70
    32
  0
VERTEX
  8
0
  5
2D67
 10
52.7410
 20
83.1119
 30
0.00000
  70
    32
  0
VERTEX
  8
0
  5
2D68
 10
52.7468
 20
83.0985
 30
0.00000
  70
    32
  0
VERTEX
  8
0
  5
2D69
 10
52.7526
 20
83.0854
 30
0.00000
  70
    32
  0
VERTEX
  8
0
  5
2D6A
 10
52.7584
 20
83.0724
 30
0.00000
  70
    32
  0
VERTEX
  8
0
  5
2D6B
 10
52.7643
 20
83.0596
 30
0.00000
  70
    32
  0
VERTEX
  8
0
  5
2D6C
 10
52.7701
 20
83.0470
 30
0.00000
  70
    32
  0
VERTEX
  8
0
  5
2D6D
 10
52.7759
 20
83.0346
 30
0.00000
  70
    32
  0
VERTEX
  8
0
  5
2D6E
 10
52.7818
 20
83.0225
 30
0.00000
  70
    32
  0
VERTEX
  8
0
  5
2D6F
 10
52.7876
 20
83.0105
 30
0.00000
  70
    32
  0
VERTEX
  8
0
  5
2D70
 10
52.7934
 20
82.9987
 30
0.00000
  70
    32
  0
VERTEX
  8
0
  5
2D71
 10
52.7993
 20
82.9871
 30
0.00000
  70
    32
  0
VERTEX
  8
0
  5
2D72
 10
52.8051
 20
82.9757
 30
0.00000
  70
    32
  0
VERTEX
  8
0
  5
2D73
 10
52.8109
 20
82.9645
 30
0.00000
  70
    32
  0
VERTEX
  8
0
  5
2D74
 10
52.8168
 20
82.9534
 30
0.00000
  70
    32
  0
VERTEX
  8
0
  5
2D75
 10
52.8226
 20
82.9426
 30
0.00000
  70
    32
  0
VERTEX
  8
0
  5
2D76
 10
52.8284
 20
82.9320
 30
0.00000
  70
    32
  0
VERTEX
  8
0
  5
2D77
 10
52.8343
 20
82.9216
 30
0.00000
  70
    32
  0
VERTEX
  8
0
  5
2D78
 10
52.8401
 20
82.9113
 30
0.00000
  70
    32
  0
VERTEX
  8
0
  5
2D79
 10
52.8460
 20
82.9013
 30
0.00000
  70
    32
  0
VERTEX
  8
0
  5
2D7A
 10
52.8518
 20
82.8915
 30
0.00000
  70
    32
  0
VERTEX
  8
0
  5
2D7B
 10
52.8576
 20
82.8818
 30
0.00000
  70
    32
  0
VERTEX
  8
0
  5
2D7C
 10
52.8635
 20
82.8724
 30
0.00000
  70
    32
  0
VERTEX
  8
0
  5
2D7D
 10
52.8693
 20
82.8631
 30
0.00000
  70
    32
  0
VERTEX
  8
0
  5
2D7E
 10
52.8752
 20
82.8541
 30
0.00000
  70
    32
  0
VERTEX
  8
0
  5
2D7F
 10
52.8810
 20
82.8452
 30
0.00000
  70
    32
  0
VERTEX
  8
0
  5
2D80
 10
52.8869
 20
82.8366
 30
0.00000
  70
    32
  0
VERTEX
  8
0
  5
2D81
 10
52.8927
 20
82.8281
 30
0.00000
  70
    32
  0
VERTEX
  8
0
  5
2D82
 10
52.8986
 20
82.8198
 30
0.00000
  70
    32
  0
VERTEX
  8
0
  5
2D83
 10
52.9044
 20
82.8118
 30
0.00000
  70
    32
  0
VERTEX
  8
0
  5
2D84
 10
52.9103
 20
82.8039
 30
0.00000
  70
    32
  0
VERTEX
  8
0
  5
2D85
 10
52.9161
 20
82.7962
 30
0.00000
  70
    32
  0
VERTEX
  8
0
  5
2D86
 10
52.9219
 20
82.7887
 30
0.00000
  70
    32
  0
VERTEX
  8
0
  5
2D87
 10
52.9278
 20
82.7814
 30
0.00000
  70
    32
  0
VERTEX
  8
0
  5
2D88
 10
52.9337
 20
82.7743
 30
0.00000
  70
    32
  0
VERTEX
  8
0
  5
2D89
 10
52.9395
 20
82.7675
 30
0.00000
  70
    32
  0
VERTEX
  8
0
  5
2D8A
 10
52.9454
 20
82.7608
 30
0.00000
  70
    32
  0
VERTEX
  8
0
  5
2D8B
 10
52.9512
 20
82.7543
 30
0.00000
  70
    32
  0
VERTEX
  8
0
  5
2D8C
 10
52.9571
 20
82.7480
 30
0.00000
  70
    32
  0
VERTEX
  8
0
  5
2D8D
 10
52.9629
 20
82.7418
 30
0.00000
  70
    32
  0
VERTEX
  8
0
  5
2D8E
 10
52.9688
 20
82.7359
 30
0.00000
  70
    32
  0
VERTEX
  8
0
  5
2D8F
 10
52.9746
 20
82.7302
 30
0.00000
  70
    32
  0
VERTEX
  8
0
  5
2D90
 10
52.9805
 20
82.7247
 30
0.00000
  70
    32
  0
VERTEX
  8
0
  5
2D91
 10
52.9863
 20
82.7194
 30
0.00000
  70
    32
  0
VERTEX
  8
0
  5
2D92
 10
52.9922
 20
82.7143
 30
0.00000
  70
    32
  0
VERTEX
  8
0
  5
2D93
 10
52.9980
 20
82.7093
 30
0.00000
  70
    32
  0
VERTEX
  8
0
  5
2D94
 10
53.0039
 20
82.7046
 30
0.00000
  70
    32
  0
VERTEX
  8
0
  5
2D95
 10
53.0098
 20
82.7001
 30
0.00000
  70
    32
  0
VERTEX
  8
0
  5
2D96
 10
53.0156
 20
82.6957
 30
0.00000
  70
    32
  0
VERTEX
  8
0
  5
2D97
 10
53.0215
 20
82.6916
 30
0.00000
  70
    32
  0
VERTEX
  8
0
  5
2D98
 10
53.0273
 20
82.6876
 30
0.00000
  70
    32
  0
VERTEX
  8
0
  5
2D99
 10
53.0332
 20
82.6839
 30
0.00000
  70
    32
  0
VERTEX
  8
0
  5
2D9A
 10
53.0390
 20
82.6803
 30
0.00000
  70
    32
  0
VERTEX
  8
0
  5
2D9B
 10
53.0449
 20
82.6770
 30
0.00000
  70
    32
  0
VERTEX
  8
0
  5
2D9C
 10
53.0508
 20
82.6738
 30
0.00000
  70
    32
  0
VERTEX
  8
0
  5
2D9D
 10
53.0566
 20
82.6709
 30
0.00000
  70
    32
  0
VERTEX
  8
0
  5
2D9E
 10
53.0625
 20
82.6681
 30
0.00000
  70
    32
  0
VERTEX
  8
0
  5
2D9F
 10
53.0683
 20
82.6655
 30
0.00000
  70
    32
  0
VERTEX
  8
0
  5
2DA0
 10
53.0742
 20
82.6631
 30
0.00000
  70
    32
  0
VERTEX
  8
0
  5
2DA1
 10
53.0801
 20
82.6610
 30
0.00000
  70
    32
  0
VERTEX
  8
0
  5
2DA2
 10
53.0859
 20
82.6590
 30
0.00000
  70
    32
  0
VERTEX
  8
0
  5
2DA3
 10
53.0918
 20
82.6572
 30
0.00000
  70
    32
  0
VERTEX
  8
0
  5
2DA4
 10
53.0976
 20
82.6556
 30
0.00000
  70
    32
  0
VERTEX
  8
0
  5
2DA5
 10
53.1035
 20
82.6542
 30
0.00000
  70
    32
  0
VERTEX
  8
0
  5
2DA6
 10
53.1094
 20
82.6530
 30
0.00000
  70
    32
  0
VERTEX
  8
0
  5
2DA7
 10
53.1152
 20
82.6520
 30
0.00000
  70
    32
  0
VERTEX
  8
0
  5
2DA8
 10
53.1211
 20
82.6512
 30
0.00000
  70
    32
  0
VERTEX
  8
0
  5
2DA9
 10
53.1269
 20
82.6506
 30
0.00000
  70
    32
  0
VERTEX
  8
0
  5
2DAA
 10
53.1328
 20
82.6502
 30
0.00000
  70
    32
  0
VERTEX
  8
0
  5
2DAB
 10
53.1387
 20
82.6500
 30
0.00000
  70
    32
  0
VERTEX
  8
0
  5
2DAC
 10
53.1445
 20
82.6500
 30
0.00000
  70
    32
  0
VERTEX
  8
0
  5
2DAD
 10
53.1504
 20
82.6502
 30
0.00000
  70
    32
  0
VERTEX
  8
0
  5
2DAE
 10
53.1562
 20
82.6506
 30
0.00000
  70
    32
  0
VERTEX
  8
0
  5
2DAF
 10
53.1621
 20
82.6512
 30
0.00000
  70
    32
  0
VERTEX
  8
0
  5
2DB0
 10
53.1680
 20
82.6519
 30
0.00000
  70
    32
  0
VERTEX
  8
0
  5
2DB1
 10
53.1738
 20
82.6529
 30
0.00000
  70
    32
  0
VERTEX
  8
0
  5
2DB2
 10
53.1797
 20
82.6541
 30
0.00000
  70
    32
  0
VERTEX
  8
0
  5
2DB3
 10
53.1855
 20
82.6554
 30
0.00000
  70
    32
  0
VERTEX
  8
0
  5
2DB4
 10
53.1914
 20
82.6570
 30
0.00000
  70
    32
  0
VERTEX
  8
0
  5
2DB5
 10
53.1973
 20
82.6588
 30
0.00000
  70
    32
  0
VERTEX
  8
0
  5
2DB6
 10
53.2031
 20
82.6607
 30
0.00000
  70
    32
  0
VERTEX
  8
0
  5
2DB7
 10
53.2090
 20
82.6629
 30
0.00000
  70
    32
  0
VERTEX
  8
0
  5
2DB8
 10
53.2148
 20
82.6652
 30
0.00000
  70
    32
  0
VERTEX
  8
0
  5
2DB9
 10
53.2207
 20
82.6678
 30
0.00000
  70
    32
  0
VERTEX
  8
0
  5
2DBA
 10
53.2266
 20
82.6705
 30
0.00000
  70
    32
  0
VERTEX
  8
0
  5
2DBB
 10
53.2324
 20
82.6734
 30
0.00000
  70
    32
  0
VERTEX
  8
0
  5
2DBC
 10
53.2383
 20
82.6766
 30
0.00000
  70
    32
  0
VERTEX
  8
0
  5
2DBD
 10
53.2441
 20
82.6799
 30
0.00000
  70
    32
  0
VERTEX
  8
0
  5
2DBE
 10
53.2500
 20
82.6834
 30
0.00000
  70
    32
  0
SEQEND
  8
0
  5
2DBF
  0
POLYLINE
  5
2A12
  8
0
 66
     1
 10
0.0
 20
0.0
 30
0.0
  0
VERTEX
  5
2CAC
  8
0
 10
68.9967973516107804
 20
83.8276206894371541
 30
0.0
  0
VERTEX
  5
2CAD
  8
0
 10
68.9334307177097116
 20
83.6043729591948903
 30
0.0
  0
VERTEX
  5
2CAE
  8
0
 10
68.8556245164609209
 20
83.3630188210919556
 30
0.0
  0
VERTEX
  5
2CAF
  8
0
 10
68.7633787478642944
 20
83.1227840025712936
 30
0.0
  0
VERTEX
  5
2CB0
  8
0
 10
68.6566934119198748
 20
82.9064956595614859
 30
0.0
  0
VERTEX
  5
2CB1
  8
0
 10
68.5355685086277049
 20
82.7405865682750346
 30
0.0
  0
VERTEX
  5
2CB2
  8
0
 10
68.4000040379877419
 20
82.6550662844260415
 30
0.0
  0
VERTEX
  5
2CB3
  8
0
 10
68.25
 20
82.683444745775148
 30
0.0
  0
SEQEND
  5
2CB4
  8
0
  0
ARC
  5
2A13
  8
0
 10
78.2499530395866714
 20
87.3918074778780039
 30
0.0
 40
9.569454391570531
 50
160.1336016102131055
 51
173.7996082951470953
  0
POLYLINE
  5
2A14
  8
0
 10
69.2500000000000284
 20
84.7314218419222414
 30
0.0
 66
     1
 70
     8
  0
VERTEX
  8
0
  5
2DC0
 10
69.2500
 20
84.7314
 30
0.00000
  70
    32
  0
VERTEX
  8
0
  5
2DC1
 10
69.2480
 20
84.7268
 30
0.00000
  70
    32
  0
VERTEX
  8
0
  5
2DC2
 10
69.2460
 20
84.7221
 30
0.00000
  70
    32
  0
VERTEX
  8
0
  5
2DC3
 10
69.2440
 20
84.7174
 30
0.00000
  70
    32
  0
VERTEX
  8
0
  5
2DC4
 10
69.2420
 20
84.7126
 30
0.00000
  70
    32
  0
VERTEX
  8
0
  5
2DC5
 10
69.2400
 20
84.7078
 30
0.00000
  70
    32
  0
VERTEX
  8
0
  5
2DC6
 10
69.2380
 20
84.7030
 30
0.00000
  70
    32
  0
VERTEX
  8
0
  5
2DC7
 10
69.2360
 20
84.6981
 30
0.00000
  70
    32
  0
VERTEX
  8
0
  5
2DC8
 10
69.2340
 20
84.6932
 30
0.00000
  70
    32
  0
VERTEX
  8
0
  5
2DC9
 10
69.2320
 20
84.6882
 30
0.00000
  70
    32
  0
VERTEX
  8
0
  5
2DCA
 10
69.2301
 20
84.6833
 30
0.00000
  70
    32
  0
VERTEX
  8
0
  5
2DCB
 10
69.2281
 20
84.6782
 30
0.00000
  70
    32
  0
VERTEX
  8
0
  5
2DCC
 10
69.2261
 20
84.6732
 30
0.00000
  70
    32
  0
VERTEX
  8
0
  5
2DCD
 10
69.2241
 20
84.6681
 30
0.00000
  70
    32
  0
VERTEX
  8
0
  5
2DCE
 10
69.2221
 20
84.6629
 30
0.00000
  70
    32
  0
VERTEX
  8
0
  5
2DCF
 10
69.2201
 20
84.6577
 30
0.00000
  70
    32
  0
VERTEX
  8
0
  5
2DD0
 10
69.2181
 20
84.6525
 30
0.00000
  70
    32
  0
VERTEX
  8
0
  5
2DD1
 10
69.2161
 20
84.6473
 30
0.00000
  70
    32
  0
VERTEX
  8
0
  5
2DD2
 10
69.2141
 20
84.6420
 30
0.00000
  70
    32
  0
VERTEX
  8
0
  5
2DD3
 10
69.2121
 20
84.6366
 30
0.00000
  70
    32
  0
VERTEX
  8
0
  5
2DD4
 10
69.2101
 20
84.6313
 30
0.00000
  70
    32
  0
VERTEX
  8
0
  5
2DD5
 10
69.2081
 20
84.6259
 30
0.00000
  70
    32
  0
VERTEX
  8
0
  5
2DD6
 10
69.2061
 20
84.6204
 30
0.00000
  70
    32
  0
VERTEX
  8
0
  5
2DD7
 10
69.2042
 20
84.6149
 30
0.00000
  70
    32
  0
VERTEX
  8
0
  5
2DD8
 10
69.2022
 20
84.6094
 30
0.00000
  70
    32
  0
VERTEX
  8
0
  5
2DD9
 10
69.2002
 20
84.6038
 30
0.00000
  70
    32
  0
VERTEX
  8
0
  5
2DDA
 10
69.1982
 20
84.5982
 30
0.00000
  70
    32
  0
VERTEX
  8
0
  5
2DDB
 10
69.1962
 20
84.5926
 30
0.00000
  70
    32
  0
VERTEX
  8
0
  5
2DDC
 10
69.1942
 20
84.5869
 30
0.00000
  70
    32
  0
VERTEX
  8
0
  5
2DDD
 10
69.1922
 20
84.5812
 30
0.00000
  70
    32
  0
VERTEX
  8
0
  5
2DDE
 10
69.1902
 20
84.5755
 30
0.00000
  70
    32
  0
VERTEX
  8
0
  5
2DDF
 10
69.1882
 20
84.5697
 30
0.00000
  70
    32
  0
VERTEX
  8
0
  5
2DE0
 10
69.1862
 20
84.5638
 30
0.00000
  70
    32
  0
VERTEX
  8
0
  5
2DE1
 10
69.1843
 20
84.5580
 30
0.00000
  70
    32
  0
VERTEX
  8
0
  5
2DE2
 10
69.1823
 20
84.5521
 30
0.00000
  70
    32
  0
VERTEX
  8
0
  5
2DE3
 10
69.1803
 20
84.5461
 30
0.00000
  70
    32
  0
VERTEX
  8
0
  5
2DE4
 10
69.1783
 20
84.5402
 30
0.00000
  70
    32
  0
VERTEX
  8
0
  5
2DE5
 10
69.1763
 20
84.5341
 30
0.00000
  70
    32
  0
VERTEX
  8
0
  5
2DE6
 10
69.1743
 20
84.5281
 30
0.00000
  70
    32
  0
VERTEX
  8
0
  5
2DE7
 10
69.1723
 20
84.5220
 30
0.00000
  70
    32
  0
VERTEX
  8
0
  5
2DE8
 10
69.1703
 20
84.5158
 30
0.00000
  70
    32
  0
VERTEX
  8
0
  5
2DE9
 10
69.1684
 20
84.5097
 30
0.00000
  70
    32
  0
VERTEX
  8
0
  5
2DEA
 10
69.1664
 20
84.5035
 30
0.00000
  70
    32
  0
VERTEX
  8
0
  5
2DEB
 10
69.1644
 20
84.4972
 30
0.00000
  70
    32
  0
VERTEX
  8
0
  5
2DEC
 10
69.1624
 20
84.4909
 30
0.00000
  70
    32
  0
VERTEX
  8
0
  5
2DED
 10
69.1604
 20
84.4846
 30
0.00000
  70
    32
  0
VERTEX
  8
0
  5
2DEE
 10
69.1584
 20
84.4782
 30
0.00000
  70
    32
  0
VERTEX
  8
0
  5
2DEF
 10
69.1564
 20
84.4718
 30
0.00000
  70
    32
  0
VERTEX
  8
0
  5
2DF0
 10
69.1545
 20
84.4654
 30
0.00000
  70
    32
  0
VERTEX
  8
0
  5
2DF1
 10
69.1525
 20
84.4589
 30
0.00000
  70
    32
  0
VERTEX
  8
0
  5
2DF2
 10
69.1505
 20
84.4524
 30
0.00000
  70
    32
  0
VERTEX
  8
0
  5
2DF3
 10
69.1485
 20
84.4459
 30
0.00000
  70
    32
  0
VERTEX
  8
0
  5
2DF4
 10
69.1465
 20
84.4393
 30
0.00000
  70
    32
  0
VERTEX
  8
0
  5
2DF5
 10
69.1445
 20
84.4326
 30
0.00000
  70
    32
  0
VERTEX
  8
0
  5
2DF6
 10
69.1426
 20
84.4260
 30
0.00000
  70
    32
  0
VERTEX
  8
0
  5
2DF7
 10
69.1406
 20
84.4193
 30
0.00000
  70
    32
  0
VERTEX
  8
0
  5
2DF8
 10
69.1386
 20
84.4125
 30
0.00000
  70
    32
  0
VERTEX
  8
0
  5
2DF9
 10
69.1366
 20
84.4058
 30
0.00000
  70
    32
  0
VERTEX
  8
0
  5
2DFA
 10
69.1346
 20
84.3989
 30
0.00000
  70
    32
  0
VERTEX
  8
0
  5
2DFB
 10
69.1327
 20
84.3921
 30
0.00000
  70
    32
  0
VERTEX
  8
0
  5
2DFC
 10
69.1307
 20
84.3852
 30
0.00000
  70
    32
  0
VERTEX
  8
0
  5
2DFD
 10
69.1287
 20
84.3783
 30
0.00000
  70
    32
  0
VERTEX
  8
0
  5
2DFE
 10
69.1267
 20
84.3713
 30
0.00000
  70
    32
  0
VERTEX
  8
0
  5
2DFF
 10
69.1247
 20
84.3643
 30
0.00000
  70
    32
  0
VERTEX
  8
0
  5
2E00
 10
69.1228
 20
84.3572
 30
0.00000
  70
    32
  0
VERTEX
  8
0
  5
2E01
 10
69.1208
 20
84.3501
 30
0.00000
  70
    32
  0
VERTEX
  8
0
  5
2E02
 10
69.1188
 20
84.3430
 30
0.00000
  70
    32
  0
VERTEX
  8
0
  5
2E03
 10
69.1168
 20
84.3359
 30
0.00000
  70
    32
  0
VERTEX
  8
0
  5
2E04
 10
69.1148
 20
84.3287
 30
0.00000
  70
    32
  0
VERTEX
  8
0
  5
2E05
 10
69.1129
 20
84.3214
 30
0.00000
  70
    32
  0
VERTEX
  8
0
  5
2E06
 10
69.1109
 20
84.3142
 30
0.00000
  70
    32
  0
VERTEX
  8
0
  5
2E07
 10
69.1089
 20
84.3068
 30
0.00000
  70
    32
  0
VERTEX
  8
0
  5
2E08
 10
69.1069
 20
84.2995
 30
0.00000
  70
    32
  0
VERTEX
  8
0
  5
2E09
 10
69.1050
 20
84.2921
 30
0.00000
  70
    32
  0
VERTEX
  8
0
  5
2E0A
 10
69.1030
 20
84.2847
 30
0.00000
  70
    32
  0
VERTEX
  8
0
  5
2E0B
 10
69.1010
 20
84.2772
 30
0.00000
  70
    32
  0
VERTEX
  8
0
  5
2E0C
 10
69.0990
 20
84.2697
 30
0.00000
  70
    32
  0
VERTEX
  8
0
  5
2E0D
 10
69.0970
 20
84.2622
 30
0.00000
  70
    32
  0
VERTEX
  8
0
  5
2E0E
 10
69.0951
 20
84.2546
 30
0.00000
  70
    32
  0
VERTEX
  8
0
  5
2E0F
 10
69.0931
 20
84.2470
 30
0.00000
  70
    32
  0
VERTEX
  8
0
  5
2E10
 10
69.0911
 20
84.2393
 30
0.00000
  70
    32
  0
VERTEX
  8
0
  5
2E11
 10
69.0892
 20
84.2316
 30
0.00000
  70
    32
  0
VERTEX
  8
0
  5
2E12
 10
69.0872
 20
84.2239
 30
0.00000
  70
    32
  0
VERTEX
  8
0
  5
2E13
 10
69.0852
 20
84.2161
 30
0.00000
  70
    32
  0
VERTEX
  8
0
  5
2E14
 10
69.0832
 20
84.2083
 30
0.00000
  70
    32
  0
VERTEX
  8
0
  5
2E15
 10
69.0813
 20
84.2005
 30
0.00000
  70
    32
  0
VERTEX
  8
0
  5
2E16
 10
69.0793
 20
84.1926
 30
0.00000
  70
    32
  0
VERTEX
  8
0
  5
2E17
 10
69.0773
 20
84.1847
 30
0.00000
  70
    32
  0
VERTEX
  8
0
  5
2E18
 10
69.0753
 20
84.1768
 30
0.00000
  70
    32
  0
VERTEX
  8
0
  5
2E19
 10
69.0734
 20
84.1688
 30
0.00000
  70
    32
  0
VERTEX
  8
0
  5
2E1A
 10
69.0714
 20
84.1607
 30
0.00000
  70
    32
  0
VERTEX
  8
0
  5
2E1B
 10
69.0694
 20
84.1527
 30
0.00000
  70
    32
  0
VERTEX
  8
0
  5
2E1C
 10
69.0675
 20
84.1446
 30
0.00000
  70
    32
  0
VERTEX
  8
0
  5
2E1D
 10
69.0655
 20
84.1364
 30
0.00000
  70
    32
  0
VERTEX
  8
0
  5
2E1E
 10
69.0635
 20
84.1282
 30
0.00000
  70
    32
  0
VERTEX
  8
0
  5
2E1F
 10
69.0616
 20
84.1200
 30
0.00000
  70
    32
  0
VERTEX
  8
0
  5
2E20
 10
69.0596
 20
84.1117
 30
0.00000
  70
    32
  0
VERTEX
  8
0
  5
2E21
 10
69.0576
 20
84.1035
 30
0.00000
  70
    32
  0
VERTEX
  8
0
  5
2E22
 10
69.0557
 20
84.0951
 30
0.00000
  70
    32
  0
VERTEX
  8
0
  5
2E23
 10
69.0537
 20
84.0867
 30
0.00000
  70
    32
  0
VERTEX
  8
0
  5
2E24
 10
69.0517
 20
84.0783
 30
0.00000
  70
    32
  0
VERTEX
  8
0
  5
2E25
 10
69.0497
 20
84.0699
 30
0.00000
  70
    32
  0
VERTEX
  8
0
  5
2E26
 10
69.0478
 20
84.0614
 30
0.00000
  70
    32
  0
VERTEX
  8
0
  5
2E27
 10
69.0458
 20
84.0529
 30
0.00000
  70
    32
  0
VERTEX
  8
0
  5
2E28
 10
69.0439
 20
84.0443
 30
0.00000
  70
    32
  0
VERTEX
  8
0
  5
2E29
 10
69.0419
 20
84.0357
 30
0.00000
  70
    32
  0
VERTEX
  8
0
  5
2E2A
 10
69.0399
 20
84.0271
 30
0.00000
  70
    32
  0
VERTEX
  8
0
  5
2E2B
 10
69.0380
 20
84.0184
 30
0.00000
  70
    32
  0
VERTEX
  8
0
  5
2E2C
 10
69.0360
 20
84.0097
 30
0.00000
  70
    32
  0
VERTEX
  8
0
  5
2E2D
 10
69.0340
 20
84.0010
 30
0.00000
  70
    32
  0
VERTEX
  8
0
  5
2E2E
 10
69.0321
 20
83.9922
 30
0.00000
  70
    32
  0
VERTEX
  8
0
  5
2E2F
 10
69.0301
 20
83.9834
 30
0.00000
  70
    32
  0
VERTEX
  8
0
  5
2E30
 10
69.0281
 20
83.9745
 30
0.00000
  70
    32
  0
VERTEX
  8
0
  5
2E31
 10
69.0262
 20
83.9656
 30
0.00000
  70
    32
  0
VERTEX
  8
0
  5
2E32
 10
69.0242
 20
83.9567
 30
0.00000
  70
    32
  0
VERTEX
  8
0
  5
2E33
 10
69.0223
 20
83.9477
 30
0.00000
  70
    32
  0
VERTEX
  8
0
  5
2E34
 10
69.0203
 20
83.9387
 30
0.00000
  70
    32
  0
VERTEX
  8
0
  5
2E35
 10
69.0183
 20
83.9296
 30
0.00000
  70
    32
  0
VERTEX
  8
0
  5
2E36
 10
69.0164
 20
83.9205
 30
0.00000
  70
    32
  0
VERTEX
  8
0
  5
2E37
 10
69.0144
 20
83.9114
 30
0.00000
  70
    32
  0
VERTEX
  8
0
  5
2E38
 10
69.0125
 20
83.9023
 30
0.00000
  70
    32
  0
VERTEX
  8
0
  5
2E39
 10
69.0105
 20
83.8931
 30
0.00000
  70
    32
  0
VERTEX
  8
0
  5
2E3A
 10
69.0085
 20
83.8838
 30
0.00000
  70
    32
  0
VERTEX
  8
0
  5
2E3B
 10
69.0066
 20
83.8746
 30
0.00000
  70
    32
  0
VERTEX
  8
0
  5
2E3C
 10
69.0046
 20
83.8652
 30
0.00000
  70
    32
  0
VERTEX
  8
0
  5
2E3D
 10
69.0027
 20
83.8559
 30
0.00000
  70
    32
  0
VERTEX
  8
0
  5
2E3E
 10
69.0007
 20
83.8465
 30
0.00000
  70
    32
  0
VERTEX
  8
0
  5
2E3F
 10
68.9988
 20
83.8371
 30
0.00000
  70
    32
  0
VERTEX
  8
0
  5
2E40
 10
68.9968
 20
83.8276
 30
0.00000
  70
    32
  0
SEQEND
  8
0
  5
2E41
  0
POLYLINE
  5
2A15
  8
0
 10
52.5032026483886298
 20
83.8276206894400389
 30
0.0
 66
     1
 70
     8
  0
VERTEX
  8
0
  5
2E42
 10
52.5032
 20
83.8276
 30
0.00000
  70
    32
  0
VERTEX
  8
0
  5
2E43
 10
52.5012
 20
83.8371
 30
0.00000
  70
    32
  0
VERTEX
  8
0
  5
2E44
 10
52.4993
 20
83.8465
 30
0.00000
  70
    32
  0
VERTEX
  8
0
  5
2E45
 10
52.4973
 20
83.8559
 30
0.00000
  70
    32
  0
VERTEX
  8
0
  5
2E46
 10
52.4954
 20
83.8652
 30
0.00000
  70
    32
  0
VERTEX
  8
0
  5
2E47
 10
52.4934
 20
83.8746
 30
0.00000
  70
    32
  0
VERTEX
  8
0
  5
2E48
 10
52.4915
 20
83.8838
 30
0.00000
  70
    32
  0
VERTEX
  8
0
  5
2E49
 10
52.4895
 20
83.8931
 30
0.00000
  70
    32
  0
VERTEX
  8
0
  5
2E4A
 10
52.4875
 20
83.9023
 30
0.00000
  70
    32
  0
VERTEX
  8
0
  5
2E4B
 10
52.4856
 20
83.9114
 30
0.00000
  70
    32
  0
VERTEX
  8
0
  5
2E4C
 10
52.4836
 20
83.9205
 30
0.00000
  70
    32
  0
VERTEX
  8
0
  5
2E4D
 10
52.4817
 20
83.9296
 30
0.00000
  70
    32
  0
VERTEX
  8
0
  5
2E4E
 10
52.4797
 20
83.9387
 30
0.00000
  70
    32
  0
VERTEX
  8
0
  5
2E4F
 10
52.4777
 20
83.9477
 30
0.00000
  70
    32
  0
VERTEX
  8
0
  5
2E50
 10
52.4758
 20
83.9567
 30
0.00000
  70
    32
  0
VERTEX
  8
0
  5
2E51
 10
52.4738
 20
83.9656
 30
0.00000
  70
    32
  0
VERTEX
  8
0
  5
2E52
 10
52.4719
 20
83.9745
 30
0.00000
  70
    32
  0
VERTEX
  8
0
  5
2E53
 10
52.4699
 20
83.9834
 30
0.00000
  70
    32
  0
VERTEX
  8
0
  5
2E54
 10
52.4679
 20
83.9922
 30
0.00000
  70
    32
  0
VERTEX
  8
0
  5
2E55
 10
52.4660
 20
84.0010
 30
0.00000
  70
    32
  0
VERTEX
  8
0
  5
2E56
 10
52.4640
 20
84.0097
 30
0.00000
  70
    32
  0
VERTEX
  8
0
  5
2E57
 10
52.4620
 20
84.0184
 30
0.00000
  70
    32
  0
VERTEX
  8
0
  5
2E58
 10
52.4601
 20
84.0271
 30
0.00000
  70
    32
  0
VERTEX
  8
0
  5
2E59
 10
52.4581
 20
84.0357
 30
0.00000
  70
    32
  0
VERTEX
  8
0
  5
2E5A
 10
52.4561
 20
84.0443
 30
0.00000
  70
    32
  0
VERTEX
  8
0
  5
2E5B
 10
52.4542
 20
84.0529
 30
0.00000
  70
    32
  0
VERTEX
  8
0
  5
2E5C
 10
52.4522
 20
84.0614
 30
0.00000
  70
    32
  0
VERTEX
  8
0
  5
2E5D
 10
52.4503
 20
84.0699
 30
0.00000
  70
    32
  0
VERTEX
  8
0
  5
2E5E
 10
52.4483
 20
84.0783
 30
0.00000
  70
    32
  0
VERTEX
  8
0
  5
2E5F
 10
52.4463
 20
84.0867
 30
0.00000
  70
    32
  0
VERTEX
  8
0
  5
2E60
 10
52.4443
 20
84.0951
 30
0.00000
  70
    32
  0
VERTEX
  8
0
  5
2E61
 10
52.4424
 20
84.1035
 30
0.00000
  70
    32
  0
VERTEX
  8
0
  5
2E62
 10
52.4404
 20
84.1117
 30
0.00000
  70
    32
  0
VERTEX
  8
0
  5
2E63
 10
52.4384
 20
84.1200
 30
0.00000
  70
    32
  0
VERTEX
  8
0
  5
2E64
 10
52.4365
 20
84.1282
 30
0.00000
  70
    32
  0
VERTEX
  8
0
  5
2E65
 10
52.4345
 20
84.1364
 30
0.00000
  70
    32
  0
VERTEX
  8
0
  5
2E66
 10
52.4325
 20
84.1446
 30
0.00000
  70
    32
  0
VERTEX
  8
0
  5
2E67
 10
52.4306
 20
84.1527
 30
0.00000
  70
    32
  0
VERTEX
  8
0
  5
2E68
 10
52.4286
 20
84.1607
 30
0.00000
  70
    32
  0
VERTEX
  8
0
  5
2E69
 10
52.4266
 20
84.1688
 30
0.00000
  70
    32
  0
VERTEX
  8
0
  5
2E6A
 10
52.4247
 20
84.1768
 30
0.00000
  70
    32
  0
VERTEX
  8
0
  5
2E6B
 10
52.4227
 20
84.1847
 30
0.00000
  70
    32
  0
VERTEX
  8
0
  5
2E6C
 10
52.4207
 20
84.1926
 30
0.00000
  70
    32
  0
VERTEX
  8
0
  5
2E6D
 10
52.4187
 20
84.2005
 30
0.00000
  70
    32
  0
VERTEX
  8
0
  5
2E6E
 10
52.4168
 20
84.2083
 30
0.00000
  70
    32
  0
VERTEX
  8
0
  5
2E6F
 10
52.4148
 20
84.2161
 30
0.00000
  70
    32
  0
VERTEX
  8
0
  5
2E70
 10
52.4128
 20
84.2239
 30
0.00000
  70
    32
  0
VERTEX
  8
0
  5
2E71
 10
52.4108
 20
84.2316
 30
0.00000
  70
    32
  0
VERTEX
  8
0
  5
2E72
 10
52.4089
 20
84.2393
 30
0.00000
  70
    32
  0
VERTEX
  8
0
  5
2E73
 10
52.4069
 20
84.2470
 30
0.00000
  70
    32
  0
VERTEX
  8
0
  5
2E74
 10
52.4049
 20
84.2546
 30
0.00000
  70
    32
  0
VERTEX
  8
0
  5
2E75
 10
52.4030
 20
84.2622
 30
0.00000
  70
    32
  0
VERTEX
  8
0
  5
2E76
 10
52.4010
 20
84.2697
 30
0.00000
  70
    32
  0
VERTEX
  8
0
  5
2E77
 10
52.3990
 20
84.2772
 30
0.00000
  70
    32
  0
VERTEX
  8
0
  5
2E78
 10
52.3970
 20
84.2847
 30
0.00000
  70
    32
  0
VERTEX
  8
0
  5
2E79
 10
52.3950
 20
84.2921
 30
0.00000
  70
    32
  0
VERTEX
  8
0
  5
2E7A
 10
52.3931
 20
84.2995
 30
0.00000
  70
    32
  0
VERTEX
  8
0
  5
2E7B
 10
52.3911
 20
84.3068
 30
0.00000
  70
    32
  0
VERTEX
  8
0
  5
2E7C
 10
52.3891
 20
84.3142
 30
0.00000
  70
    32
  0
VERTEX
  8
0
  5
2E7D
 10
52.3871
 20
84.3214
 30
0.00000
  70
    32
  0
VERTEX
  8
0
  5
2E7E
 10
52.3852
 20
84.3287
 30
0.00000
  70
    32
  0
VERTEX
  8
0
  5
2E7F
 10
52.3832
 20
84.3359
 30
0.00000
  70
    32
  0
VERTEX
  8
0
  5
2E80
 10
52.3812
 20
84.3430
 30
0.00000
  70
    32
  0
VERTEX
  8
0
  5
2E81
 10
52.3792
 20
84.3501
 30
0.00000
  70
    32
  0
VERTEX
  8
0
  5
2E82
 10
52.3772
 20
84.3572
 30
0.00000
  70
    32
  0
VERTEX
  8
0
  5
2E83
 10
52.3753
 20
84.3643
 30
0.00000
  70
    32
  0
VERTEX
  8
0
  5
2E84
 10
52.3733
 20
84.3713
 30
0.00000
  70
    32
  0
VERTEX
  8
0
  5
2E85
 10
52.3713
 20
84.3783
 30
0.00000
  70
    32
  0
VERTEX
  8
0
  5
2E86
 10
52.3693
 20
84.3852
 30
0.00000
  70
    32
  0
VERTEX
  8
0
  5
2E87
 10
52.3673
 20
84.3921
 30
0.00000
  70
    32
  0
VERTEX
  8
0
  5
2E88
 10
52.3654
 20
84.3989
 30
0.00000
  70
    32
  0
VERTEX
  8
0
  5
2E89
 10
52.3634
 20
84.4058
 30
0.00000
  70
    32
  0
VERTEX
  8
0
  5
2E8A
 10
52.3614
 20
84.4125
 30
0.00000
  70
    32
  0
VERTEX
  8
0
  5
2E8B
 10
52.3594
 20
84.4193
 30
0.00000
  70
    32
  0
VERTEX
  8
0
  5
2E8C
 10
52.3574
 20
84.4260
 30
0.00000
  70
    32
  0
VERTEX
  8
0
  5
2E8D
 10
52.3555
 20
84.4326
 30
0.00000
  70
    32
  0
VERTEX
  8
0
  5
2E8E
 10
52.3535
 20
84.4393
 30
0.00000
  70
    32
  0
VERTEX
  8
0
  5
2E8F
 10
52.3515
 20
84.4459
 30
0.00000
  70
    32
  0
VERTEX
  8
0
  5
2E90
 10
52.3495
 20
84.4524
 30
0.00000
  70
    32
  0
VERTEX
  8
0
  5
2E91
 10
52.3475
 20
84.4589
 30
0.00000
  70
    32
  0
VERTEX
  8
0
  5
2E92
 10
52.3455
 20
84.4654
 30
0.00000
  70
    32
  0
VERTEX
  8
0
  5
2E93
 10
52.3436
 20
84.4718
 30
0.00000
  70
    32
  0
VERTEX
  8
0
  5
2E94
 10
52.3416
 20
84.4782
 30
0.00000
  70
    32
  0
VERTEX
  8
0
  5
2E95
 10
52.3396
 20
84.4846
 30
0.00000
  70
    32
  0
VERTEX
  8
0
  5
2E96
 10
52.3376
 20
84.4909
 30
0.00000
  70
    32
  0
VERTEX
  8
0
  5
2E97
 10
52.3356
 20
84.4972
 30
0.00000
  70
    32
  0
VERTEX
  8
0
  5
2E98
 10
52.3336
 20
84.5035
 30
0.00000
  70
    32
  0
VERTEX
  8
0
  5
2E99
 10
52.3316
 20
84.5097
 30
0.00000
  70
    32
  0
VERTEX
  8
0
  5
2E9A
 10
52.3297
 20
84.5158
 30
0.00000
  70
    32
  0
VERTEX
  8
0
  5
2E9B
 10
52.3277
 20
84.5220
 30
0.00000
  70
    32
  0
VERTEX
  8
0
  5
2E9C
 10
52.3257
 20
84.5281
 30
0.00000
  70
    32
  0
VERTEX
  8
0
  5
2E9D
 10
52.3237
 20
84.5341
 30
0.00000
  70
    32
  0
VERTEX
  8
0
  5
2E9E
 10
52.3217
 20
84.5402
 30
0.00000
  70
    32
  0
VERTEX
  8
0
  5
2E9F
 10
52.3197
 20
84.5461
 30
0.00000
  70
    32
  0
VERTEX
  8
0
  5
2EA0
 10
52.3177
 20
84.5521
 30
0.00000
  70
    32
  0
VERTEX
  8
0
  5
2EA1
 10
52.3157
 20
84.5580
 30
0.00000
  70
    32
  0
VERTEX
  8
0
  5
2EA2
 10
52.3138
 20
84.5638
 30
0.00000
  70
    32
  0
VERTEX
  8
0
  5
2EA3
 10
52.3118
 20
84.5697
 30
0.00000
  70
    32
  0
VERTEX
  8
0
  5
2EA4
 10
52.3098
 20
84.5755
 30
0.00000
  70
    32
  0
VERTEX
  8
0
  5
2EA5
 10
52.3078
 20
84.5812
 30
0.00000
  70
    32
  0
VERTEX
  8
0
  5
2EA6
 10
52.3058
 20
84.5869
 30
0.00000
  70
    32
  0
VERTEX
  8
0
  5
2EA7
 10
52.3038
 20
84.5926
 30
0.00000
  70
    32
  0
VERTEX
  8
0
  5
2EA8
 10
52.3018
 20
84.5982
 30
0.00000
  70
    32
  0
VERTEX
  8
0
  5
2EA9
 10
52.2998
 20
84.6038
 30
0.00000
  70
    32
  0
VERTEX
  8
0
  5
2EAA
 10
52.2978
 20
84.6094
 30
0.00000
  70
    32
  0
VERTEX
  8
0
  5
2EAB
 10
52.2958
 20
84.6149
 30
0.00000
  70
    32
  0
VERTEX
  8
0
  5
2EAC
 10
52.2939
 20
84.6204
 30
0.00000
  70
    32
  0
VERTEX
  8
0
  5
2EAD
 10
52.2919
 20
84.6259
 30
0.00000
  70
    32
  0
VERTEX
  8
0
  5
2EAE
 10
52.2899
 20
84.6313
 30
0.00000
  70
    32
  0
VERTEX
  8
0
  5
2EAF
 10
52.2879
 20
84.6366
 30
0.00000
  70
    32
  0
VERTEX
  8
0
  5
2EB0
 10
52.2859
 20
84.6420
 30
0.00000
  70
    32
  0
VERTEX
  8
0
  5
2EB1
 10
52.2839
 20
84.6473
 30
0.00000
  70
    32
  0
VERTEX
  8
0
  5
2EB2
 10
52.2819
 20
84.6525
 30
0.00000
  70
    32
  0
VERTEX
  8
0
  5
2EB3
 10
52.2799
 20
84.6577
 30
0.00000
  70
    32
  0
VERTEX
  8
0
  5
2EB4
 10
52.2779
 20
84.6629
 30
0.00000
  70
    32
  0
VERTEX
  8
0
  5
2EB5
 10
52.2759
 20
84.6681
 30
0.00000
  70
    32
  0
VERTEX
  8
0
  5
2EB6
 10
52.2739
 20
84.6732
 30
0.00000
  70
    32
  0
VERTEX
  8
0
  5
2EB7
 10
52.2719
 20
84.6782
 30
0.00000
  70
    32
  0
VERTEX
  8
0
  5
2EB8
 10
52.2699
 20
84.6833
 30
0.00000
  70
    32
  0
VERTEX
  8
0
  5
2EB9
 10
52.2680
 20
84.6882
 30
0.00000
  70
    32
  0
VERTEX
  8
0
  5
2EBA
 10
52.2660
 20
84.6932
 30
0.00000
  70
    32
  0
VERTEX
  8
0
  5
2EBB
 10
52.2640
 20
84.6981
 30
0.00000
  70
    32
  0
VERTEX
  8
0
  5
2EBC
 10
52.2620
 20
84.7030
 30
0.00000
  70
    32
  0
VERTEX
  8
0
  5
2EBD
 10
52.2600
 20
84.7078
 30
0.00000
  70
    32
  0
VERTEX
  8
0
  5
2EBE
 10
52.2580
 20
84.7126
 30
0.00000
  70
    32
  0
VERTEX
  8
0
  5
2EBF
 10
52.2560
 20
84.7174
 30
0.00000
  70
    32
  0
VERTEX
  8
0
  5
2EC0
 10
52.2540
 20
84.7221
 30
0.00000
  70
    32
  0
VERTEX
  8
0
  5
2EC1
 10
52.2520
 20
84.7268
 30
0.00000
  70
    32
  0
VERTEX
  8
0
  5
2EC2
 10
52.2500
 20
84.7314
 30
0.00000
  70
    32
  0
SEQEND
  8
0
  5
2EC3
  0
POLYLINE
  5
2A16
  8
0
 10
52.7635222027307051
 20
88.4253674259022375
 30
0.0
 66
     1
 70
     8
  0
VERTEX
  8
0
  5
2EC4
 10
52.7635
 20
88.4254
 30
0.00000
  70
    32
  0
VERTEX
  8
0
  5
2EC5
 10
52.7596
 20
88.4515
 30
0.00000
  70
    32
  0
VERTEX
  8
0
  5
2EC6
 10
52.7557
 20
88.4774
 30
0.00000
  70
    32
  0
VERTEX
  8
0
  5
2EC7
 10
52.7518
 20
88.5033
 30
0.00000
  70
    32
  0
VERTEX
  8
0
  5
2EC8
 10
52.7479
 20
88.5290
 30
0.00000
  70
    32
  0
VERTEX
  8
0
  5
2EC9
 10
52.7440
 20
88.5545
 30
0.00000
  70
    32
  0
VERTEX
  8
0
  5
2ECA
 10
52.7400
 20
88.5799
 30
0.00000
  70
    32
  0
VERTEX
  8
0
  5
2ECB
 10
52.7361
 20
88.6052
 30
0.00000
  70
    32
  0
VERTEX
  8
0
  5
2ECC
 10
52.7322
 20
88.6304
 30
0.00000
  70
    32
  0
VERTEX
  8
0
  5
2ECD
 10
52.7283
 20
88.6554
 30
0.00000
  70
    32
  0
VERTEX
  8
0
  5
2ECE
 10
52.7243
 20
88.6803
 30
0.00000
  70
    32
  0
VERTEX
  8
0
  5
2ECF
 10
52.7204
 20
88.7050
 30
0.00000
  70
    32
  0
VERTEX
  8
0
  5
2ED0
 10
52.7165
 20
88.7296
 30
0.00000
  70
    32
  0
VERTEX
  8
0
  5
2ED1
 10
52.7126
 20
88.7541
 30
0.00000
  70
    32
  0
VERTEX
  8
0
  5
2ED2
 10
52.7086
 20
88.7784
 30
0.00000
  70
    32
  0
VERTEX
  8
0
  5
2ED3
 10
52.7047
 20
88.8026
 30
0.00000
  70
    32
  0
VERTEX
  8
0
  5
2ED4
 10
52.7007
 20
88.8267
 30
0.00000
  70
    32
  0
VERTEX
  8
0
  5
2ED5
 10
52.6968
 20
88.8506
 30
0.00000
  70
    32
  0
VERTEX
  8
0
  5
2ED6
 10
52.6929
 20
88.8744
 30
0.00000
  70
    32
  0
VERTEX
  8
0
  5
2ED7
 10
52.6889
 20
88.8980
 30
0.00000
  70
    32
  0
VERTEX
  8
0
  5
2ED8
 10
52.6850
 20
88.9215
 30
0.00000
  70
    32
  0
VERTEX
  8
0
  5
2ED9
 10
52.6810
 20
88.9449
 30
0.00000
  70
    32
  0
VERTEX
  8
0
  5
2EDA
 10
52.6771
 20
88.9681
 30
0.00000
  70
    32
  0
VERTEX
  8
0
  5
2EDB
 10
52.6731
 20
88.9912
 30
0.00000
  70
    32
  0
VERTEX
  8
0
  5
2EDC
 10
52.6692
 20
89.0142
 30
0.00000
  70
    32
  0
VERTEX
  8
0
  5
2EDD
 10
52.6652
 20
89.0370
 30
0.00000
  70
    32
  0
VERTEX
  8
0
  5
2EDE
 10
52.6613
 20
89.0597
 30
0.00000
  70
    32
  0
VERTEX
  8
0
  5
2EDF
 10
52.6573
 20
89.0823
 30
0.00000
  70
    32
  0
VERTEX
  8
0
  5
2EE0
 10
52.6533
 20
89.1047
 30
0.00000
  70
    32
  0
VERTEX
  8
0
  5
2EE1
 10
52.6494
 20
89.1270
 30
0.00000
  70
    32
  0
VERTEX
  8
0
  5
2EE2
 10
52.6454
 20
89.1491
 30
0.00000
  70
    32
  0
VERTEX
  8
0
  5
2EE3
 10
52.6414
 20
89.1711
 30
0.00000
  70
    32
  0
VERTEX
  8
0
  5
2EE4
 10
52.6375
 20
89.1930
 30
0.00000
  70
    32
  0
VERTEX
  8
0
  5
2EE5
 10
52.6335
 20
89.2147
 30
0.00000
  70
    32
  0
VERTEX
  8
0
  5
2EE6
 10
52.6295
 20
89.2363
 30
0.00000
  70
    32
  0
VERTEX
  8
0
  5
2EE7
 10
52.6256
 20
89.2578
 30
0.00000
  70
    32
  0
VERTEX
  8
0
  5
2EE8
 10
52.6216
 20
89.2791
 30
0.00000
  70
    32
  0
VERTEX
  8
0
  5
2EE9
 10
52.6176
 20
89.3002
 30
0.00000
  70
    32
  0
VERTEX
  8
0
  5
2EEA
 10
52.6136
 20
89.3213
 30
0.00000
  70
    32
  0
VERTEX
  8
0
  5
2EEB
 10
52.6096
 20
89.3422
 30
0.00000
  70
    32
  0
VERTEX
  8
0
  5
2EEC
 10
52.6057
 20
89.3630
 30
0.00000
  70
    32
  0
VERTEX
  8
0
  5
2EED
 10
52.6017
 20
89.3836
 30
0.00000
  70
    32
  0
VERTEX
  8
0
  5
2EEE
 10
52.5977
 20
89.4041
 30
0.00000
  70
    32
  0
VERTEX
  8
0
  5
2EEF
 10
52.5937
 20
89.4244
 30
0.00000
  70
    32
  0
VERTEX
  8
0
  5
2EF0
 10
52.5897
 20
89.4446
 30
0.00000
  70
    32
  0
VERTEX
  8
0
  5
2EF1
 10
52.5857
 20
89.4647
 30
0.00000
  70
    32
  0
VERTEX
  8
0
  5
2EF2
 10
52.5817
 20
89.4846
 30
0.00000
  70
    32
  0
VERTEX
  8
0
  5
2EF3
 10
52.5777
 20
89.5044
 30
0.00000
  70
    32
  0
VERTEX
  8
0
  5
2EF4
 10
52.5738
 20
89.5241
 30
0.00000
  70
    32
  0
VERTEX
  8
0
  5
2EF5
 10
52.5698
 20
89.5436
 30
0.00000
  70
    32
  0
VERTEX
  8
0
  5
2EF6
 10
52.5658
 20
89.5630
 30
0.00000
  70
    32
  0
VERTEX
  8
0
  5
2EF7
 10
52.5618
 20
89.5822
 30
0.00000
  70
    32
  0
VERTEX
  8
0
  5
2EF8
 10
52.5578
 20
89.6013
 30
0.00000
  70
    32
  0
VERTEX
  8
0
  5
2EF9
 10
52.5538
 20
89.6203
 30
0.00000
  70
    32
  0
VERTEX
  8
0
  5
2EFA
 10
52.5498
 20
89.6391
 30
0.00000
  70
    32
  0
VERTEX
  8
0
  5
2EFB
 10
52.5457
 20
89.6578
 30
0.00000
  70
    32
  0
VERTEX
  8
0
  5
2EFC
 10
52.5417
 20
89.6763
 30
0.00000
  70
    32
  0
VERTEX
  8
0
  5
2EFD
 10
52.5377
 20
89.6948
 30
0.00000
  70
    32
  0
VERTEX
  8
0
  5
2EFE
 10
52.5337
 20
89.7130
 30
0.00000
  70
    32
  0
VERTEX
  8
0
  5
2EFF
 10
52.5297
 20
89.7312
 30
0.00000
  70
    32
  0
VERTEX
  8
0
  5
2F00
 10
52.5257
 20
89.7491
 30
0.00000
  70
    32
  0
VERTEX
  8
0
  5
2F01
 10
52.5217
 20
89.7670
 30
0.00000
  70
    32
  0
VERTEX
  8
0
  5
2F02
 10
52.5177
 20
89.7847
 30
0.00000
  70
    32
  0
VERTEX
  8
0
  5
2F03
 10
52.5136
 20
89.8023
 30
0.00000
  70
    32
  0
VERTEX
  8
0
  5
2F04
 10
52.5096
 20
89.8197
 30
0.00000
  70
    32
  0
VERTEX
  8
0
  5
2F05
 10
52.5056
 20
89.8370
 30
0.00000
  70
    32
  0
VERTEX
  8
0
  5
2F06
 10
52.5016
 20
89.8542
 30
0.00000
  70
    32
  0
VERTEX
  8
0
  5
2F07
 10
52.4976
 20
89.8712
 30
0.00000
  70
    32
  0
VERTEX
  8
0
  5
2F08
 10
52.4935
 20
89.8881
 30
0.00000
  70
    32
  0
VERTEX
  8
0
  5
2F09
 10
52.4895
 20
89.9048
 30
0.00000
  70
    32
  0
VERTEX
  8
0
  5
2F0A
 10
52.4855
 20
89.9214
 30
0.00000
  70
    32
  0
VERTEX
  8
0
  5
2F0B
 10
52.4815
 20
89.9379
 30
0.00000
  70
    32
  0
VERTEX
  8
0
  5
2F0C
 10
52.4774
 20
89.9542
 30
0.00000
  70
    32
  0
VERTEX
  8
0
  5
2F0D
 10
52.4734
 20
89.9704
 30
0.00000
  70
    32
  0
VERTEX
  8
0
  5
2F0E
 10
52.4694
 20
89.9864
 30
0.00000
  70
    32
  0
VERTEX
  8
0
  5
2F0F
 10
52.4653
 20
90.0023
 30
0.00000
  70
    32
  0
VERTEX
  8
0
  5
2F10
 10
52.4613
 20
90.0180
 30
0.00000
  70
    32
  0
VERTEX
  8
0
  5
2F11
 10
52.4573
 20
90.0337
 30
0.00000
  70
    32
  0
VERTEX
  8
0
  5
2F12
 10
52.4532
 20
90.0491
 30
0.00000
  70
    32
  0
VERTEX
  8
0
  5
2F13
 10
52.4492
 20
90.0645
 30
0.00000
  70
    32
  0
VERTEX
  8
0
  5
2F14
 10
52.4451
 20
90.0797
 30
0.00000
  70
    32
  0
VERTEX
  8
0
  5
2F15
 10
52.4411
 20
90.0947
 30
0.00000
  70
    32
  0
VERTEX
  8
0
  5
2F16
 10
52.4371
 20
90.1097
 30
0.00000
  70
    32
  0
VERTEX
  8
0
  5
2F17
 10
52.4330
 20
90.1244
 30
0.00000
  70
    32
  0
VERTEX
  8
0
  5
2F18
 10
52.4290
 20
90.1391
 30
0.00000
  70
    32
  0
VERTEX
  8
0
  5
2F19
 10
52.4249
 20
90.1536
 30
0.00000
  70
    32
  0
VERTEX
  8
0
  5
2F1A
 10
52.4209
 20
90.1679
 30
0.00000
  70
    32
  0
VERTEX
  8
0
  5
2F1B
 10
52.4168
 20
90.1821
 30
0.00000
  70
    32
  0
VERTEX
  8
0
  5
2F1C
 10
52.4128
 20
90.1962
 30
0.00000
  70
    32
  0
VERTEX
  8
0
  5
2F1D
 10
52.4087
 20
90.2102
 30
0.00000
  70
    32
  0
VERTEX
  8
0
  5
2F1E
 10
52.4047
 20
90.2240
 30
0.00000
  70
    32
  0
VERTEX
  8
0
  5
2F1F
 10
52.4006
 20
90.2376
 30
0.00000
  70
    32
  0
VERTEX
  8
0
  5
2F20
 10
52.3966
 20
90.2511
 30
0.00000
  70
    32
  0
VERTEX
  8
0
  5
2F21
 10
52.3925
 20
90.2645
 30
0.00000
  70
    32
  0
VERTEX
  8
0
  5
2F22
 10
52.3885
 20
90.2777
 30
0.00000
  70
    32
  0
VERTEX
  8
0
  5
2F23
 10
52.3844
 20
90.2908
 30
0.00000
  70
    32
  0
VERTEX
  8
0
  5
2F24
 10
52.3803
 20
90.3038
 30
0.00000
  70
    32
  0
VERTEX
  8
0
  5
2F25
 10
52.3763
 20
90.3166
 30
0.00000
  70
    32
  0
VERTEX
  8
0
  5
2F26
 10
52.3722
 20
90.3293
 30
0.00000
  70
    32
  0
VERTEX
  8
0
  5
2F27
 10
52.3682
 20
90.3418
 30
0.00000
  70
    32
  0
VERTEX
  8
0
  5
2F28
 10
52.3641
 20
90.3542
 30
0.00000
  70
    32
  0
VERTEX
  8
0
  5
2F29
 10
52.3600
 20
90.3664
 30
0.00000
  70
    32
  0
VERTEX
  8
0
  5
2F2A
 10
52.3560
 20
90.3785
 30
0.00000
  70
    32
  0
VERTEX
  8
0
  5
2F2B
 10
52.3519
 20
90.3905
 30
0.00000
  70
    32
  0
VERTEX
  8
0
  5
2F2C
 10
52.3478
 20
90.4023
 30
0.00000
  70
    32
  0
VERTEX
  8
0
  5
2F2D
 10
52.3438
 20
90.4140
 30
0.00000
  70
    32
  0
VERTEX
  8
0
  5
2F2E
 10
52.3397
 20
90.4256
 30
0.00000
  70
    32
  0
VERTEX
  8
0
  5
2F2F
 10
52.3356
 20
90.4370
 30
0.00000
  70
    32
  0
VERTEX
  8
0
  5
2F30
 10
52.3316
 20
90.4482
 30
0.00000
  70
    32
  0
VERTEX
  8
0
  5
2F31
 10
52.3275
 20
90.4593
 30
0.00000
  70
    32
  0
VERTEX
  8
0
  5
2F32
 10
52.3234
 20
90.4703
 30
0.00000
  70
    32
  0
VERTEX
  8
0
  5
2F33
 10
52.3194
 20
90.4812
 30
0.00000
  70
    32
  0
VERTEX
  8
0
  5
2F34
 10
52.3153
 20
90.4919
 30
0.00000
  70
    32
  0
VERTEX
  8
0
  5
2F35
 10
52.3112
 20
90.5024
 30
0.00000
  70
    32
  0
VERTEX
  8
0
  5
2F36
 10
52.3071
 20
90.5128
 30
0.00000
  70
    32
  0
VERTEX
  8
0
  5
2F37
 10
52.3031
 20
90.5231
 30
0.00000
  70
    32
  0
VERTEX
  8
0
  5
2F38
 10
52.2990
 20
90.5332
 30
0.00000
  70
    32
  0
VERTEX
  8
0
  5
2F39
 10
52.2949
 20
90.5432
 30
0.00000
  70
    32
  0
VERTEX
  8
0
  5
2F3A
 10
52.2908
 20
90.5531
 30
0.00000
  70
    32
  0
VERTEX
  8
0
  5
2F3B
 10
52.2867
 20
90.5628
 30
0.00000
  70
    32
  0
VERTEX
  8
0
  5
2F3C
 10
52.2827
 20
90.5723
 30
0.00000
  70
    32
  0
VERTEX
  8
0
  5
2F3D
 10
52.2786
 20
90.5818
 30
0.00000
  70
    32
  0
VERTEX
  8
0
  5
2F3E
 10
52.2745
 20
90.5911
 30
0.00000
  70
    32
  0
VERTEX
  8
0
  5
2F3F
 10
52.2704
 20
90.6002
 30
0.00000
  70
    32
  0
VERTEX
  8
0
  5
2F40
 10
52.2663
 20
90.6092
 30
0.00000
  70
    32
  0
VERTEX
  8
0
  5
2F41
 10
52.2623
 20
90.6181
 30
0.00000
  70
    32
  0
VERTEX
  8
0
  5
2F42
 10
52.2582
 20
90.6268
 30
0.00000
  70
    32
  0
VERTEX
  8
0
  5
2F43
 10
52.2541
 20
90.6353
 30
0.00000
  70
    32
  0
VERTEX
  8
0
  5
2F44
 10
52.2500
 20
90.6438
 30
0.00000
  70
    32
  0
SEQEND
  8
0
  5
2F45
  0
POLYLINE
  5
2A17
  8
0
 10
52.2499999999992539
 20
90.6437765179499877
 30
0.0
 66
     1
 70
     8
  0
VERTEX
  8
0
  5
2F46
 10
52.2500
 20
90.6438
 30
0.00000
  70
    32
  0
VERTEX
  8
0
  5
2F47
 10
52.2345
 20
90.6569
 30
0.00000
  70
    32
  0
VERTEX
  8
0
  5
2F48
 10
52.2189
 20
90.6697
 30
0.00000
  70
    32
  0
VERTEX
  8
0
  5
2F49
 10
52.2034
 20
90.6821
 30
0.00000
  70
    32
  0
VERTEX
  8
0
  5
2F4A
 10
52.1879
 20
90.6942
 30
0.00000
  70
    32
  0
VERTEX
  8
0
  5
2F4B
 10
52.1723
 20
90.7059
 30
0.00000
  70
    32
  0
VERTEX
  8
0
  5
2F4C
 10
52.1568
 20
90.7173
 30
0.00000
  70
    32
  0
VERTEX
  8
0
  5
2F4D
 10
52.1412
 20
90.7282
 30
0.00000
  70
    32
  0
VERTEX
  8
0
  5
2F4E
 10
52.1257
 20
90.7389
 30
0.00000
  70
    32
  0
VERTEX
  8
0
  5
2F4F
 10
52.1101
 20
90.7491
 30
0.00000
  70
    32
  0
VERTEX
  8
0
  5
2F50
 10
52.0946
 20
90.7590
 30
0.00000
  70
    32
  0
VERTEX
  8
0
  5
2F51
 10
52.0790
 20
90.7686
 30
0.00000
  70
    32
  0
VERTEX
  8
0
  5
2F52
 10
52.0634
 20
90.7778
 30
0.00000
  70
    32
  0
VERTEX
  8
0
  5
2F53
 10
52.0479
 20
90.7866
 30
0.00000
  70
    32
  0
VERTEX
  8
0
  5
2F54
 10
52.0323
 20
90.7951
 30
0.00000
  70
    32
  0
VERTEX
  8
0
  5
2F55
 10
52.0167
 20
90.8032
 30
0.00000
  70
    32
  0
VERTEX
  8
0
  5
2F56
 10
52.0011
 20
90.8109
 30
0.00000
  70
    32
  0
VERTEX
  8
0
  5
2F57
 10
51.9856
 20
90.8183
 30
0.00000
  70
    32
  0
VERTEX
  8
0
  5
2F58
 10
51.9700
 20
90.8253
 30
0.00000
  70
    32
  0
VERTEX
  8
0
  5
2F59
 10
51.9544
 20
90.8320
 30
0.00000
  70
    32
  0
VERTEX
  8
0
  5
2F5A
 10
51.9388
 20
90.8383
 30
0.00000
  70
    32
  0
VERTEX
  8
0
  5
2F5B
 10
51.9232
 20
90.8442
 30
0.00000
  70
    32
  0
VERTEX
  8
0
  5
2F5C
 10
51.9076
 20
90.8498
 30
0.00000
  70
    32
  0
VERTEX
  8
0
  5
2F5D
 10
51.8920
 20
90.8550
 30
0.00000
  70
    32
  0
VERTEX
  8
0
  5
2F5E
 10
51.8765
 20
90.8598
 30
0.00000
  70
    32
  0
VERTEX
  8
0
  5
2F5F
 10
51.8609
 20
90.8643
 30
0.00000
  70
    32
  0
VERTEX
  8
0
  5
2F60
 10
51.8453
 20
90.8684
 30
0.00000
  70
    32
  0
VERTEX
  8
0
  5
2F61
 10
51.8297
 20
90.8722
 30
0.00000
  70
    32
  0
VERTEX
  8
0
  5
2F62
 10
51.8141
 20
90.8756
 30
0.00000
  70
    32
  0
VERTEX
  8
0
  5
2F63
 10
51.7985
 20
90.8787
 30
0.00000
  70
    32
  0
VERTEX
  8
0
  5
2F64
 10
51.7829
 20
90.8813
 30
0.00000
  70
    32
  0
VERTEX
  8
0
  5
2F65
 10
51.7673
 20
90.8837
 30
0.00000
  70
    32
  0
VERTEX
  8
0
  5
2F66
 10
51.7517
 20
90.8856
 30
0.00000
  70
    32
  0
VERTEX
  8
0
  5
2F67
 10
51.7361
 20
90.8872
 30
0.00000
  70
    32
  0
VERTEX
  8
0
  5
2F68
 10
51.7205
 20
90.8885
 30
0.00000
  70
    32
  0
VERTEX
  8
0
  5
2F69
 10
51.7049
 20
90.8893
 30
0.00000
  70
    32
  0
VERTEX
  8
0
  5
2F6A
 10
51.6893
 20
90.8898
 30
0.00000
  70
    32
  0
VERTEX
  8
0
  5
2F6B
 10
51.6737
 20
90.8900
 30
0.00000
  70
    32
  0
VERTEX
  8
0
  5
2F6C
 10
51.6581
 20
90.8898
 30
0.00000
  70
    32
  0
VERTEX
  8
0
  5
2F6D
 10
51.6425
 20
90.8892
 30
0.00000
  70
    32
  0
VERTEX
  8
0
  5
2F6E
 10
51.6269
 20
90.8883
 30
0.00000
  70
    32
  0
VERTEX
  8
0
  5
2F6F
 10
51.6113
 20
90.8870
 30
0.00000
  70
    32
  0
VERTEX
  8
0
  5
2F70
 10
51.5957
 20
90.8853
 30
0.00000
  70
    32
  0
VERTEX
  8
0
  5
2F71
 10
51.5801
 20
90.8833
 30
0.00000
  70
    32
  0
VERTEX
  8
0
  5
2F72
 10
51.5645
 20
90.8809
 30
0.00000
  70
    32
  0
VERTEX
  8
0
  5
2F73
 10
51.5489
 20
90.8782
 30
0.00000
  70
    32
  0
VERTEX
  8
0
  5
2F74
 10
51.5333
 20
90.8751
 30
0.00000
  70
    32
  0
VERTEX
  8
0
  5
2F75
 10
51.5177
 20
90.8716
 30
0.00000
  70
    32
  0
VERTEX
  8
0
  5
2F76
 10
51.5021
 20
90.8678
 30
0.00000
  70
    32
  0
VERTEX
  8
0
  5
2F77
 10
51.4865
 20
90.8636
 30
0.00000
  70
    32
  0
VERTEX
  8
0
  5
2F78
 10
51.4709
 20
90.8591
 30
0.00000
  70
    32
  0
VERTEX
  8
0
  5
2F79
 10
51.4553
 20
90.8542
 30
0.00000
  70
    32
  0
VERTEX
  8
0
  5
2F7A
 10
51.4397
 20
90.8489
 30
0.00000
  70
    32
  0
VERTEX
  8
0
  5
2F7B
 10
51.4241
 20
90.8433
 30
0.00000
  70
    32
  0
VERTEX
  8
0
  5
2F7C
 10
51.4085
 20
90.8373
 30
0.00000
  70
    32
  0
VERTEX
  8
0
  5
2F7D
 10
51.3930
 20
90.8309
 30
0.00000
  70
    32
  0
VERTEX
  8
0
  5
2F7E
 10
51.3774
 20
90.8242
 30
0.00000
  70
    32
  0
VERTEX
  8
0
  5
2F7F
 10
51.3618
 20
90.8171
 30
0.00000
  70
    32
  0
VERTEX
  8
0
  5
2F80
 10
51.3462
 20
90.8097
 30
0.00000
  70
    32
  0
VERTEX
  8
0
  5
2F81
 10
51.3306
 20
90.8019
 30
0.00000
  70
    32
  0
VERTEX
  8
0
  5
2F82
 10
51.3151
 20
90.7937
 30
0.00000
  70
    32
  0
VERTEX
  8
0
  5
2F83
 10
51.2995
 20
90.7852
 30
0.00000
  70
    32
  0
VERTEX
  8
0
  5
2F84
 10
51.2839
 20
90.7763
 30
0.00000
  70
    32
  0
VERTEX
  8
0
  5
2F85
 10
51.2684
 20
90.7671
 30
0.00000
  70
    32
  0
VERTEX
  8
0
  5
2F86
 10
51.2528
 20
90.7575
 30
0.00000
  70
    32
  0
VERTEX
  8
0
  5
2F87
 10
51.2372
 20
90.7475
 30
0.00000
  70
    32
  0
VERTEX
  8
0
  5
2F88
 10
51.2217
 20
90.7372
 30
0.00000
  70
    32
  0
VERTEX
  8
0
  5
2F89
 10
51.2061
 20
90.7265
 30
0.00000
  70
    32
  0
VERTEX
  8
0
  5
2F8A
 10
51.1906
 20
90.7155
 30
0.00000
  70
    32
  0
VERTEX
  8
0
  5
2F8B
 10
51.1750
 20
90.7040
 30
0.00000
  70
    32
  0
VERTEX
  8
0
  5
2F8C
 10
51.1595
 20
90.6923
 30
0.00000
  70
    32
  0
VERTEX
  8
0
  5
2F8D
 10
51.1440
 20
90.6802
 30
0.00000
  70
    32
  0
VERTEX
  8
0
  5
2F8E
 10
51.1284
 20
90.6677
 30
0.00000
  70
    32
  0
VERTEX
  8
0
  5
2F8F
 10
51.1129
 20
90.6548
 30
0.00000
  70
    32
  0
VERTEX
  8
0
  5
2F90
 10
51.0974
 20
90.6416
 30
0.00000
  70
    32
  0
VERTEX
  8
0
  5
2F91
 10
51.0818
 20
90.6280
 30
0.00000
  70
    32
  0
VERTEX
  8
0
  5
2F92
 10
51.0663
 20
90.6141
 30
0.00000
  70
    32
  0
VERTEX
  8
0
  5
2F93
 10
51.0508
 20
90.5998
 30
0.00000
  70
    32
  0
VERTEX
  8
0
  5
2F94
 10
51.0353
 20
90.5852
 30
0.00000
  70
    32
  0
VERTEX
  8
0
  5
2F95
 10
51.0198
 20
90.5702
 30
0.00000
  70
    32
  0
VERTEX
  8
0
  5
2F96
 10
51.0043
 20
90.5548
 30
0.00000
  70
    32
  0
VERTEX
  8
0
  5
2F97
 10
50.9888
 20
90.5391
 30
0.00000
  70
    32
  0
VERTEX
  8
0
  5
2F98
 10
50.9733
 20
90.5230
 30
0.00000
  70
    32
  0
VERTEX
  8
0
  5
2F99
 10
50.9578
 20
90.5066
 30
0.00000
  70
    32
  0
VERTEX
  8
0
  5
2F9A
 10
50.9423
 20
90.4898
 30
0.00000
  70
    32
  0
VERTEX
  8
0
  5
2F9B
 10
50.9269
 20
90.4726
 30
0.00000
  70
    32
  0
VERTEX
  8
0
  5
2F9C
 10
50.9114
 20
90.4551
 30
0.00000
  70
    32
  0
VERTEX
  8
0
  5
2F9D
 10
50.8959
 20
90.4372
 30
0.00000
  70
    32
  0
VERTEX
  8
0
  5
2F9E
 10
50.8805
 20
90.4190
 30
0.00000
  70
    32
  0
VERTEX
  8
0
  5
2F9F
 10
50.8650
 20
90.4004
 30
0.00000
  70
    32
  0
VERTEX
  8
0
  5
2FA0
 10
50.8496
 20
90.3815
 30
0.00000
  70
    32
  0
VERTEX
  8
0
  5
2FA1
 10
50.8341
 20
90.3621
 30
0.00000
  70
    32
  0
VERTEX
  8
0
  5
2FA2
 10
50.8187
 20
90.3425
 30
0.00000
  70
    32
  0
VERTEX
  8
0
  5
2FA3
 10
50.8032
 20
90.3225
 30
0.00000
  70
    32
  0
VERTEX
  8
0
  5
2FA4
 10
50.7878
 20
90.3021
 30
0.00000
  70
    32
  0
VERTEX
  8
0
  5
2FA5
 10
50.7724
 20
90.2813
 30
0.00000
  70
    32
  0
VERTEX
  8
0
  5
2FA6
 10
50.7570
 20
90.2602
 30
0.00000
  70
    32
  0
VERTEX
  8
0
  5
2FA7
 10
50.7416
 20
90.2388
 30
0.00000
  70
    32
  0
VERTEX
  8
0
  5
2FA8
 10
50.7262
 20
90.2170
 30
0.00000
  70
    32
  0
VERTEX
  8
0
  5
2FA9
 10
50.7108
 20
90.1948
 30
0.00000
  70
    32
  0
VERTEX
  8
0
  5
2FAA
 10
50.6954
 20
90.1723
 30
0.00000
  70
    32
  0
VERTEX
  8
0
  5
2FAB
 10
50.6800
 20
90.1494
 30
0.00000
  70
    32
  0
VERTEX
  8
0
  5
2FAC
 10
50.6647
 20
90.1262
 30
0.00000
  70
    32
  0
VERTEX
  8
0
  5
2FAD
 10
50.6493
 20
90.1026
 30
0.00000
  70
    32
  0
VERTEX
  8
0
  5
2FAE
 10
50.6339
 20
90.0786
 30
0.00000
  70
    32
  0
VERTEX
  8
0
  5
2FAF
 10
50.6186
 20
90.0543
 30
0.00000
  70
    32
  0
VERTEX
  8
0
  5
2FB0
 10
50.6033
 20
90.0297
 30
0.00000
  70
    32
  0
VERTEX
  8
0
  5
2FB1
 10
50.5879
 20
90.0047
 30
0.00000
  70
    32
  0
VERTEX
  8
0
  5
2FB2
 10
50.5726
 20
89.9793
 30
0.00000
  70
    32
  0
VERTEX
  8
0
  5
2FB3
 10
50.5573
 20
89.9536
 30
0.00000
  70
    32
  0
VERTEX
  8
0
  5
2FB4
 10
50.5420
 20
89.9275
 30
0.00000
  70
    32
  0
VERTEX
  8
0
  5
2FB5
 10
50.5267
 20
89.9010
 30
0.00000
  70
    32
  0
VERTEX
  8
0
  5
2FB6
 10
50.5114
 20
89.8743
 30
0.00000
  70
    32
  0
VERTEX
  8
0
  5
2FB7
 10
50.4961
 20
89.8471
 30
0.00000
  70
    32
  0
VERTEX
  8
0
  5
2FB8
 10
50.4808
 20
89.8196
 30
0.00000
  70
    32
  0
VERTEX
  8
0
  5
2FB9
 10
50.4655
 20
89.7918
 30
0.00000
  70
    32
  0
VERTEX
  8
0
  5
2FBA
 10
50.4503
 20
89.7635
 30
0.00000
  70
    32
  0
VERTEX
  8
0
  5
2FBB
 10
50.4350
 20
89.7350
 30
0.00000
  70
    32
  0
VERTEX
  8
0
  5
2FBC
 10
50.4198
 20
89.7061
 30
0.00000
  70
    32
  0
VERTEX
  8
0
  5
2FBD
 10
50.4045
 20
89.6768
 30
0.00000
  70
    32
  0
VERTEX
  8
0
  5
2FBE
 10
50.3893
 20
89.6472
 30
0.00000
  70
    32
  0
VERTEX
  8
0
  5
2FBF
 10
50.3741
 20
89.6172
 30
0.00000
  70
    32
  0
VERTEX
  8
0
  5
2FC0
 10
50.3589
 20
89.5869
 30
0.00000
  70
    32
  0
VERTEX
  8
0
  5
2FC1
 10
50.3437
 20
89.5562
 30
0.00000
  70
    32
  0
VERTEX
  8
0
  5
2FC2
 10
50.3285
 20
89.5252
 30
0.00000
  70
    32
  0
VERTEX
  8
0
  5
2FC3
 10
50.3133
 20
89.4938
 30
0.00000
  70
    32
  0
VERTEX
  8
0
  5
2FC4
 10
50.2982
 20
89.4621
 30
0.00000
  70
    32
  0
VERTEX
  8
0
  5
2FC5
 10
50.2830
 20
89.4300
 30
0.00000
  70
    32
  0
VERTEX
  8
0
  5
2FC6
 10
50.2679
 20
89.3976
 30
0.00000
  70
    32
  0
SEQEND
  8
0
  5
2FC7
  0
POLYLINE
  5
2A18
  8
0
 66
     1
 10
0.0
 20
0.0
 30
0.0
  0
VERTEX
  5
2CB5
  8
0
 10
69.25
 20
90.643776517949334
 30
0.0
  0
VERTEX
  5
2CB6
  8
0
 10
69.6539552986505441
 20
90.8900000000000006
 30
0.0
  0
VERTEX
  5
2CB7
  8
0
 10
70.0471935614827999
 20
90.8531331498931252
 30
0.0
  0
VERTEX
  5
2CB8
  8
0
 10
70.4464119749806059
 20
90.6030026643499866
 30
0.0
  0
VERTEX
  5
2CB9
  8
0
 10
70.8415015085261075
 20
90.1174609604286729
 30
0.0
  0
VERTEX
  5
2CBA
  8
0
 10
71.2321422855088144
 20
89.397556350111401
 30
0.0
  0
SEQEND
  5
2CBB
  8
0
  0
POLYLINE
  5
2A19
  8
0
 10
71.4999999999995026
 20
82.5889373486123475
 30
0.0
 66
     1
 70
     8
  0
VERTEX
  8
0
  5
2FC8
 10
71.5000
 20
82.5889
 30
0.00000
  70
    32
  0
VERTEX
  8
0
  5
2FC9
 10
71.4831
 20
82.6388
 30
0.00000
  70
    32
  0
VERTEX
  8
0
  5
2FCA
 10
71.4662
 20
82.6882
 30
0.00000
  70
    32
  0
VERTEX
  8
0
  5
2FCB
 10
71.4493
 20
82.7371
 30
0.00000
  70
    32
  0
VERTEX
  8
0
  5
2FCC
 10
71.4324
 20
82.7855
 30
0.00000
  70
    32
  0
VERTEX
  8
0
  5
2FCD
 10
71.4154
 20
82.8334
 30
0.00000
  70
    32
  0
VERTEX
  8
0
  5
2FCE
 10
71.3984
 20
82.8807
 30
0.00000
  70
    32
  0
VERTEX
  8
0
  5
2FCF
 10
71.3814
 20
82.9276
 30
0.00000
  70
    32
  0
VERTEX
  8
0
  5
2FD0
 10
71.3644
 20
82.9739
 30
0.00000
  70
    32
  0
VERTEX
  8
0
  5
2FD1
 10
71.3474
 20
83.0198
 30
0.00000
  70
    32
  0
VERTEX
  8
0
  5
2FD2
 10
71.3304
 20
83.0651
 30
0.00000
  70
    32
  0
VERTEX
  8
0
  5
2FD3
 10
71.3133
 20
83.1099
 30
0.00000
  70
    32
  0
VERTEX
  8
0
  5
2FD4
 10
71.2962
 20
83.1542
 30
0.00000
  70
    32
  0
VERTEX
  8
0
  5
2FD5
 10
71.2791
 20
83.1980
 30
0.00000
  70
    32
  0
VERTEX
  8
0
  5
2FD6
 10
71.2620
 20
83.2413
 30
0.00000
  70
    32
  0
VERTEX
  8
0
  5
2FD7
 10
71.2449
 20
83.2841
 30
0.00000
  70
    32
  0
VERTEX
  8
0
  5
2FD8
 10
71.2277
 20
83.3263
 30
0.00000
  70
    32
  0
VERTEX
  8
0
  5
2FD9
 10
71.2105
 20
83.3681
 30
0.00000
  70
    32
  0
VERTEX
  8
0
  5
2FDA
 10
71.1933
 20
83.4093
 30
0.00000
  70
    32
  0
VERTEX
  8
0
  5
2FDB
 10
71.1761
 20
83.4500
 30
0.00000
  70
    32
  0
VERTEX
  8
0
  5
2FDC
 10
71.1589
 20
83.4902
 30
0.00000
  70
    32
  0
VERTEX
  8
0
  5
2FDD
 10
71.1417
 20
83.5299
 30
0.00000
  70
    32
  0
VERTEX
  8
0
  5
2FDE
 10
71.1244
 20
83.5690
 30
0.00000
  70
    32
  0
VERTEX
  8
0
  5
2FDF
 10
71.1072
 20
83.6077
 30
0.00000
  70
    32
  0
VERTEX
  8
0
  5
2FE0
 10
71.0899
 20
83.6458
 30
0.00000
  70
    32
  0
VERTEX
  8
0
  5
2FE1
 10
71.0726
 20
83.6834
 30
0.00000
  70
    32
  0
VERTEX
  8
0
  5
2FE2
 10
71.0553
 20
83.7205
 30
0.00000
  70
    32
  0
VERTEX
  8
0
  5
2FE3
 10
71.0380
 20
83.7571
 30
0.00000
  70
    32
  0
VERTEX
  8
0
  5
2FE4
 10
71.0206
 20
83.7932
 30
0.00000
  70
    32
  0
VERTEX
  8
0
  5
2FE5
 10
71.0033
 20
83.8287
 30
0.00000
  70
    32
  0
VERTEX
  8
0
  5
2FE6
 10
70.9859
 20
83.8637
 30
0.00000
  70
    32
  0
VERTEX
  8
0
  5
2FE7
 10
70.9685
 20
83.8982
 30
0.00000
  70
    32
  0
VERTEX
  8
0
  5
2FE8
 10
70.9511
 20
83.9322
 30
0.00000
  70
    32
  0
VERTEX
  8
0
  5
2FE9
 10
70.9337
 20
83.9656
 30
0.00000
  70
    32
  0
VERTEX
  8
0
  5
2FEA
 10
70.9163
 20
83.9986
 30
0.00000
  70
    32
  0
VERTEX
  8
0
  5
2FEB
 10
70.8989
 20
84.0310
 30
0.00000
  70
    32
  0
VERTEX
  8
0
  5
2FEC
 10
70.8814
 20
84.0629
 30
0.00000
  70
    32
  0
VERTEX
  8
0
  5
2FED
 10
70.8640
 20
84.0943
 30
0.00000
  70
    32
  0
VERTEX
  8
0
  5
2FEE
 10
70.8465
 20
84.1251
 30
0.00000
  70
    32
  0
VERTEX
  8
0
  5
2FEF
 10
70.8290
 20
84.1554
 30
0.00000
  70
    32
  0
VERTEX
  8
0
  5
2FF0
 10
70.8115
 20
84.1852
 30
0.00000
  70
    32
  0
VERTEX
  8
0
  5
2FF1
 10
70.7940
 20
84.2145
 30
0.00000
  70
    32
  0
VERTEX
  8
0
  5
2FF2
 10
70.7765
 20
84.2433
 30
0.00000
  70
    32
  0
VERTEX
  8
0
  5
2FF3
 10
70.7590
 20
84.2715
 30
0.00000
  70
    32
  0
VERTEX
  8
0
  5
2FF4
 10
70.7414
 20
84.2992
 30
0.00000
  70
    32
  0
VERTEX
  8
0
  5
2FF5
 10
70.7239
 20
84.3264
 30
0.00000
  70
    32
  0
VERTEX
  8
0
  5
2FF6
 10
70.7063
 20
84.3530
 30
0.00000
  70
    32
  0
VERTEX
  8
0
  5
2FF7
 10
70.6888
 20
84.3791
 30
0.00000
  70
    32
  0
VERTEX
  8
0
  5
2FF8
 10
70.6712
 20
84.4047
 30
0.00000
  70
    32
  0
VERTEX
  8
0
  5
2FF9
 10
70.6536
 20
84.4298
 30
0.00000
  70
    32
  0
VERTEX
  8
0
  5
2FFA
 10
70.6360
 20
84.4543
 30
0.00000
  70
    32
  0
VERTEX
  8
0
  5
2FFB
 10
70.6184
 20
84.4784
 30
0.00000
  70
    32
  0
VERTEX
  8
0
  5
2FFC
 10
70.6007
 20
84.5018
 30
0.00000
  70
    32
  0
VERTEX
  8
0
  5
2FFD
 10
70.5831
 20
84.5248
 30
0.00000
  70
    32
  0
VERTEX
  8
0
  5
2FFE
 10
70.5655
 20
84.5472
 30
0.00000
  70
    32
  0
VERTEX
  8
0
  5
2FFF
 10
70.5478
 20
84.5691
 30
0.00000
  70
    32
  0
VERTEX
  8
0
  5
3000
 10
70.5302
 20
84.5905
 30
0.00000
  70
    32
  0
VERTEX
  8
0
  5
3001
 10
70.5125
 20
84.6114
 30
0.00000
  70
    32
  0
VERTEX
  8
0
  5
3002
 10
70.4948
 20
84.6317
 30
0.00000
  70
    32
  0
VERTEX
  8
0
  5
3003
 10
70.4772
 20
84.6515
 30
0.00000
  70
    32
  0
VERTEX
  8
0
  5
3004
 10
70.4595
 20
84.6707
 30
0.00000
  70
    32
  0
VERTEX
  8
0
  5
3005
 10
70.4418
 20
84.6895
 30
0.00000
  70
    32
  0
VERTEX
  8
0
  5
3006
 10
70.4241
 20
84.7077
 30
0.00000
  70
    32
  0
VERTEX
  8
0
  5
3007
 10
70.4064
 20
84.7253
 30
0.00000
  70
    32
  0
VERTEX
  8
0
  5
3008
 10
70.3886
 20
84.7425
 30
0.00000
  70
    32
  0
VERTEX
  8
0
  5
3009
 10
70.3709
 20
84.7591
 30
0.00000
  70
    32
  0
VERTEX
  8
0
  5
300A
 10
70.3532
 20
84.7752
 30
0.00000
  70
    32
  0
VERTEX
  8
0
  5
300B
 10
70.3354
 20
84.7907
 30
0.00000
  70
    32
  0
VERTEX
  8
0
  5
300C
 10
70.3177
 20
84.8057
 30
0.00000
  70
    32
  0
VERTEX
  8
0
  5
300D
 10
70.2999
 20
84.8202
 30
0.00000
  70
    32
  0
VERTEX
  8
0
  5
300E
 10
70.2822
 20
84.8342
 30
0.00000
  70
    32
  0
VERTEX
  8
0
  5
300F
 10
70.2644
 20
84.8476
 30
0.00000
  70
    32
  0
VERTEX
  8
0
  5
3010
 10
70.2467
 20
84.8605
 30
0.00000
  70
    32
  0
VERTEX
  8
0
  5
3011
 10
70.2289
 20
84.8728
 30
0.00000
  70
    32
  0
VERTEX
  8
0
  5
3012
 10
70.2111
 20
84.8847
 30
0.00000
  70
    32
  0
VERTEX
  8
0
  5
3013
 10
70.1933
 20
84.8960
 30
0.00000
  70
    32
  0
VERTEX
  8
0
  5
3014
 10
70.1756
 20
84.9067
 30
0.00000
  70
    32
  0
VERTEX
  8
0
  5
3015
 10
70.1578
 20
84.9169
 30
0.00000
  70
    32
  0
VERTEX
  8
0
  5
3016
 10
70.1400
 20
84.9266
 30
0.00000
  70
    32
  0
VERTEX
  8
0
  5
3017
 10
70.1222
 20
84.9358
 30
0.00000
  70
    32
  0
VERTEX
  8
0
  5
3018
 10
70.1044
 20
84.9444
 30
0.00000
  70
    32
  0
VERTEX
  8
0
  5
3019
 10
70.0866
 20
84.9525
 30
0.00000
  70
    32
  0
VERTEX
  8
0
  5
301A
 10
70.0688
 20
84.9601
 30
0.00000
  70
    32
  0
VERTEX
  8
0
  5
301B
 10
70.0510
 20
84.9671
 30
0.00000
  70
    32
  0
VERTEX
  8
0
  5
301C
 10
70.0332
 20
84.9736
 30
0.00000
  70
    32
  0
VERTEX
  8
0
  5
301D
 10
70.0153
 20
84.9796
 30
0.00000
  70
    32
  0
VERTEX
  8
0
  5
301E
 10
69.9975
 20
84.9850
 30
0.00000
  70
    32
  0
VERTEX
  8
0
  5
301F
 10
69.9797
 20
84.9899
 30
0.00000
  70
    32
  0
VERTEX
  8
0
  5
3020
 10
69.9619
 20
84.9943
 30
0.00000
  70
    32
  0
VERTEX
  8
0
  5
3021
 10
69.9441
 20
84.9981
 30
0.00000
  70
    32
  0
VERTEX
  8
0
  5
3022
 10
69.9262
 20
85.0014
 30
0.00000
  70
    32
  0
VERTEX
  8
0
  5
3023
 10
69.9084
 20
85.0042
 30
0.00000
  70
    32
  0
VERTEX
  8
0
  5
3024
 10
69.8906
 20
85.0064
 30
0.00000
  70
    32
  0
VERTEX
  8
0
  5
3025
 10
69.8728
 20
85.0081
 30
0.00000
  70
    32
  0
VERTEX
  8
0
  5
3026
 10
69.8549
 20
85.0093
 30
0.00000
  70
    32
  0
VERTEX
  8
0
  5
3027
 10
69.8371
 20
85.0099
 30
0.00000
  70
    32
  0
VERTEX
  8
0
  5
3028
 10
69.8193
 20
85.0100
 30
0.00000
  70
    32
  0
VERTEX
  8
0
  5
3029
 10
69.8015
 20
85.0095
 30
0.00000
  70
    32
  0
VERTEX
  8
0
  5
302A
 10
69.7836
 20
85.0086
 30
0.00000
  70
    32
  0
VERTEX
  8
0
  5
302B
 10
69.7658
 20
85.0071
 30
0.00000
  70
    32
  0
VERTEX
  8
0
  5
302C
 10
69.7480
 20
85.0050
 30
0.00000
  70
    32
  0
VERTEX
  8
0
  5
302D
 10
69.7302
 20
85.0024
 30
0.00000
  70
    32
  0
VERTEX
  8
0
  5
302E
 10
69.7123
 20
84.9993
 30
0.00000
  70
    32
  0
VERTEX
  8
0
  5
302F
 10
69.6945
 20
84.9957
 30
0.00000
  70
    32
  0
VERTEX
  8
0
  5
3030
 10
69.6767
 20
84.9915
 30
0.00000
  70
    32
  0
VERTEX
  8
0
  5
3031
 10
69.6589
 20
84.9868
 30
0.00000
  70
    32
  0
VERTEX
  8
0
  5
3032
 10
69.6410
 20
84.9816
 30
0.00000
  70
    32
  0
VERTEX
  8
0
  5
3033
 10
69.6232
 20
84.9758
 30
0.00000
  70
    32
  0
VERTEX
  8
0
  5
3034
 10
69.6054
 20
84.9695
 30
0.00000
  70
    32
  0
VERTEX
  8
0
  5
3035
 10
69.5876
 20
84.9626
 30
0.00000
  70
    32
  0
VERTEX
  8
0
  5
3036
 10
69.5698
 20
84.9552
 30
0.00000
  70
    32
  0
VERTEX
  8
0
  5
3037
 10
69.5520
 20
84.9473
 30
0.00000
  70
    32
  0
VERTEX
  8
0
  5
3038
 10
69.5342
 20
84.9389
 30
0.00000
  70
    32
  0
VERTEX
  8
0
  5
3039
 10
69.5164
 20
84.9299
 30
0.00000
  70
    32
  0
VERTEX
  8
0
  5
303A
 10
69.4986
 20
84.9204
 30
0.00000
  70
    32
  0
VERTEX
  8
0
  5
303B
 10
69.4808
 20
84.9104
 30
0.00000
  70
    32
  0
VERTEX
  8
0
  5
303C
 10
69.4630
 20
84.8998
 30
0.00000
  70
    32
  0
VERTEX
  8
0
  5
303D
 10
69.4453
 20
84.8887
 30
0.00000
  70
    32
  0
VERTEX
  8
0
  5
303E
 10
69.4275
 20
84.8771
 30
0.00000
  70
    32
  0
VERTEX
  8
0
  5
303F
 10
69.4097
 20
84.8649
 30
0.00000
  70
    32
  0
VERTEX
  8
0
  5
3040
 10
69.3919
 20
84.8522
 30
0.00000
  70
    32
  0
VERTEX
  8
0
  5
3041
 10
69.3742
 20
84.8389
 30
0.00000
  70
    32
  0
VERTEX
  8
0
  5
3042
 10
69.3564
 20
84.8252
 30
0.00000
  70
    32
  0
VERTEX
  8
0
  5
3043
 10
69.3387
 20
84.8109
 30
0.00000
  70
    32
  0
VERTEX
  8
0
  5
3044
 10
69.3209
 20
84.7961
 30
0.00000
  70
    32
  0
VERTEX
  8
0
  5
3045
 10
69.3032
 20
84.7807
 30
0.00000
  70
    32
  0
VERTEX
  8
0
  5
3046
 10
69.2854
 20
84.7648
 30
0.00000
  70
    32
  0
VERTEX
  8
0
  5
3047
 10
69.2677
 20
84.7484
 30
0.00000
  70
    32
  0
VERTEX
  8
0
  5
3048
 10
69.2500
 20
84.7314
 30
0.00000
  70
    32
  0
SEQEND
  8
0
  5
3049
  0
LINE
  5
2A1A
  8
0
 10
71.5
 20
82.5889373486109548
 30
0.0
 11
71.5
 21
82.3966212671142415
 31
0.0
  0
ARC
  5
2A1B
  8
0
 10
65.971222109156983
 20
84.5249425792553808
 30
0.0
 40
5.924283633823503
 50
292.6220365136314854
 51
338.945624586118015
  0
ARC
  5
2A1C
  8
0
 10
55.5475566606369284
 20
84.543299831513167
 30
0.0
 40
5.9484127094399346
 50
201.154408575365494
 51
247.2788216011178122
  0
LINE
  5
2A1D
  8
0
 10
50.0
 20
82.5889373486109548
 30
0.0
 11
50.0
 21
82.3966212671142841
 31
0.0
  0
POLYLINE
  5
2A1E
  8
0
 10
52.2499999999993463
 20
84.7314218419227814
 30
0.0
 66
     1
 70
     8
  0
VERTEX
  8
0
  5
304A
 10
52.2500
 20
84.7314
 30
0.00000
  70
    32
  0
VERTEX
  8
0
  5
304B
 10
52.2323
 20
84.7484
 30
0.00000
  70
    32
  0
VERTEX
  8
0
  5
304C
 10
52.2146
 20
84.7648
 30
0.00000
  70
    32
  0
VERTEX
  8
0
  5
304D
 10
52.1968
 20
84.7807
 30
0.00000
  70
    32
  0
VERTEX
  8
0
  5
304E
 10
52.1791
 20
84.7961
 30
0.00000
  70
    32
  0
VERTEX
  8
0
  5
304F
 10
52.1613
 20
84.8109
 30
0.00000
  70
    32
  0
VERTEX
  8
0
  5
3050
 10
52.1436
 20
84.8252
 30
0.00000
  70
    32
  0
VERTEX
  8
0
  5
3051
 10
52.1258
 20
84.8389
 30
0.00000
  70
    32
  0
VERTEX
  8
0
  5
3052
 10
52.1081
 20
84.8522
 30
0.00000
  70
    32
  0
VERTEX
  8
0
  5
3053
 10
52.0903
 20
84.8649
 30
0.00000
  70
    32
  0
VERTEX
  8
0
  5
3054
 10
52.0725
 20
84.8771
 30
0.00000
  70
    32
  0
VERTEX
  8
0
  5
3055
 10
52.0547
 20
84.8887
 30
0.00000
  70
    32
  0
VERTEX
  8
0
  5
3056
 10
52.0370
 20
84.8998
 30
0.00000
  70
    32
  0
VERTEX
  8
0
  5
3057
 10
52.0192
 20
84.9104
 30
0.00000
  70
    32
  0
VERTEX
  8
0
  5
3058
 10
52.0014
 20
84.9204
 30
0.00000
  70
    32
  0
VERTEX
  8
0
  5
3059
 10
51.9836
 20
84.9299
 30
0.00000
  70
    32
  0
VERTEX
  8
0
  5
305A
 10
51.9658
 20
84.9389
 30
0.00000
  70
    32
  0
VERTEX
  8
0
  5
305B
 10
51.9480
 20
84.9473
 30
0.00000
  70
    32
  0
VERTEX
  8
0
  5
305C
 10
51.9302
 20
84.9552
 30
0.00000
  70
    32
  0
VERTEX
  8
0
  5
305D
 10
51.9124
 20
84.9626
 30
0.00000
  70
    32
  0
VERTEX
  8
0
  5
305E
 10
51.8946
 20
84.9695
 30
0.00000
  70
    32
  0
VERTEX
  8
0
  5
305F
 10
51.8768
 20
84.9758
 30
0.00000
  70
    32
  0
VERTEX
  8
0
  5
3060
 10
51.8590
 20
84.9816
 30
0.00000
  70
    32
  0
VERTEX
  8
0
  5
3061
 10
51.8411
 20
84.9868
 30
0.00000
  70
    32
  0
VERTEX
  8
0
  5
3062
 10
51.8233
 20
84.9915
 30
0.00000
  70
    32
  0
VERTEX
  8
0
  5
3063
 10
51.8055
 20
84.9957
 30
0.00000
  70
    32
  0
VERTEX
  8
0
  5
3064
 10
51.7877
 20
84.9993
 30
0.00000
  70
    32
  0
VERTEX
  8
0
  5
3065
 10
51.7698
 20
85.0024
 30
0.00000
  70
    32
  0
VERTEX
  8
0
  5
3066
 10
51.7520
 20
85.0050
 30
0.00000
  70
    32
  0
VERTEX
  8
0
  5
3067
 10
51.7342
 20
85.0071
 30
0.00000
  70
    32
  0
VERTEX
  8
0
  5
3068
 10
51.7164
 20
85.0086
 30
0.00000
  70
    32
  0
VERTEX
  8
0
  5
3069
 10
51.6985
 20
85.0095
 30
0.00000
  70
    32
  0
VERTEX
  8
0
  5
306A
 10
51.6807
 20
85.0100
 30
0.00000
  70
    32
  0
VERTEX
  8
0
  5
306B
 10
51.6629
 20
85.0099
 30
0.00000
  70
    32
  0
VERTEX
  8
0
  5
306C
 10
51.6451
 20
85.0093
 30
0.00000
  70
    32
  0
VERTEX
  8
0
  5
306D
 10
51.6272
 20
85.0081
 30
0.00000
  70
    32
  0
VERTEX
  8
0
  5
306E
 10
51.6094
 20
85.0064
 30
0.00000
  70
    32
  0
VERTEX
  8
0
  5
306F
 10
51.5916
 20
85.0042
 30
0.00000
  70
    32
  0
VERTEX
  8
0
  5
3070
 10
51.5738
 20
85.0014
 30
0.00000
  70
    32
  0
VERTEX
  8
0
  5
3071
 10
51.5559
 20
84.9981
 30
0.00000
  70
    32
  0
VERTEX
  8
0
  5
3072
 10
51.5381
 20
84.9943
 30
0.00000
  70
    32
  0
VERTEX
  8
0
  5
3073
 10
51.5203
 20
84.9899
 30
0.00000
  70
    32
  0
VERTEX
  8
0
  5
3074
 10
51.5025
 20
84.9850
 30
0.00000
  70
    32
  0
VERTEX
  8
0
  5
3075
 10
51.4847
 20
84.9796
 30
0.00000
  70
    32
  0
VERTEX
  8
0
  5
3076
 10
51.4668
 20
84.9736
 30
0.00000
  70
    32
  0
VERTEX
  8
0
  5
3077
 10
51.4490
 20
84.9671
 30
0.00000
  70
    32
  0
VERTEX
  8
0
  5
3078
 10
51.4312
 20
84.9601
 30
0.00000
  70
    32
  0
VERTEX
  8
0
  5
3079
 10
51.4134
 20
84.9525
 30
0.00000
  70
    32
  0
VERTEX
  8
0
  5
307A
 10
51.3956
 20
84.9444
 30
0.00000
  70
    32
  0
VERTEX
  8
0
  5
307B
 10
51.3778
 20
84.9358
 30
0.00000
  70
    32
  0
VERTEX
  8
0
  5
307C
 10
51.3600
 20
84.9266
 30
0.00000
  70
    32
  0
VERTEX
  8
0
  5
307D
 10
51.3422
 20
84.9169
 30
0.00000
  70
    32
  0
VERTEX
  8
0
  5
307E
 10
51.3244
 20
84.9067
 30
0.00000
  70
    32
  0
VERTEX
  8
0
  5
307F
 10
51.3067
 20
84.8960
 30
0.00000
  70
    32
  0
VERTEX
  8
0
  5
3080
 10
51.2889
 20
84.8847
 30
0.00000
  70
    32
  0
VERTEX
  8
0
  5
3081
 10
51.2711
 20
84.8728
 30
0.00000
  70
    32
  0
VERTEX
  8
0
  5
3082
 10
51.2533
 20
84.8605
 30
0.00000
  70
    32
  0
VERTEX
  8
0
  5
3083
 10
51.2356
 20
84.8476
 30
0.00000
  70
    32
  0
VERTEX
  8
0
  5
3084
 10
51.2178
 20
84.8342
 30
0.00000
  70
    32
  0
VERTEX
  8
0
  5
3085
 10
51.2001
 20
84.8202
 30
0.00000
  70
    32
  0
VERTEX
  8
0
  5
3086
 10
51.1823
 20
84.8057
 30
0.00000
  70
    32
  0
VERTEX
  8
0
  5
3087
 10
51.1646
 20
84.7907
 30
0.00000
  70
    32
  0
VERTEX
  8
0
  5
3088
 10
51.1468
 20
84.7752
 30
0.00000
  70
    32
  0
VERTEX
  8
0
  5
3089
 10
51.1291
 20
84.7591
 30
0.00000
  70
    32
  0
VERTEX
  8
0
  5
308A
 10
51.1114
 20
84.7425
 30
0.00000
  70
    32
  0
VERTEX
  8
0
  5
308B
 10
51.0936
 20
84.7253
 30
0.00000
  70
    32
  0
VERTEX
  8
0
  5
308C
 10
51.0759
 20
84.7077
 30
0.00000
  70
    32
  0
VERTEX
  8
0
  5
308D
 10
51.0582
 20
84.6895
 30
0.00000
  70
    32
  0
VERTEX
  8
0
  5
308E
 10
51.0405
 20
84.6707
 30
0.00000
  70
    32
  0
VERTEX
  8
0
  5
308F
 10
51.0228
 20
84.6515
 30
0.00000
  70
    32
  0
VERTEX
  8
0
  5
3090
 10
51.0052
 20
84.6317
 30
0.00000
  70
    32
  0
VERTEX
  8
0
  5
3091
 10
50.9875
 20
84.6114
 30
0.00000
  70
    32
  0
VERTEX
  8
0
  5
3092
 10
50.9698
 20
84.5905
 30
0.00000
  70
    32
  0
VERTEX
  8
0
  5
3093
 10
50.9522
 20
84.5691
 30
0.00000
  70
    32
  0
VERTEX
  8
0
  5
3094
 10
50.9345
 20
84.5472
 30
0.00000
  70
    32
  0
VERTEX
  8
0
  5
3095
 10
50.9169
 20
84.5248
 30
0.00000
  70
    32
  0
VERTEX
  8
0
  5
3096
 10
50.8993
 20
84.5018
 30
0.00000
  70
    32
  0
VERTEX
  8
0
  5
3097
 10
50.8816
 20
84.4784
 30
0.00000
  70
    32
  0
VERTEX
  8
0
  5
3098
 10
50.8640
 20
84.4543
 30
0.00000
  70
    32
  0
VERTEX
  8
0
  5
3099
 10
50.8464
 20
84.4298
 30
0.00000
  70
    32
  0
VERTEX
  8
0
  5
309A
 10
50.8288
 20
84.4047
 30
0.00000
  70
    32
  0
VERTEX
  8
0
  5
309B
 10
50.8112
 20
84.3791
 30
0.00000
  70
    32
  0
VERTEX
  8
0
  5
309C
 10
50.7937
 20
84.3530
 30
0.00000
  70
    32
  0
VERTEX
  8
0
  5
309D
 10
50.7761
 20
84.3264
 30
0.00000
  70
    32
  0
VERTEX
  8
0
  5
309E
 10
50.7586
 20
84.2992
 30
0.00000
  70
    32
  0
VERTEX
  8
0
  5
309F
 10
50.7410
 20
84.2715
 30
0.00000
  70
    32
  0
VERTEX
  8
0
  5
30A0
 10
50.7235
 20
84.2433
 30
0.00000
  70
    32
  0
VERTEX
  8
0
  5
30A1
 10
50.7060
 20
84.2145
 30
0.00000
  70
    32
  0
VERTEX
  8
0
  5
30A2
 10
50.6885
 20
84.1852
 30
0.00000
  70
    32
  0
VERTEX
  8
0
  5
30A3
 10
50.6710
 20
84.1554
 30
0.00000
  70
    32
  0
VERTEX
  8
0
  5
30A4
 10
50.6535
 20
84.1251
 30
0.00000
  70
    32
  0
VERTEX
  8
0
  5
30A5
 10
50.6360
 20
84.0943
 30
0.00000
  70
    32
  0
VERTEX
  8
0
  5
30A6
 10
50.6186
 20
84.0629
 30
0.00000
  70
    32
  0
VERTEX
  8
0
  5
30A7
 10
50.6011
 20
84.0310
 30
0.00000
  70
    32
  0
VERTEX
  8
0
  5
30A8
 10
50.5837
 20
83.9986
 30
0.00000
  70
    32
  0
VERTEX
  8
0
  5
30A9
 10
50.5663
 20
83.9656
 30
0.00000
  70
    32
  0
VERTEX
  8
0
  5
30AA
 10
50.5489
 20
83.9322
 30
0.00000
  70
    32
  0
VERTEX
  8
0
  5
30AB
 10
50.5315
 20
83.8982
 30
0.00000
  70
    32
  0
VERTEX
  8
0
  5
30AC
 10
50.5141
 20
83.8637
 30
0.00000
  70
    32
  0
VERTEX
  8
0
  5
30AD
 10
50.4967
 20
83.8287
 30
0.00000
  70
    32
  0
VERTEX
  8
0
  5
30AE
 10
50.4794
 20
83.7932
 30
0.00000
  70
    32
  0
VERTEX
  8
0
  5
30AF
 10
50.4620
 20
83.7571
 30
0.00000
  70
    32
  0
VERTEX
  8
0
  5
30B0
 10
50.4447
 20
83.7205
 30
0.00000
  70
    32
  0
VERTEX
  8
0
  5
30B1
 10
50.4274
 20
83.6834
 30
0.00000
  70
    32
  0
VERTEX
  8
0
  5
30B2
 10
50.4101
 20
83.6458
 30
0.00000
  70
    32
  0
VERTEX
  8
0
  5
30B3
 10
50.3928
 20
83.6077
 30
0.00000
  70
    32
  0
VERTEX
  8
0
  5
30B4
 10
50.3756
 20
83.5690
 30
0.00000
  70
    32
  0
VERTEX
  8
0
  5
30B5
 10
50.3583
 20
83.5299
 30
0.00000
  70
    32
  0
VERTEX
  8
0
  5
30B6
 10
50.3411
 20
83.4902
 30
0.00000
  70
    32
  0
VERTEX
  8
0
  5
30B7
 10
50.3239
 20
83.4500
 30
0.00000
  70
    32
  0
VERTEX
  8
0
  5
30B8
 10
50.3067
 20
83.4093
 30
0.00000
  70
    32
  0
VERTEX
  8
0
  5
30B9
 10
50.2895
 20
83.3681
 30
0.00000
  70
    32
  0
VERTEX
  8
0
  5
30BA
 10
50.2723
 20
83.3263
 30
0.00000
  70
    32
  0
VERTEX
  8
0
  5
30BB
 10
50.2551
 20
83.2841
 30
0.00000
  70
    32
  0
VERTEX
  8
0
  5
30BC
 10
50.2380
 20
83.2413
 30
0.00000
  70
    32
  0
VERTEX
  8
0
  5
30BD
 10
50.2209
 20
83.1980
 30
0.00000
  70
    32
  0
VERTEX
  8
0
  5
30BE
 10
50.2038
 20
83.1542
 30
0.00000
  70
    32
  0
VERTEX
  8
0
  5
30BF
 10
50.1867
 20
83.1099
 30
0.00000
  70
    32
  0
VERTEX
  8
0
  5
30C0
 10
50.1696
 20
83.0651
 30
0.00000
  70
    32
  0
VERTEX
  8
0
  5
30C1
 10
50.1526
 20
83.0198
 30
0.00000
  70
    32
  0
VERTEX
  8
0
  5
30C2
 10
50.1356
 20
82.9739
 30
0.00000
  70
    32
  0
VERTEX
  8
0
  5
30C3
 10
50.1186
 20
82.9276
 30
0.00000
  70
    32
  0
VERTEX
  8
0
  5
30C4
 10
50.1016
 20
82.8807
 30
0.00000
  70
    32
  0
VERTEX
  8
0
  5
30C5
 10
50.0846
 20
82.8334
 30
0.00000
  70
    32
  0
VERTEX
  8
0
  5
30C6
 10
50.0676
 20
82.7855
 30
0.00000
  70
    32
  0
VERTEX
  8
0
  5
30C7
 10
50.0507
 20
82.7371
 30
0.00000
  70
    32
  0
VERTEX
  8
0
  5
30C8
 10
50.0338
 20
82.6882
 30
0.00000
  70
    32
  0
VERTEX
  8
0
  5
30C9
 10
50.0169
 20
82.6388
 30
0.00000
  70
    32
  0
VERTEX
  8
0
  5
30CA
 10
50.0000
 20
82.5889
 30
0.00000
  70
    32
  0
SEQEND
  8
0
  5
30CB
  0
LINE
  5
2A1F
  8
0
 10
71.2321422855088144
 20
89.3975563501114436
 30
0.0
 11
71.5
 21
88.751831416457108
 31
0.0
  0
LINE
  5
2A20
  8
0
 10
71.5
 20
88.751831416457037
 30
0.0
 11
71.5
 21
82.5889373486109122
 31
0.0
  0
POLYLINE
  5
2A21
  8
0
 10
50.2678577144916048
 20
89.3975563501121542
 30
0.0
 66
     1
 70
     8
  0
VERTEX
  8
0
  5
30CC
 10
50.2679
 20
89.3976
 30
0.00000
  70
    32
  0
VERTEX
  8
0
  5
30CD
 10
50.2657
 20
89.3932
 30
0.00000
  70
    32
  0
VERTEX
  8
0
  5
30CE
 10
50.2636
 20
89.3888
 30
0.00000
  70
    32
  0
VERTEX
  8
0
  5
30CF
 10
50.2615
 20
89.3844
 30
0.00000
  70
    32
  0
VERTEX
  8
0
  5
30D0
 10
50.2594
 20
89.3800
 30
0.00000
  70
    32
  0
VERTEX
  8
0
  5
30D1
 10
50.2573
 20
89.3756
 30
0.00000
  70
    32
  0
VERTEX
  8
0
  5
30D2
 10
50.2552
 20
89.3712
 30
0.00000
  70
    32
  0
VERTEX
  8
0
  5
30D3
 10
50.2531
 20
89.3668
 30
0.00000
  70
    32
  0
VERTEX
  8
0
  5
30D4
 10
50.2510
 20
89.3623
 30
0.00000
  70
    32
  0
VERTEX
  8
0
  5
30D5
 10
50.2488
 20
89.3579
 30
0.00000
  70
    32
  0
VERTEX
  8
0
  5
30D6
 10
50.2467
 20
89.3534
 30
0.00000
  70
    32
  0
VERTEX
  8
0
  5
30D7
 10
50.2446
 20
89.3489
 30
0.00000
  70
    32
  0
VERTEX
  8
0
  5
30D8
 10
50.2425
 20
89.3444
 30
0.00000
  70
    32
  0
VERTEX
  8
0
  5
30D9
 10
50.2404
 20
89.3400
 30
0.00000
  70
    32
  0
VERTEX
  8
0
  5
30DA
 10
50.2383
 20
89.3354
 30
0.00000
  70
    32
  0
VERTEX
  8
0
  5
30DB
 10
50.2362
 20
89.3309
 30
0.00000
  70
    32
  0
VERTEX
  8
0
  5
30DC
 10
50.2341
 20
89.3264
 30
0.00000
  70
    32
  0
VERTEX
  8
0
  5
30DD
 10
50.2320
 20
89.3219
 30
0.00000
  70
    32
  0
VERTEX
  8
0
  5
30DE
 10
50.2299
 20
89.3173
 30
0.00000
  70
    32
  0
VERTEX
  8
0
  5
30DF
 10
50.2278
 20
89.3128
 30
0.00000
  70
    32
  0
VERTEX
  8
0
  5
30E0
 10
50.2256
 20
89.3082
 30
0.00000
  70
    32
  0
VERTEX
  8
0
  5
30E1
 10
50.2235
 20
89.3036
 30
0.00000
  70
    32
  0
VERTEX
  8
0
  5
30E2
 10
50.2214
 20
89.2990
 30
0.00000
  70
    32
  0
VERTEX
  8
0
  5
30E3
 10
50.2193
 20
89.2944
 30
0.00000
  70
    32
  0
VERTEX
  8
0
  5
30E4
 10
50.2172
 20
89.2898
 30
0.00000
  70
    32
  0
VERTEX
  8
0
  5
30E5
 10
50.2151
 20
89.2852
 30
0.00000
  70
    32
  0
VERTEX
  8
0
  5
30E6
 10
50.2130
 20
89.2805
 30
0.00000
  70
    32
  0
VERTEX
  8
0
  5
30E7
 10
50.2109
 20
89.2759
 30
0.00000
  70
    32
  0
VERTEX
  8
0
  5
30E8
 10
50.2088
 20
89.2712
 30
0.00000
  70
    32
  0
VERTEX
  8
0
  5
30E9
 10
50.2067
 20
89.2666
 30
0.00000
  70
    32
  0
VERTEX
  8
0
  5
30EA
 10
50.2046
 20
89.2619
 30
0.00000
  70
    32
  0
VERTEX
  8
0
  5
30EB
 10
50.2025
 20
89.2572
 30
0.00000
  70
    32
  0
VERTEX
  8
0
  5
30EC
 10
50.2004
 20
89.2525
 30
0.00000
  70
    32
  0
VERTEX
  8
0
  5
30ED
 10
50.1983
 20
89.2478
 30
0.00000
  70
    32
  0
VERTEX
  8
0
  5
30EE
 10
50.1962
 20
89.2431
 30
0.00000
  70
    32
  0
VERTEX
  8
0
  5
30EF
 10
50.1941
 20
89.2383
 30
0.00000
  70
    32
  0
VERTEX
  8
0
  5
30F0
 10
50.1920
 20
89.2336
 30
0.00000
  70
    32
  0
VERTEX
  8
0
  5
30F1
 10
50.1899
 20
89.2289
 30
0.00000
  70
    32
  0
VERTEX
  8
0
  5
30F2
 10
50.1878
 20
89.2241
 30
0.00000
  70
    32
  0
VERTEX
  8
0
  5
30F3
 10
50.1857
 20
89.2193
 30
0.00000
  70
    32
  0
VERTEX
  8
0
  5
30F4
 10
50.1836
 20
89.2145
 30
0.00000
  70
    32
  0
VERTEX
  8
0
  5
30F5
 10
50.1815
 20
89.2097
 30
0.00000
  70
    32
  0
VERTEX
  8
0
  5
30F6
 10
50.1794
 20
89.2049
 30
0.00000
  70
    32
  0
VERTEX
  8
0
  5
30F7
 10
50.1773
 20
89.2001
 30
0.00000
  70
    32
  0
VERTEX
  8
0
  5
30F8
 10
50.1752
 20
89.1953
 30
0.00000
  70
    32
  0
VERTEX
  8
0
  5
30F9
 10
50.1731
 20
89.1904
 30
0.00000
  70
    32
  0
VERTEX
  8
0
  5
30FA
 10
50.1710
 20
89.1856
 30
0.00000
  70
    32
  0
VERTEX
  8
0
  5
30FB
 10
50.1689
 20
89.1807
 30
0.00000
  70
    32
  0
VERTEX
  8
0
  5
30FC
 10
50.1668
 20
89.1759
 30
0.00000
  70
    32
  0
VERTEX
  8
0
  5
30FD
 10
50.1647
 20
89.1710
 30
0.00000
  70
    32
  0
VERTEX
  8
0
  5
30FE
 10
50.1626
 20
89.1661
 30
0.00000
  70
    32
  0
VERTEX
  8
0
  5
30FF
 10
50.1605
 20
89.1612
 30
0.00000
  70
    32
  0
VERTEX
  8
0
  5
3100
 10
50.1584
 20
89.1563
 30
0.00000
  70
    32
  0
VERTEX
  8
0
  5
3101
 10
50.1563
 20
89.1514
 30
0.00000
  70
    32
  0
VERTEX
  8
0
  5
3102
 10
50.1542
 20
89.1464
 30
0.00000
  70
    32
  0
VERTEX
  8
0
  5
3103
 10
50.1521
 20
89.1415
 30
0.00000
  70
    32
  0
VERTEX
  8
0
  5
3104
 10
50.1500
 20
89.1365
 30
0.00000
  70
    32
  0
VERTEX
  8
0
  5
3105
 10
50.1479
 20
89.1316
 30
0.00000
  70
    32
  0
VERTEX
  8
0
  5
3106
 10
50.1458
 20
89.1266
 30
0.00000
  70
    32
  0
VERTEX
  8
0
  5
3107
 10
50.1437
 20
89.1216
 30
0.00000
  70
    32
  0
VERTEX
  8
0
  5
3108
 10
50.1416
 20
89.1166
 30
0.00000
  70
    32
  0
VERTEX
  8
0
  5
3109
 10
50.1395
 20
89.1116
 30
0.00000
  70
    32
  0
VERTEX
  8
0
  5
310A
 10
50.1374
 20
89.1066
 30
0.00000
  70
    32
  0
VERTEX
  8
0
  5
310B
 10
50.1353
 20
89.1015
 30
0.00000
  70
    32
  0
VERTEX
  8
0
  5
310C
 10
50.1332
 20
89.0965
 30
0.00000
  70
    32
  0
VERTEX
  8
0
  5
310D
 10
50.1311
 20
89.0914
 30
0.00000
  70
    32
  0
VERTEX
  8
0
  5
310E
 10
50.1290
 20
89.0864
 30
0.00000
  70
    32
  0
VERTEX
  8
0
  5
310F
 10
50.1270
 20
89.0813
 30
0.00000
  70
    32
  0
VERTEX
  8
0
  5
3110
 10
50.1249
 20
89.0762
 30
0.00000
  70
    32
  0
VERTEX
  8
0
  5
3111
 10
50.1228
 20
89.0711
 30
0.00000
  70
    32
  0
VERTEX
  8
0
  5
3112
 10
50.1207
 20
89.0660
 30
0.00000
  70
    32
  0
VERTEX
  8
0
  5
3113
 10
50.1186
 20
89.0609
 30
0.00000
  70
    32
  0
VERTEX
  8
0
  5
3114
 10
50.1165
 20
89.0558
 30
0.00000
  70
    32
  0
VERTEX
  8
0
  5
3115
 10
50.1144
 20
89.0507
 30
0.00000
  70
    32
  0
VERTEX
  8
0
  5
3116
 10
50.1123
 20
89.0455
 30
0.00000
  70
    32
  0
VERTEX
  8
0
  5
3117
 10
50.1102
 20
89.0403
 30
0.00000
  70
    32
  0
VERTEX
  8
0
  5
3118
 10
50.1081
 20
89.0352
 30
0.00000
  70
    32
  0
VERTEX
  8
0
  5
3119
 10
50.1061
 20
89.0300
 30
0.00000
  70
    32
  0
VERTEX
  8
0
  5
311A
 10
50.1040
 20
89.0248
 30
0.00000
  70
    32
  0
VERTEX
  8
0
  5
311B
 10
50.1019
 20
89.0196
 30
0.00000
  70
    32
  0
VERTEX
  8
0
  5
311C
 10
50.0998
 20
89.0144
 30
0.00000
  70
    32
  0
VERTEX
  8
0
  5
311D
 10
50.0977
 20
89.0092
 30
0.00000
  70
    32
  0
VERTEX
  8
0
  5
311E
 10
50.0956
 20
89.0039
 30
0.00000
  70
    32
  0
VERTEX
  8
0
  5
311F
 10
50.0935
 20
88.9987
 30
0.00000
  70
    32
  0
VERTEX
  8
0
  5
3120
 10
50.0914
 20
88.9935
 30
0.00000
  70
    32
  0
VERTEX
  8
0
  5
3121
 10
50.0894
 20
88.9882
 30
0.00000
  70
    32
  0
VERTEX
  8
0
  5
3122
 10
50.0873
 20
88.9829
 30
0.00000
  70
    32
  0
VERTEX
  8
0
  5
3123
 10
50.0852
 20
88.9776
 30
0.00000
  70
    32
  0
VERTEX
  8
0
  5
3124
 10
50.0831
 20
88.9723
 30
0.00000
  70
    32
  0
VERTEX
  8
0
  5
3125
 10
50.0810
 20
88.9670
 30
0.00000
  70
    32
  0
VERTEX
  8
0
  5
3126
 10
50.0789
 20
88.9617
 30
0.00000
  70
    32
  0
VERTEX
  8
0
  5
3127
 10
50.0768
 20
88.9564
 30
0.00000
  70
    32
  0
VERTEX
  8
0
  5
3128
 10
50.0748
 20
88.9510
 30
0.00000
  70
    32
  0
VERTEX
  8
0
  5
3129
 10
50.0727
 20
88.9457
 30
0.00000
  70
    32
  0
VERTEX
  8
0
  5
312A
 10
50.0706
 20
88.9403
 30
0.00000
  70
    32
  0
VERTEX
  8
0
  5
312B
 10
50.0685
 20
88.9350
 30
0.00000
  70
    32
  0
VERTEX
  8
0
  5
312C
 10
50.0664
 20
88.9296
 30
0.00000
  70
    32
  0
VERTEX
  8
0
  5
312D
 10
50.0643
 20
88.9242
 30
0.00000
  70
    32
  0
VERTEX
  8
0
  5
312E
 10
50.0623
 20
88.9188
 30
0.00000
  70
    32
  0
VERTEX
  8
0
  5
312F
 10
50.0602
 20
88.9134
 30
0.00000
  70
    32
  0
VERTEX
  8
0
  5
3130
 10
50.0581
 20
88.9080
 30
0.00000
  70
    32
  0
VERTEX
  8
0
  5
3131
 10
50.0560
 20
88.9025
 30
0.00000
  70
    32
  0
VERTEX
  8
0
  5
3132
 10
50.0539
 20
88.8971
 30
0.00000
  70
    32
  0
VERTEX
  8
0
  5
3133
 10
50.0519
 20
88.8916
 30
0.00000
  70
    32
  0
VERTEX
  8
0
  5
3134
 10
50.0498
 20
88.8862
 30
0.00000
  70
    32
  0
VERTEX
  8
0
  5
3135
 10
50.0477
 20
88.8807
 30
0.00000
  70
    32
  0
VERTEX
  8
0
  5
3136
 10
50.0456
 20
88.8752
 30
0.00000
  70
    32
  0
VERTEX
  8
0
  5
3137
 10
50.0436
 20
88.8697
 30
0.00000
  70
    32
  0
VERTEX
  8
0
  5
3138
 10
50.0415
 20
88.8642
 30
0.00000
  70
    32
  0
VERTEX
  8
0
  5
3139
 10
50.0394
 20
88.8587
 30
0.00000
  70
    32
  0
VERTEX
  8
0
  5
313A
 10
50.0373
 20
88.8531
 30
0.00000
  70
    32
  0
VERTEX
  8
0
  5
313B
 10
50.0352
 20
88.8476
 30
0.00000
  70
    32
  0
VERTEX
  8
0
  5
313C
 10
50.0332
 20
88.8421
 30
0.00000
  70
    32
  0
VERTEX
  8
0
  5
313D
 10
50.0311
 20
88.8365
 30
0.00000
  70
    32
  0
VERTEX
  8
0
  5
313E
 10
50.0290
 20
88.8309
 30
0.00000
  70
    32
  0
VERTEX
  8
0
  5
313F
 10
50.0269
 20
88.8253
 30
0.00000
  70
    32
  0
VERTEX
  8
0
  5
3140
 10
50.0249
 20
88.8198
 30
0.00000
  70
    32
  0
VERTEX
  8
0
  5
3141
 10
50.0228
 20
88.8142
 30
0.00000
  70
    32
  0
VERTEX
  8
0
  5
3142
 10
50.0207
 20
88.8085
 30
0.00000
  70
    32
  0
VERTEX
  8
0
  5
3143
 10
50.0186
 20
88.8029
 30
0.00000
  70
    32
  0
VERTEX
  8
0
  5
3144
 10
50.0166
 20
88.7973
 30
0.00000
  70
    32
  0
VERTEX
  8
0
  5
3145
 10
50.0145
 20
88.7916
 30
0.00000
  70
    32
  0
VERTEX
  8
0
  5
3146
 10
50.0124
 20
88.7860
 30
0.00000
  70
    32
  0
VERTEX
  8
0
  5
3147
 10
50.0104
 20
88.7803
 30
0.00000
  70
    32
  0
VERTEX
  8
0
  5
3148
 10
50.0083
 20
88.7746
 30
0.00000
  70
    32
  0
VERTEX
  8
0
  5
3149
 10
50.0062
 20
88.7690
 30
0.00000
  70
    32
  0
VERTEX
  8
0
  5
314A
 10
50.0041
 20
88.7633
 30
0.00000
  70
    32
  0
VERTEX
  8
0
  5
314B
 10
50.0021
 20
88.7575
 30
0.00000
  70
    32
  0
VERTEX
  8
0
  5
314C
 10
50.0000
 20
88.7518
 30
0.00000
  70
    32
  0
SEQEND
  8
0
  5
314D
  0
LINE
  5
2A22
  8
0
 10
50.0
 20
82.5889373486109122
 30
0.0
 11
50.0
 21
88.751831416457037
 31
0.0
  0
LINE
  5
2A2B
  8
1
 10
105.7499999999999005
 20
142.0500000000000114
 30
0.0
 11
195.1999999999999034
 21
142.0500000000000114
 31
0.0
  0
LINE
  5
2A2C
  8
1
 10
119.7999999999999972
 20
128.0
 30
0.0
 11
119.7999999999999972
 21
156.0999999999999943
 31
0.0
  0
LINE
  5
2A2D
  8
1
 10
106.1024637251803
 20
84.7000000000000171
 30
0.0
 11
133.4975362748195948
 21
84.7000000000000171
 31
0.0
  0
LINE
  5
2A2E
  8
1
 10
106.0499999999998977
 20
83.5000000000000284
 30
0.0
 11
133.5500000000000114
 21
83.5000000000000284
 31
0.0
  0
LINE
  5
2A31
  8
1
 10
45.0
 20
84.7000000000000455
 30
0.0
 11
76.5
 21
84.7000000000000455
 31
0.0
  0
ARC
  5
2A38
  8
3
 10
119.7999999999999972
 20
142.0500000000000114
 30
0.0
 40
2.458499999999999
 50
278.1846193225862862
 51
81.8153806774137138
  0
ENDSEC
  0
EOF
