  0
SECTION
  2
HEADER
  9
$ACADVER
  1
AC1009
  9
$INSBASE
 10
0.0
 20
0.0
 30
0.0
  9
$EXTMIN
 10
0.0
 20
-2.960436562073669
 30
0.0
  9
$EXTMAX
 10
251.15000000000001
 20
192.05000000000001
 30
0.0
  9
$LIMMIN
 10
0.0
 20
0.0
  9
$LIMMAX
 10
375.0
 20
270.0
  9
$ORTHOMODE
 70
     1
  9
$REGENMODE
 70
     1
  9
$FILLMODE
 70
     1
  9
$QTEXTMODE
 70
     0
  9
$MIRRTEXT
 70
     0
  9
$DRAGMODE
 70
     2
  9
$LTSCALE
 40
5.0
  9
$OSMODE
 70
    37
  9
$ATTMODE
 70
     1
  9
$TEXTSIZE
 40
0.2
  9
$TRACEWID
 40
0.05
  9
$TEXTSTYLE
  7
STANDARD
  9
$CLAYER
  8
0
  9
$CELTYPE
  6
BYLAYER
  9
$CECOLOR
 62
   256
  9
$DIMSCALE
 40
1.0
  9
$DIMASZ
 40
3.0
  9
$DIMEXO
 40
2.0
  9
$DIMDLI
 40
10.0
  9
$DIMRND
 40
0.0
  9
$DIMDLE
 40
0.0
  9
$DIMEXE
 40
2.0
  9
$DIMTP
 40
0.0
  9
$DIMTM
 40
0.0
  9
$DIMTXT
 40
3.2000000000000002
  9
$DIMCEN
 40
0.0
  9
$DIMTSZ
 40
0.0
  9
$DIMTOL
 70
     0
  9
$DIMLIM
 70
     0
  9
$DIMTIH
 70
     0
  9
$DIMTOH
 70
     0
  9
$DIMSE1
 70
     0
  9
$DIMSE2
 70
     0
  9
$DIMTAD
 70
     1
  9
$DIMZIN
 70
     8
  9
$DIMBLK
  1

  9
$DIMASO
 70
     0
  9
$DIMSHO
 70
     0
  9
$DIMPOST
  1

  9
$DIMAPOST
  1

  9
$DIMALT
 70
     0
  9
$DIMALTD
 70
     2
  9
$DIMALTF
 40
25.399999999999999
  9
$DIMLFAC
 40
1.0
  9
$DIMTOFL
 70
     1
  9
$DIMTVP
 40
1.6000000000000001
  9
$DIMTIX
 70
     0
  9
$DIMSOXD
 70
     0
  9
$DIMSAH
 70
     0
  9
$DIMBLK1
  1

  9
$DIMBLK2
  1

  9
$DIMSTYLE
  2
STANDARD
  9
$DIMCLRD
 70
   256
  9
$DIMCLRE
 70
   256
  9
$DIMCLRT
 70
   256
  9
$DIMTFAC
 40
1.0
  9
$DIMGAP
 40
0.5
  9
$LUNITS
 70
     2
  9
$LUPREC
 70
     1
  9
$SKETCHINC
 40
0.1
  9
$FILLETRAD
 40
0.0
  9
$AUNITS
 70
     0
  9
$AUPREC
 70
     1
  9
$MENU
  1
E:\r13\win\SUPPORT\ACAD
  9
$ELEVATION
 40
0.0
  9
$PELEVATION
 40
0.0
  9
$THICKNESS
 40
0.0
  9
$LIMCHECK
 70
     0
  9
$BLIPMODE
 70
     0
  9
$CHAMFERA
 40
0.0
  9
$CHAMFERB
 40
0.0
  9
$SKPOLY
 70
     0
  9
$TDCREATE
 40
2449840.6171180559
  9
$TDUPDATE
 40
2457711.622372454
  9
$TDINDWG
 40
0.2656737731
  9
$TDUSRTIMER
 40
0.2656737731
  9
$USRTIMER
 70
     1
  9
$ANGBASE
 50
0.0
  9
$ANGDIR
 70
     0
  9
$PDMODE
 70
     0
  9
$PDSIZE
 40
0.0
  9
$PLINEWID
 40
0.0
  9
$COORDS
 70
     1
  9
$SPLFRAME
 70
     0
  9
$SPLINETYPE
 70
     6
  9
$SPLINESEGS
 70
     8
  9
$ATTDIA
 70
     0
  9
$ATTREQ
 70
     1
  9
$HANDLING
 70
     1
  9
$HANDSEED
  5
242A
  9
$SURFTAB1
 70
     6
  9
$SURFTAB2
 70
     6
  9
$SURFTYPE
 70
     6
  9
$SURFU
 70
     6
  9
$SURFV
 70
     6
  9
$UCSNAME
  2

  9
$UCSORG
 10
0.0
 20
0.0
 30
0.0
  9
$UCSXDIR
 10
1.0
 20
0.0
 30
0.0
  9
$UCSYDIR
 10
0.0
 20
1.0
 30
0.0
  9
$PUCSNAME
  2

  9
$PUCSORG
 10
0.0
 20
0.0
 30
0.0
  9
$PUCSXDIR
 10
1.0
 20
0.0
 30
0.0
  9
$PUCSYDIR
 10
0.0
 20
1.0
 30
0.0
  9
$USERI1
 70
     0
  9
$USERI2
 70
     1
  9
$USERI3
 70
     0
  9
$USERI4
 70
     0
  9
$USERI5
 70
     0
  9
$USERR1
 40
0.0
  9
$USERR2
 40
0.0
  9
$USERR3
 40
0.0
  9
$USERR4
 40
0.0
  9
$USERR5
 40
0.0
  9
$WORLDVIEW
 70
     1
  9
$SHADEDGE
 70
     3
  9
$SHADEDIF
 70
    70
  9
$TILEMODE
 70
     1
  9
$MAXACTVP
 70
    16
  9
$PLIMCHECK
 70
     0
  9
$PEXTMIN
 10
1.0000000000000000E+020
 20
1.0000000000000000E+020
 30
1.0000000000000000E+020
  9
$PEXTMAX
 10
-1.0000000000000000E+020
 20
-1.0000000000000000E+020
 30
-1.0000000000000000E+020
  9
$PLIMMIN
 10
0.0
 20
0.0
  9
$PLIMMAX
 10
12.0
 20
9.0
  9
$UNITMODE
 70
     0
  9
$VISRETAIN
 70
     0
  9
$PLINEGEN
 70
     0
  9
$PSLTSCALE
 70
     0
  0
ENDSEC
  0
SECTION
  2
TABLES
  0
TABLE
  2
VPORT
 70
     1
  0
VPORT
  2
*ACTIVE
 70
     0
 10
0.0
 20
0.0
 11
1.0
 21
1.0
 12
245.20105052163271
 22
135.0
 13
0.0
 23
0.0
 14
10.0
 24
10.0
 15
10.0
 25
10.0
 16
0.0
 26
0.0
 36
1.0
 17
0.0
 27
0.0
 37
0.0
 40
270.09627397939141
 41
1.816239316239316
 42
50.0
 43
0.0
 44
0.0
 50
0.0
 51
0.0
 71
     0
 72
   100
 73
     1
 74
     0
 75
     0
 76
     0
 77
     0
 78
     0
  0
ENDTAB
  0
TABLE
  2
LTYPE
 70
     3
  0
LTYPE
  2
CONTINUOUS
 70
     0
  3
Solid Line
 72
    65
 73
     0
 40
0.0
  0
LTYPE
  2
CENTER
 70
     0
  3
____ _ ____ _ ____ _ ____ _ ____ _ ____ _ ____
 72
    65
 73
     4
 40
2.0
 49
1.25
 49
-0.25
 49
0.25
 49
-0.25
  0
LTYPE
  2
PHANTOM2
 70
     0
  3
___ _ _ ___ _ _ ___ _ _ ___ _ _
 72
    65
 73
     6
 40
1.25
 49
0.625
 49
-0.125
 49
0.125
 49
-0.125
 49
0.125
 49
-0.125
  0
ENDTAB
  0
TABLE
  2
LAYER
 70
     4
  0
LAYER
  2
0
 70
     0
 62
     7
  6
CONTINUOUS
  0
LAYER
  2
1
 70
     0
 62
     1
  6
CENTER
  0
LAYER
  2
3
 70
     0
 62
     3
  6
CONTINUOUS
  0
LAYER
  2
DEFPOINTS
 70
     0
 62
     7
  6
CONTINUOUS
  0
ENDTAB
  0
TABLE
  2
STYLE
 70
     2
  0
STYLE
  2
STANDARD
 70
     0
 40
0.0
 41
1.0
 50
0.0
 71
     0
 42
0.2
  3
TXT
  4
BIGFONT
  0
STYLE
  2
STANDARD1
 70
     0
 40
0.0
 41
1.0
 50
0.0
 71
     0
 42
3.0
  3
txt
  4

  0
ENDTAB
  0
TABLE
  2
VIEW
 70
     1
  0
VIEW
  2
ALL
 70
     0
 40
270.0
 10
220.99159700000001
 20
135.0
 41
0.0
 11
0.0
 21
0.0
 31
1.0
 12
0.0
 22
0.0
 32
0.0
 42
0.0
 43
0.0
 44
0.0
 50
0.0
 71
     0
  0
ENDTAB
  0
TABLE
  2
UCS
 70
     0
  0
ENDTAB
  0
TABLE
  2
APPID
 70
     6
  0
APPID
  2
ACAD
 70
     0
  0
APPID
  2
ACAD_EXEMPT_FROM_CAD_STANDARDS
 70
     0
  0
APPID
  2
ACAD_MLEADERVER
 70
     0
  0
APPID
  2
ACAD_NAV_VCDISPLAY
 70
     0
  0
APPID
  2
ACAD_DSTYLE_DIMJAG
 70
     0
  0
APPID
  2
ACAD_DSTYLE_DIMTALN
 70
     0
  0
ENDTAB
  0
TABLE
  2
DIMSTYLE
 70
     1
  0
DIMSTYLE
  2
STANDARD
 70
     0
  3

  4

  5

  6

  7

 40
1.0
 41
0.18
 42
0.0625
 43
0.38
 44
0.18
 45
0.0
 46
0.0
 47
0.0
 48
0.0
140
0.18
141
0.09
142
0.0
143
25.399999999999999
144
1.0
145
0.0
146
1.0
147
0.09
 71
     0
 72
     0
 73
     1
 74
     1
 75
     0
 76
     0
 77
     0
 78
     0
170
     0
171
     2
172
     0
173
     0
174
     0
175
     0
176
     0
177
     0
178
     0
  0
ENDTAB
  0
ENDSEC
  0
SECTION
  2
BLOCKS
  0
BLOCK
  8
0
  2
$MODEL_SPACE
 70
     0
 10
0.0
 20
0.0
 30
0.0
  3
$MODEL_SPACE
  1

  0
ENDBLK
  5
E8
  8
0
  0
BLOCK
 67
     1
  8
0
  2
$PAPER_SPACE
 70
     0
 10
0.0
 20
0.0
 30
0.0
  3
$PAPER_SPACE
  1

  0
ENDBLK
  5
E6
 67
     1
  8
0
  0
ENDSEC
  0
SECTION
  2
ENTITIES
  0
TEXT
  5
110F
  8
0
 62
     3
 10
0.0
 20
0.0
 30
0.0
 40
10.0
  1
KCLF08X50
  7
STANDARD1
  0
LINE
  5
15C8
  8
1
 10
150.15000000000001
 20
108.5
 30
0.0
 11
150.15000000000001
 21
20.0
 31
0.0
  0
LINE
  5
15C9
  8
1
 10
133.21630577812391
 20
93.0
 30
0.0
 11
167.0836942218761
 21
93.0
 31
0.0
  0
LINE
  5
15CA
  8
1
 10
133.15000000000001
 20
91.5
 30
0.0
 11
167.15000000000001
 21
91.5
 31
0.0
  0
ARC
  5
15CC
  8
0
 10
137.34999999999999
 20
80.399999999999963
 30
0.0
 40
0.100000000000005
 50
0.0
 51
90.0
  0
ARC
  5
15CE
  8
0
 10
162.94999999999999
 20
80.399999999999963
 30
0.0
 40
0.1000000000000068
 50
90.0
 51
180.0
  0
LINE
  5
15D0
  8
0
 10
141.67946282695129
 20
83.0
 30
0.0
 11
136.64363766232049
 21
83.0
 31
0.0
  0
LINE
  5
15D1
  8
0
 10
136.64363766232049
 20
83.0
 30
0.0
 11
136.60532790934471
 21
80.805235721931183
 31
0.0
  0
LINE
  5
15D3
  8
0
 10
163.6946720906553
 20
80.805235721931183
 30
0.0
 11
163.6563623376795
 21
83.0
 31
0.0
  0
LINE
  5
15D4
  8
0
 10
163.6563623376795
 20
83.0
 30
0.0
 11
159.3008310793509
 21
82.999999999999943
 31
0.0
  0
LINE
  5
15D6
  8
0
 10
145.35416847668731
 20
80.5
 30
0.0
 11
136.90528221789171
 21
80.5
 31
0.0
  0
ARC
  5
15D8
  8
0
 10
136.90528221789171
 20
80.800000000000011
 30
0.0
 40
0.2999999999999965
 50
178.99999999999821
 51
270.0
  0
LINE
  5
15DB
  8
0
 10
137.44999999999999
 20
80.399999999999963
 30
0.0
 11
137.44999999999999
 21
79.0
 31
0.0
  0
LINE
  5
15DC
  8
0
 10
162.84999999999999
 20
79.0
 30
0.0
 11
162.84999999999999
 21
80.399999999999963
 31
0.0
  0
LINE
  5
15DF
  8
0
 10
163.39471778210839
 20
80.5
 30
0.0
 11
155.43053574913171
 21
80.499999999999943
 31
0.0
  0
ARC
  5
15E0
  8
0
 10
163.39471778210839
 20
80.800000000000011
 30
0.0
 40
0.2999999999999972
 50
270.0
 51
1.0000000000017759
  0
LINE
  5
15E2
  8
0
 10
136.59999999999999
 20
79.0
 30
0.0
 11
136.59999999999999
 21
77.0
 31
0.0
  0
LINE
  5
15E3
  8
0
 10
163.69999999999999
 20
77.0
 30
0.0
 11
163.69999999999999
 21
79.0
 31
0.0
  0
LINE
  5
15E4
  8
0
 10
163.69999999999999
 20
79.0
 30
0.0
 11
136.59999999999999
 21
79.0
 31
0.0
  0
LINE
  5
15E5
  8
0
 10
161.69999999999999
 20
75.0
 30
0.0
 11
138.59999999999999
 21
75.0
 31
0.0
  0
ARC
  5
15E6
  8
0
 10
138.59999999999999
 20
77.0
 30
0.0
 40
2.0000000000000062
 50
180.0
 51
270.0
  0
ARC
  5
15E7
  8
0
 10
161.69999999999999
 20
77.0
 30
0.0
 40
2.0000000000000111
 50
270.0
 51
0.0
  0
LINE
  5
15EB
  8
0
 10
153.38300000000001
 20
25.0
 30
0.0
 11
154.15000000000001
 21
25.766999999999999
 31
0.0
  0
LINE
  5
15EC
  8
0
 10
146.15000000000001
 20
25.766999999999999
 30
0.0
 11
146.917
 21
25.0
 31
0.0
  0
LINE
  5
15ED
  8
0
 10
153.38300000000001
 20
25.0
 30
0.0
 11
146.917
 21
25.0
 31
0.0
  0
LINE
  5
15EE
  8
0
 10
146.15000000000001
 20
75.0
 30
0.0
 11
146.15000000000001
 21
25.766999999999999
 31
0.0
  0
LINE
  5
15EF
  8
0
 10
154.15000000000001
 20
25.766999999999999
 30
0.0
 11
154.15000000000001
 21
75.0
 31
0.0
  0
LINE
  5
15F0
  8
0
 10
154.15000000000001
 20
25.766999999999999
 30
0.0
 11
146.15000000000001
 21
25.766999999999999
 31
0.0
  0
LINE
  5
15F4
  8
3
 10
153.47349999999969
 20
25.090499999999739
 30
0.0
 11
153.47349999999969
 21
75.0
 31
0.0
  0
LINE
  5
15F6
  8
3
 10
146.82650000000029
 20
25.090499999999739
 30
0.0
 11
146.82650000000029
 21
75.0
 31
0.0
  0
CIRCLE
  5
15F7
  8
0
 10
150.15000000000001
 20
93.0
 30
0.0
 40
5.5
  0
ARC
  5
15F9
  8
0
 10
181.28999999999959
 20
171.58999999999651
 30
0.0
 40
74.879999999996514
 50
256.0455571336779
 51
270.0
  0
ARC
  5
15FA
  8
0
 10
183.86000000000001
 20
153.56999999999871
 30
0.0
 40
65.099999999998687
 50
259.98163024899281
 51
267.73750494314038
  0
ARC
  5
15FC
  8
0
 10
150.42362923304049
 20
92.497119951851801
 30
0.0
 40
12.999999999999931
 50
268.79392630216671
 51
323.69481208295957
  0
ARC
  5
15FD
  8
0
 10
168.97177992310631
 20
78.879994183031727
 30
0.0
 40
10.01000000000001
 50
119.69644235781919
 51
143.7429287487995
  0
ARC
  5
15FE
  8
0
 10
150.15000000000001
 20
91.5
 30
0.0
 40
12.0
 50
58.900562283865632
 51
270.0
  0
ARC
  5
1600
  8
0
 10
169.2614222505072
 20
123.1820696855941
 30
0.0
 40
25.000000000000291
 50
238.90056228386561
 51
256.0455571336779
  0
ARC
  5
1602
  8
0
 10
171.59999999999999
 20
73.499999999999943
 30
0.0
 40
15.99000000000003
 50
86.647953290491756
 51
118.3266634737125
  0
LINE
  5
1603
  8
0
 10
200.0393047951161
 20
99.095324542420144
 30
0.0
 11
203.65000000000001
 21
100.1568040067082
 31
0.0
  0
POLYLINE
  5
1604
  8
0
 66
     1
 10
0.0
 20
0.0
 30
0.0
  0
VERTEX
  5
2243
  8
0
 10
194.07037632586849
 20
89.275690646184387
 30
0.0
  0
VERTEX
  5
2244
  8
0
 10
199.4228066549274
 20
90.315118724893225
 30
0.0
  0
VERTEX
  5
2245
  8
0
 10
203.65000000000001
 20
90.799678971885555
 30
0.0
  0
SEQEND
  5
2246
  8
0
  0
POLYLINE
  5
1605
  8
0
 66
     1
 10
0.0
 20
0.0
 30
0.0
  0
VERTEX
  5
2247
  8
0
 10
200.0393047951161
 20
99.095324542420087
 30
0.0
  0
VERTEX
  5
2248
  8
0
 10
193.64963074504499
 20
97.737079083856543
 30
0.0
  0
VERTEX
  5
2249
  8
0
 10
187.165892442055
 20
96.940898947077756
 30
0.0
  0
VERTEX
  5
224A
  8
0
 10
181.28999999999991
 20
96.709999999999994
 30
0.0
  0
SEQEND
  5
224B
  8
0
  0
POLYLINE
  5
1607
  8
0
 66
     1
 10
0.0
 20
0.0
 30
0.0
  0
VERTEX
  5
224C
  8
0
 10
194.07037632586849
 20
89.27569064618433
 30
0.0
  0
VERTEX
  5
224D
  8
0
 10
188.4279044751722
 20
88.630456971844126
 30
0.0
  0
VERTEX
  5
224E
  8
0
 10
182.75066811324371
 20
88.479452431516407
 30
0.0
  0
VERTEX
  5
224F
  8
0
 10
181.28999999999999
 20
88.520748659188996
 30
0.0
  0
SEQEND
  5
2250
  8
0
  0
POLYLINE
  5
1609
  8
0
 66
     1
 10
0.0
 20
0.0
 30
0.0
  0
VERTEX
  5
2251
  8
0
 10
203.65000000000001
 20
90.799678971885498
 30
0.0
  0
VERTEX
  5
2252
  8
0
 10
209.0988013032767
 20
90.998388598348456
 30
0.0
  0
VERTEX
  5
2253
  8
0
 10
214.5441869576417
 20
90.721447750019138
 30
0.0
  0
VERTEX
  5
2254
  8
0
 10
219.94471429025171
 20
89.970964113974844
 30
0.0
  0
VERTEX
  5
2255
  8
0
 10
225.25928202717799
 20
88.752649323840217
 30
0.0
  0
VERTEX
  5
2256
  8
0
 10
229.47825484764539
 20
87.427360368520965
 30
0.0
  0
SEQEND
  5
2257
  8
0
  0
POLYLINE
  5
160A
  8
0
 66
     1
 10
0.0
 20
0.0
 30
0.0
  0
VERTEX
  5
2258
  8
0
 10
203.65000000000001
 20
100.1568040067082
 30
0.0
  0
VERTEX
  5
2259
  8
0
 10
207.49543325350879
 20
100.9380976637993
 30
0.0
  0
VERTEX
  5
225A
  8
0
 10
211.3943277015079
 20
101.3812666712501
 30
0.0
  0
VERTEX
  5
225B
  8
0
 10
215.31701040303091
 20
101.48293824532099
 30
0.0
  0
VERTEX
  5
225C
  8
0
 10
219.2336273741389
 20
101.2423386039425
 30
0.0
  0
VERTEX
  5
225D
  8
0
 10
223.11437079476369
 20
100.6612988556635
 30
0.0
  0
VERTEX
  5
225E
  8
0
 10
226.92970586421731
 20
99.744241063809739
 30
0.0
  0
VERTEX
  5
225F
  8
0
 10
229.47825484764539
 20
98.929936491146364
 30
0.0
  0
SEQEND
  5
2260
  8
0
  0
ARC
  5
160B
  8
0
 10
214.5200000000583
 20
56.510000000160908
 30
0.0
 40
44.979999999828827
 50
69.698484862233897
 51
70.576166106149856
  0
ARC
  5
160D
  8
0
 10
208.65000000025651
 20
28.50000000071395
 30
0.0
 40
62.499999999241382
 50
69.902391378813547
 51
70.533717313296748
  0
POLYLINE
  5
160F
  8
0
 66
     1
 10
0.0
 20
0.0
 30
0.0
  0
VERTEX
  5
2261
  8
0
 10
230.12628118136911
 20
87.194287171911114
 30
0.0
  0
VERTEX
  5
2262
  8
0
 10
231.61499144791179
 20
86.627880693575605
 30
0.0
  0
VERTEX
  5
2263
  8
0
 10
233.07498364403139
 20
86.029732956001055
 30
0.0
  0
VERTEX
  5
2264
  8
0
 10
234.5385786080536
 20
85.386058049304026
 30
0.0
  0
VERTEX
  5
2265
  8
0
 10
235.95238871697671
 20
84.721255503120048
 30
0.0
  0
VERTEX
  5
2266
  8
0
 10
237.05644620386011
 20
84.171545565244926
 30
0.0
  0
VERTEX
  5
2267
  8
0
 10
238.11836708392511
 20
83.616833557517054
 30
0.0
  0
VERTEX
  5
2268
  8
0
 10
239.15244885397831
 20
83.051333250828634
 30
0.0
  0
VERTEX
  5
2269
  8
0
 10
240.13496240601509
 20
82.490250437387488
 30
0.0
  0
SEQEND
  5
226A
  8
0
  0
POLYLINE
  5
1610
  8
0
 66
     1
 10
0.0
 20
0.0
 30
0.0
  0
VERTEX
  5
226B
  8
0
 10
246.15000000000001
 20
85.945626465380258
 30
0.0
  0
VERTEX
  5
226C
  8
0
 10
246.1496736473029
 20
85.894531308357614
 30
0.0
  0
VERTEX
  5
226D
  8
0
 10
246.14835289640399
 20
85.830847914171486
 30
0.0
  0
VERTEX
  5
226E
  8
0
 10
246.14162436922979
 20
85.686908675169889
 30
0.0
  0
VERTEX
  5
226F
  8
0
 10
246.1165645644196
 20
85.426150341684334
 30
0.0
  0
VERTEX
  5
2270
  8
0
 10
246.07932255270271
 20
85.197011559819813
 30
0.0
  0
VERTEX
  5
2271
  8
0
 10
245.92151526930209
 20
84.610022991495271
 30
0.0
  0
VERTEX
  5
2272
  8
0
 10
245.67724737305139
 20
84.057031206014528
 30
0.0
  0
VERTEX
  5
2273
  8
0
 10
245.3452858594942
 20
83.539353771748765
 30
0.0
  0
VERTEX
  5
2274
  8
0
 10
244.95032039159631
 20
83.088873975925537
 30
0.0
  0
VERTEX
  5
2275
  8
0
 10
244.4713263814989
 20
82.686857883309457
 30
0.0
  0
VERTEX
  5
2276
  8
0
 10
243.90891289486271
 20
82.352199137172917
 30
0.0
  0
VERTEX
  5
2277
  8
0
 10
243.26368899734899
 20
82.103791380788152
 30
0.0
  0
VERTEX
  5
2278
  8
0
 10
242.7837983129306
 20
81.996115476585715
 30
0.0
  0
VERTEX
  5
2279
  8
0
 10
242.2673873860887
 20
81.947261710160276
 30
0.0
  0
VERTEX
  5
227A
  8
0
 10
241.72041940130151
 20
81.968760801415485
 30
0.0
  0
VERTEX
  5
227B
  8
0
 10
241.20068992903001
 20
82.060239190857416
 30
0.0
  0
VERTEX
  5
227C
  8
0
 10
240.66675818787991
 20
82.231080317379636
 30
0.0
  0
VERTEX
  5
227D
  8
0
 10
240.13496240601509
 20
82.490250437387374
 30
0.0
  0
SEQEND
  5
227E
  8
0
  0
LINE
  5
1611
  8
0
 10
246.15000000000001
 20
86.774558480176097
 30
0.0
 11
246.15000000000001
 21
85.945626465380258
 31
0.0
  0
POLYLINE
  5
1612
  8
0
 66
     1
 10
0.0
 20
0.0
 30
0.0
  0
VERTEX
  5
227F
  8
0
 10
244.84692515335209
 20
89.728639507706873
 30
0.0
  0
VERTEX
  5
2280
  8
0
 10
245.3250235415579
 20
89.207644071875848
 30
0.0
  0
VERTEX
  5
2281
  8
0
 10
245.6923883496415
 20
88.632375688709828
 30
0.0
  0
VERTEX
  5
2282
  8
0
 10
245.9579338661697
 20
88.003570148576429
 30
0.0
  0
VERTEX
  5
2283
  8
0
 10
246.11237178609849
 20
87.321924745789204
 30
0.0
  0
VERTEX
  5
2284
  8
0
 10
246.1313196775358
 20
87.160684917067485
 30
0.0
  0
VERTEX
  5
2285
  8
0
 10
246.1407335130489
 20
87.046672478031198
 30
0.0
  0
VERTEX
  5
2286
  8
0
 10
246.14678761256451
 20
86.934835677715512
 30
0.0
  0
VERTEX
  5
2287
  8
0
 10
246.1488017002535
 20
86.872461299595784
 30
0.0
  0
VERTEX
  5
2288
  8
0
 10
246.14980234686271
 20
86.814322610142881
 30
0.0
  0
VERTEX
  5
2289
  8
0
 10
246.15000000000001
 20
86.774558480176154
 30
0.0
  0
SEQEND
  5
228A
  8
0
  0
POLYLINE
  5
1613
  8
0
 66
     1
 10
0.0
 20
0.0
 30
0.0
  0
VERTEX
  5
228B
  8
0
 10
230.12628118136911
 20
98.69583159886794
 30
0.0
  0
VERTEX
  5
228C
  8
0
 10
231.6276837725955
 20
98.108748105581256
 30
0.0
  0
VERTEX
  5
228D
  8
0
 10
233.09876606270569
 20
97.472213505285325
 30
0.0
  0
VERTEX
  5
228E
  8
0
 10
234.52531544751699
 20
96.79544189161777
 30
0.0
  0
VERTEX
  5
228F
  8
0
 10
235.8931193228469
 20
96.0876473582166
 30
0.0
  0
VERTEX
  5
2290
  8
0
 10
237.19398483528249
 20
95.356462233794048
 30
0.0
  0
VERTEX
  5
2291
  8
0
 10
238.43370053174581
 20
94.605402394764099
 30
0.0
  0
VERTEX
  5
2292
  8
0
 10
239.6042919211184
 20
93.845464052454759
 30
0.0
  0
VERTEX
  5
2293
  8
0
 10
240.6977845122816
 20
93.087643418194034
 30
0.0
  0
VERTEX
  5
2294
  8
0
 10
241.59658979125621
 20
92.426747670733789
 30
0.0
  0
VERTEX
  5
2295
  8
0
 10
242.43482038020679
 20
91.778464368718218
 30
0.0
  0
VERTEX
  5
2296
  8
0
 10
243.20557156403399
 20
91.154549816150436
 30
0.0
  0
VERTEX
  5
2297
  8
0
 10
243.90193862763849
 20
90.566760317033356
 30
0.0
  0
VERTEX
  5
2298
  8
0
 10
244.51701685592079
 20
90.026852175370038
 30
0.0
  0
VERTEX
  5
2299
  8
0
 10
244.8469251533522
 20
89.728639507706873
 30
0.0
  0
SEQEND
  5
229A
  8
0
  0
LINE
  5
162A
  8
0
 10
77.126719507837493
 20
83.0
 30
0.0
 11
78.604029040269495
 21
81.376028043914175
 31
0.0
  0
LINE
  5
162B
  8
0
 10
54.595540332430907
 20
81.375560671155938
 30
0.0
 11
56.073280492162553
 21
83.0
 31
0.0
  0
POLYLINE
  5
164F
  8
0
 66
     1
 10
0.0
 20
0.0
 30
0.0
  0
VERTEX
  5
229B
  8
0
 10
69.535246497314915
 20
98.093999999999937
 30
0.0
  0
VERTEX
  5
229C
  8
0
 10
69.847962505012646
 20
98.203889335960625
 30
0.0
  0
VERTEX
  5
229D
  8
0
 10
70.124709583078243
 20
98.307882054476821
 30
0.0
  0
VERTEX
  5
229E
  8
0
 10
70.334637799167581
 20
98.390717589499062
 30
0.0
  0
VERTEX
  5
229F
  8
0
 10
70.49292563369562
 20
98.455309234762638
 30
0.0
  0
VERTEX
  5
22A0
  8
0
 10
70.581331384940825
 20
98.492151389228013
 30
0.0
  0
VERTEX
  5
22A1
  8
0
 10
70.599999999404702
 20
98.499999999749377
 30
0.0
  0
SEQEND
  5
22A2
  8
0
  0
POLYLINE
  5
1650
  8
0
 66
     1
 10
0.0
 20
0.0
 30
0.0
  0
VERTEX
  5
22A3
  8
0
 10
63.664753502685009
 20
98.093999999999994
 30
0.0
  0
VERTEX
  5
22A4
  8
0
 10
63.929970061274162
 20
97.945823469681727
 30
0.0
  0
VERTEX
  5
22A5
  8
0
 10
64.231449869409175
 20
97.789803966047486
 30
0.0
  0
VERTEX
  5
22A6
  8
0
 10
64.564655136611947
 20
97.634198173677987
 30
0.0
  0
VERTEX
  5
22A7
  8
0
 10
64.930065411446549
 20
97.485863548346686
 30
0.0
  0
VERTEX
  5
22A8
  8
0
 10
65.325393401479403
 20
97.354215374258786
 30
0.0
  0
VERTEX
  5
22A9
  8
0
 10
65.74419845414161
 20
97.250360018385962
 30
0.0
  0
VERTEX
  5
22AA
  8
0
 10
66.204739033290821
 20
97.182442044615684
 30
0.0
  0
VERTEX
  5
22AB
  8
0
 10
66.676208563847354
 20
97.164009095235485
 30
0.0
  0
VERTEX
  5
22AC
  8
0
 10
67.145626687429058
 20
97.19927302973241
 30
0.0
  0
VERTEX
  5
22AD
  8
0
 10
67.60033891517341
 20
97.281803585547834
 30
0.0
  0
VERTEX
  5
22AE
  8
0
 10
67.963429711415529
 20
97.380944268078125
 30
0.0
  0
VERTEX
  5
22AF
  8
0
 10
68.307326416950588
 20
97.49983972723777
 30
0.0
  0
VERTEX
  5
22B0
  8
0
 10
68.627951295705572
 20
97.630955674345614
 30
0.0
  0
VERTEX
  5
22B1
  8
0
 10
69.070753698552551
 20
97.84117134169783
 30
0.0
  0
VERTEX
  5
22B2
  8
0
 10
69.452706795152324
 20
98.046890137412177
 30
0.0
  0
VERTEX
  5
22B3
  8
0
 10
69.535246497315029
 20
98.093999999999994
 30
0.0
  0
SEQEND
  5
22B4
  8
0
  0
POLYLINE
  5
1658
  8
0
 66
     1
 10
0.0
 20
0.0
 30
0.0
  0
VERTEX
  5
22B5
  8
0
 10
62.600000000595337
 20
98.499999999749377
 30
0.0
  0
VERTEX
  5
22B6
  8
0
 10
62.604181649796317
 20
98.498239899574642
 30
0.0
  0
VERTEX
  5
22B7
  8
0
 10
62.654106869817319
 20
98.477318087183448
 30
0.0
  0
VERTEX
  5
22B8
  8
0
 10
62.760855217503547
 20
98.433163068961505
 30
0.0
  0
VERTEX
  5
22B9
  8
0
 10
62.91684673261414
 20
98.370098375092027
 30
0.0
  0
VERTEX
  5
22BA
  8
0
 10
63.118969054541537
 20
98.291066859408659
 30
0.0
  0
VERTEX
  5
22BB
  8
0
 10
63.37315913688343
 20
98.196206358002271
 30
0.0
  0
VERTEX
  5
22BC
  8
0
 10
63.664753502685009
 20
98.093999999999994
 30
0.0
  0
SEQEND
  5
22BD
  8
0
  0
LINE
  5
168C
  8
1
 10
66.600000000000023
 20
106.4899999999999
 30
0.0
 11
66.600000000000023
 21
19.99999999999994
 31
0.0
  0
LINE
  5
168D
  8
1
 10
45.0
 20
93.000000000000057
 30
0.0
 11
88.200000000000017
 21
93.0
 31
0.0
  0
LINE
  5
168E
  8
0
 10
78.611661000877461
 20
80.400000000000034
 30
0.0
 11
79.299999999999343
 21
79.700000000000671
 31
0.0
  0
LINE
  5
168F
  8
0
 10
53.900000000000041
 20
79.699999999999974
 30
0.0
 11
53.900000000000041
 21
79.0
 31
0.0
  0
LINE
  5
1690
  8
0
 10
79.300000000000011
 20
79.0
 30
0.0
 11
79.300000000000011
 21
79.700000000000045
 31
0.0
  0
LINE
  5
1691
  8
0
 10
53.900000000000681
 20
79.700000000000671
 30
0.0
 11
54.588338999122577
 21
80.400000000000034
 31
0.0
  0
LINE
  5
1692
  8
0
 10
78.611661000877518
 20
80.400000000000034
 30
0.0
 11
54.588338999122563
 21
80.400000000000091
 31
0.0
  0
LINE
  5
1693
  8
0
 10
78.604029040269495
 20
81.376028043914175
 30
0.0
 11
79.131911067196796
 21
80.805235721931183
 31
0.0
  0
LINE
  5
1694
  8
0
 10
77.126719507837493
 20
83.0
 30
0.0
 11
56.073280492162553
 21
83.0
 31
0.0
  0
LINE
  5
1695
  8
0
 10
54.068088932803249
 20
80.805235721931183
 30
0.0
 11
54.595540332430907
 21
81.375560671155938
 31
0.0
  0
LINE
  5
1696
  8
0
 10
79.092499714936849
 20
80.5
 30
0.0
 11
54.107500285063168
 21
80.5
 31
0.0
  0
POLYLINE
  5
1697
  8
0
 66
     1
 10
0.0
 20
0.0
 30
0.0
  0
VERTEX
  5
22BE
  8
0
 10
79.092499714936849
 20
80.5
 30
0.0
  0
VERTEX
  5
22BF
  8
0
 10
79.121599353649458
 20
80.501372125038984
 30
0.0
  0
VERTEX
  5
22C0
  8
0
 10
79.153789015630991
 20
80.506877833674125
 30
0.0
  0
VERTEX
  5
22C1
  8
0
 10
79.183687823134335
 20
80.517718696320287
 30
0.0
  0
VERTEX
  5
22C2
  8
0
 10
79.213954183988221
 20
80.539858831521485
 30
0.0
  0
VERTEX
  5
22C3
  8
0
 10
79.236847244718433
 20
80.591397248434816
 30
0.0
  0
VERTEX
  5
22C4
  8
0
 10
79.228690754151842
 20
80.655203188572514
 30
0.0
  0
VERTEX
  5
22C5
  8
0
 10
79.196900809352144
 20
80.721524888826124
 30
0.0
  0
VERTEX
  5
22C6
  8
0
 10
79.131911067196796
 20
80.805235721931183
 30
0.0
  0
SEQEND
  5
22C7
  8
0
  0
POLYLINE
  5
1699
  8
0
 66
     1
 10
0.0
 20
0.0
 30
0.0
  0
VERTEX
  5
22C8
  8
0
 10
54.068088932803249
 20
80.805235721931183
 30
0.0
  0
VERTEX
  5
22C9
  8
0
 10
54.001292920704913
 20
80.71858420721145
 30
0.0
  0
VERTEX
  5
22CA
  8
0
 10
53.965039655836136
 20
80.630880319590815
 30
0.0
  0
VERTEX
  5
22CB
  8
0
 10
53.963486668310587
 20
80.588719591908273
 30
0.0
  0
VERTEX
  5
22CC
  8
0
 10
53.980090631749327
 20
80.547032488747107
 30
0.0
  0
VERTEX
  5
22CD
  8
0
 10
54.006742568564441
 20
80.523009911039765
 30
0.0
  0
VERTEX
  5
22CE
  8
0
 10
54.03456049830762
 20
80.510274894882798
 30
0.0
  0
VERTEX
  5
22CF
  8
0
 10
54.064450247764398
 20
80.503154418229883
 30
0.0
  0
VERTEX
  5
22D0
  8
0
 10
54.099562672464707
 20
80.500095559571321
 30
0.0
  0
VERTEX
  5
22D1
  8
0
 10
54.107500285063168
 20
80.5
 30
0.0
  0
SEQEND
  5
22D2
  8
0
  0
LINE
  5
169A
  8
0
 10
53.050000000000011
 20
79.0
 30
0.0
 11
53.050000000000011
 21
77.0
 31
0.0
  0
LINE
  5
169B
  8
0
 10
80.150000000000034
 20
77.0
 30
0.0
 11
80.150000000000034
 21
79.0
 31
0.0
  0
LINE
  5
169C
  8
0
 10
80.150000000000034
 20
79.0
 30
0.0
 11
53.050000000000011
 21
79.0
 31
0.0
  0
LINE
  5
169D
  8
0
 10
78.149999999730085
 20
75.0
 30
0.0
 11
55.050000000000011
 21
75.0
 31
0.0
  0
ARC
  5
169E
  8
0
 10
55.05000000000004
 20
77.0
 30
0.0
 40
2.0000000000000062
 50
180.0
 51
270.0
  0
ARC
  5
169F
  8
0
 10
78.150000000000006
 20
77.0
 30
0.0
 40
2.0000000000000111
 50
270.0
 51
0.0
  0
LINE
  5
16A1
  8
0
 10
62.600000000000023
 20
87.500000000000398
 30
0.0
 11
62.600000000000023
 21
83.000000000000014
 31
0.0
  0
LINE
  5
16A2
  8
0
 10
70.600000000000023
 20
83.000000000000014
 30
0.0
 11
70.600000000000037
 21
87.500000000000014
 31
0.0
  0
LINE
  5
16A3
  8
0
 10
62.64525601334298
 20
99.54000000000002
 30
0.0
 11
62.64525601334298
 21
98.481179016630662
 31
0.0
  0
LINE
  5
16A4
  8
0
 10
70.554743986657058
 20
98.481102148782995
 30
0.0
 11
70.554743986657058
 21
99.54000000000002
 31
0.0
  0
LINE
  5
16A5
  8
0
 10
70.554743986657058
 20
99.54000000000002
 30
0.0
 11
62.64525601334298
 21
99.54000000000002
 31
0.0
  0
LINE
  5
16A6
  8
0
 10
70.088782022425576
 20
100.0
 30
0.0
 11
63.111217977574441
 21
100.0
 31
0.0
  0
LINE
  5
16A8
  8
0
 10
70.554743986657058
 20
99.54000000000002
 30
0.0
 11
70.088782022425619
 21
100.0
 31
0.0
  0
LINE
  5
16A9
  8
0
 10
69.833000000000027
 20
25.0
 30
0.0
 11
63.367000000000019
 21
25.0
 31
0.0
  0
LINE
  5
16AA
  8
0
 10
69.833000000000027
 20
25.0
 30
0.0
 11
70.600000000000023
 21
25.766999999999999
 31
0.0
  0
LINE
  5
16AB
  8
0
 10
62.600000000000023
 20
25.766999999999999
 30
0.0
 11
63.367000000000019
 21
25.0
 31
0.0
  0
LINE
  5
16AC
  8
0
 10
70.600000000000023
 20
25.766999999999999
 30
0.0
 11
62.600000000000023
 21
25.766999999999999
 31
0.0
  0
LINE
  5
16AD
  8
0
 10
62.600000000000023
 20
75.0
 30
0.0
 11
62.600000000000023
 21
25.766999999999999
 31
0.0
  0
LINE
  5
16AE
  8
0
 10
70.600000000000023
 20
25.766999999999999
 30
0.0
 11
70.600000000000023
 21
75.0
 31
0.0
  0
LINE
  5
16B0
  8
3
 10
63.276500000000283
 20
25.090499999999739
 30
0.0
 11
63.276500000000283
 21
75.0
 31
0.0
  0
LINE
  5
16B2
  8
3
 10
69.923499999999763
 20
25.090499999999739
 30
0.0
 11
69.923499999999763
 21
75.0
 31
0.0
  0
POLYLINE
  5
16B3
  8
0
 66
     1
 10
0.0
 20
0.0
 30
0.0
  0
VERTEX
  5
22D3
  8
0
 10
63.66475350268513
 20
87.906000000000105
 30
0.0
  0
VERTEX
  5
22D4
  8
0
 10
63.3520374949874
 20
87.796110664039347
 30
0.0
  0
VERTEX
  5
22D5
  8
0
 10
63.075290416921803
 20
87.692117945523194
 30
0.0
  0
VERTEX
  5
22D6
  8
0
 10
62.865362200832458
 20
87.609282410500953
 30
0.0
  0
VERTEX
  5
22D7
  8
0
 10
62.707074366304418
 20
87.544690765237419
 30
0.0
  0
VERTEX
  5
22D8
  8
0
 10
62.618668615059221
 20
87.507848610771987
 30
0.0
  0
VERTEX
  5
22D9
  8
0
 10
62.600000000595337
 20
87.500000000250665
 30
0.0
  0
SEQEND
  5
22DA
  8
0
  0
POLYLINE
  5
16B4
  8
0
 66
     1
 10
0.0
 20
0.0
 30
0.0
  0
VERTEX
  5
22DB
  8
0
 10
69.535246497315029
 20
87.906000000000006
 30
0.0
  0
VERTEX
  5
22DC
  8
0
 10
69.270029938725884
 20
88.05417653031833
 30
0.0
  0
VERTEX
  5
22DD
  8
0
 10
68.96855013059087
 20
88.210196033952514
 30
0.0
  0
VERTEX
  5
22DE
  8
0
 10
68.635344863388099
 20
88.36580182632207
 30
0.0
  0
VERTEX
  5
22DF
  8
0
 10
68.269934588553497
 20
88.514136451653314
 30
0.0
  0
VERTEX
  5
22E0
  8
0
 10
67.874606598520643
 20
88.645784625741214
 30
0.0
  0
VERTEX
  5
22E1
  8
0
 10
67.455801545858435
 20
88.749639981614052
 30
0.0
  0
VERTEX
  5
22E2
  8
0
 10
66.995260966709225
 20
88.817557955384288
 30
0.0
  0
VERTEX
  5
22E3
  8
0
 10
66.523791436152692
 20
88.835990904764515
 30
0.0
  0
VERTEX
  5
22E4
  8
0
 10
66.054373312570988
 20
88.800726970267604
 30
0.0
  0
VERTEX
  5
22E5
  8
0
 10
65.599661084826636
 20
88.718196414452166
 30
0.0
  0
VERTEX
  5
22E6
  8
0
 10
65.236570288584517
 20
88.619055731921875
 30
0.0
  0
VERTEX
  5
22E7
  8
0
 10
64.892673583049458
 20
88.500160272762244
 30
0.0
  0
VERTEX
  5
22E8
  8
0
 10
64.572048704294474
 20
88.369044325654386
 30
0.0
  0
VERTEX
  5
22E9
  8
0
 10
64.129246301447495
 20
88.158828658302184
 30
0.0
  0
VERTEX
  5
22EA
  8
0
 10
63.747293204847722
 20
87.953109862587823
 30
0.0
  0
VERTEX
  5
22EB
  8
0
 10
63.664753502685009
 20
87.906000000000006
 30
0.0
  0
SEQEND
  5
22EC
  8
0
  0
LINE
  5
16B5
  8
0
 10
71.100000000000023
 20
98.500000000000014
 30
0.0
 11
70.600000000000023
 21
98.500000000000014
 31
0.0
  0
LINE
  5
16B6
  8
0
 10
62.600000000000023
 20
98.500000000000014
 30
0.0
 11
62.100000000000023
 21
98.500000000000014
 31
0.0
  0
LINE
  5
16B7
  8
0
 10
62.100000000000023
 20
87.5
 30
0.0
 11
71.100000000000023
 21
87.5
 31
0.0
  0
POLYLINE
  5
16B9
  8
0
 66
     1
 10
0.0
 20
0.0
 30
0.0
  0
VERTEX
  5
22ED
  8
0
 10
70.599999999404702
 20
87.500000000250665
 30
0.0
  0
VERTEX
  5
22EE
  8
0
 10
70.595818350203729
 20
87.501760100425415
 30
0.0
  0
VERTEX
  5
22EF
  8
0
 10
70.545893130182719
 20
87.522681912816608
 30
0.0
  0
VERTEX
  5
22F0
  8
0
 10
70.439144782496498
 20
87.566836931038495
 30
0.0
  0
VERTEX
  5
22F1
  8
0
 10
70.283153267385899
 20
87.62990162490803
 30
0.0
  0
VERTEX
  5
22F2
  8
0
 10
70.081030945458508
 20
87.708933140591355
 30
0.0
  0
VERTEX
  5
22F3
  8
0
 10
69.826840863116615
 20
87.803793641997743
 30
0.0
  0
VERTEX
  5
22F4
  8
0
 10
69.535246497315029
 20
87.906000000000006
 30
0.0
  0
SEQEND
  5
22F5
  8
0
  0
POLYLINE
  5
16BA
  8
0
 66
     1
 10
0.0
 20
0.0
 30
0.0
  0
VERTEX
  5
22F6
  8
0
 10
53.799583176191192
 20
82.490250437387488
 30
0.0
  0
VERTEX
  5
22F7
  8
0
 10
54.214413397838769
 20
82.251296456842098
 30
0.0
  0
VERTEX
  5
22F8
  8
0
 10
54.600000000000023
 20
82.104172266322962
 30
0.0
  0
SEQEND
  5
22F9
  8
0
  0
POLYLINE
  5
16BB
  8
0
 66
     1
 10
0.0
 20
0.0
 30
0.0
  0
VERTEX
  5
22FA
  8
0
 10
78.600000000000051
 20
82.104278600377768
 30
0.0
  0
VERTEX
  5
22FB
  8
0
 10
78.693933407644579
 20
82.135179020958162
 30
0.0
  0
VERTEX
  5
22FC
  8
0
 10
79.060092921815709
 20
82.287241759851483
 30
0.0
  0
VERTEX
  5
22FD
  8
0
 10
79.400416823808854
 20
82.490250437387488
 30
0.0
  0
SEQEND
  5
22FE
  8
0
  0
LINE
  5
16BC
  8
0
 10
83.200000000000017
 20
87.194287171911185
 30
0.0
 11
83.200000000000017
 21
98.929936491146407
 31
0.0
  0
LINE
  5
16BD
  8
0
 10
50.0
 20
87.194287171911185
 30
0.0
 11
50.0
 21
98.929936491146407
 31
0.0
  0
POLYLINE
  5
16BE
  8
0
 66
     1
 10
0.0
 20
0.0
 30
0.0
  0
VERTEX
  5
22FF
  8
0
 10
50.0
 20
98.929936491146407
 30
0.0
  0
VERTEX
  5
2300
  8
0
 10
50.523249533202943
 20
100.0722136373239
 30
0.0
  0
VERTEX
  5
2301
  8
0
 10
51.058384284008362
 20
100.88295603413749
 30
0.0
  0
VERTEX
  5
2302
  8
0
 10
51.601331553839451
 20
101.35599344240811
 30
0.0
  0
VERTEX
  5
2303
  8
0
 10
52.084915057915083
 20
101.48999999999999
 30
0.0
  0
SEQEND
  5
2304
  8
0
  0
POLYLINE
  5
16BF
  8
3
 66
     1
 10
0.0
 20
0.0
 30
0.0
  0
VERTEX
  5
2305
  8
3
 10
79.600000000000023
 20
100.1568040067082
 30
0.0
  0
VERTEX
  5
2306
  8
3
 10
80.135985098269046
 20
100.9380976637993
 30
0.0
  0
VERTEX
  5
2307
  8
3
 10
80.679421737546107
 20
101.3812666712501
 30
0.0
  0
VERTEX
  5
2308
  8
3
 10
81.115084942084962
 20
101.4899999999999
 30
0.0
  0
SEQEND
  5
2309
  8
3
  0
LINE
  5
16C0
  8
0
 10
54.600000000000023
 20
101.4899999999999
 30
0.0
 11
52.084915057915083
 21
101.4899999999999
 31
0.0
  0
LINE
  5
16C1
  8
0
 10
71.100000000000023
 20
101.4899999999999
 30
0.0
 11
62.100000000000023
 21
101.4899999999999
 31
0.0
  0
LINE
  5
16C2
  8
0
 10
81.115084942084962
 20
101.4899999999999
 30
0.0
 11
78.600000000000023
 21
101.4899999999999
 31
0.0
  0
POLYLINE
  5
16C3
  8
3
 66
     1
 10
0.0
 20
0.0
 30
0.0
  0
VERTEX
  5
230A
  8
3
 10
52.084915057915083
 20
101.48999999999999
 30
0.0
  0
VERTEX
  5
230B
  8
3
 10
52.631330415626671
 20
101.3188375201667
 30
0.0
  0
VERTEX
  5
230C
  8
3
 10
53.173587222531502
 20
100.80665273048911
 30
0.0
  0
VERTEX
  5
230D
  8
3
 10
53.600000000000023
 20
100.1568040067082
 30
0.0
  0
SEQEND
  5
230E
  8
3
  0
POLYLINE
  5
16C4
  8
0
 66
     1
 10
0.0
 20
0.0
 30
0.0
  0
VERTEX
  5
230F
  8
0
 10
81.115084942084962
 20
101.4899999999999
 30
0.0
  0
VERTEX
  5
2310
  8
0
 10
81.661500299796586
 20
101.3188375201667
 30
0.0
  0
VERTEX
  5
2311
  8
0
 10
82.203757106701403
 20
100.80665273048911
 30
0.0
  0
VERTEX
  5
2312
  8
0
 10
82.737728461075221
 20
99.957343666482302
 30
0.0
  0
VERTEX
  5
2313
  8
0
 10
83.200000000000017
 20
98.929936491146407
 30
0.0
  0
SEQEND
  5
2314
  8
0
  0
POLYLINE
  5
16C5
  8
3
 66
     1
 10
0.0
 20
0.0
 30
0.0
  0
VERTEX
  5
2315
  8
3
 10
50.0
 20
87.427360368520965
 30
0.0
  0
VERTEX
  5
2316
  8
3
 10
50.726894499188091
 20
89.018425993046264
 30
0.0
  0
VERTEX
  5
2317
  8
3
 10
51.470351151050892
 20
90.148909853739795
 30
0.0
  0
VERTEX
  5
2318
  8
3
 10
52.224711801556339
 20
90.810208285816827
 30
0.0
  0
VERTEX
  5
2319
  8
3
 10
52.903088803088842
 20
91.0
 30
0.0
  0
SEQEND
  5
231A
  8
3
  0
POLYLINE
  5
16C6
  8
0
 66
     1
 10
0.0
 20
0.0
 30
0.0
  0
VERTEX
  5
231B
  8
0
 10
53.799583176191192
 20
82.490250437387488
 30
0.0
  0
VERTEX
  5
231C
  8
0
 10
53.18574928993354
 20
82.943019995716284
 30
0.0
  0
VERTEX
  5
231D
  8
0
 10
52.620973288373932
 20
83.399669765425358
 30
0.0
  0
VERTEX
  5
231E
  8
0
 10
52.107307206857023
 20
83.856816768565579
 30
0.0
  0
VERTEX
  5
231F
  8
0
 10
51.633349614167827
 20
84.325097209882685
 30
0.0
  0
VERTEX
  5
2320
  8
0
 10
51.215539790714438
 20
84.789326660149825
 30
0.0
  0
VERTEX
  5
2321
  8
0
 10
50.85615096215701
 20
85.246275599299508
 30
0.0
  0
VERTEX
  5
2322
  8
0
 10
50.519966617790317
 20
85.755007227351484
 30
0.0
  0
VERTEX
  5
2323
  8
0
 10
50.263764271271668
 20
86.248460636392622
 30
0.0
  0
VERTEX
  5
2324
  8
0
 10
50.087741338922399
 20
86.732374083596824
 30
0.0
  0
VERTEX
  5
2325
  8
0
 10
50.000000000000057
 20
87.194287171910958
 30
0.0
  0
SEQEND
  5
2326
  8
0
  0
POLYLINE
  5
16C9
  8
0
 66
     1
 10
0.0
 20
0.0
 30
0.0
  0
VERTEX
  5
2327
  8
0
 10
83.200000000000017
 20
87.194287171911114
 30
0.0
  0
VERTEX
  5
2328
  8
0
 10
83.135438395654518
 20
86.82057508960429
 30
0.0
  0
VERTEX
  5
2329
  8
0
 10
83.012132969039556
 20
86.431659490964819
 30
0.0
  0
VERTEX
  5
232A
  8
0
 10
82.831653960989684
 20
86.029732956001112
 30
0.0
  0
VERTEX
  5
232B
  8
0
 10
82.587172142518568
 20
85.603423437521386
 30
0.0
  0
VERTEX
  5
232C
  8
0
 10
82.284768669022583
 20
85.166345145588195
 30
0.0
  0
VERTEX
  5
232D
  8
0
 10
81.92649727487435
 20
84.721255503120048
 30
0.0
  0
VERTEX
  5
232E
  8
0
 10
81.417030408436744
 20
84.171545565244969
 30
0.0
  0
VERTEX
  5
232F
  8
0
 10
80.829377551920885
 20
83.616833557517054
 30
0.0
  0
VERTEX
  5
2330
  8
0
 10
80.153013048781204
 20
83.051333250828634
 30
0.0
  0
VERTEX
  5
2331
  8
0
 10
79.400416823808882
 20
82.490250437387488
 30
0.0
  0
SEQEND
  5
2332
  8
0
  0
LINE
  5
16CA
  8
3
 10
79.600000000000023
 20
90.799678971885555
 30
0.0
 11
80.296911196911225
 21
90.999999999999943
 31
0.0
  0
LINE
  5
16CB
  8
3
 10
52.903088803088842
 20
91.0
 30
0.0
 11
53.600000000000023
 21
90.799678971885555
 31
0.0
  0
POLYLINE
  5
16CC
  8
3
 66
     1
 10
0.0
 20
0.0
 30
0.0
  0
VERTEX
  5
2333
  8
3
 10
80.296911196911225
 20
90.999999999999943
 30
0.0
  0
VERTEX
  5
2334
  8
3
 10
81.056158859360664
 20
90.762168630734024
 30
0.0
  0
VERTEX
  5
2335
  8
3
 10
81.809628188652596
 20
90.050484563262955
 30
0.0
  0
VERTEX
  5
2336
  8
3
 10
82.551584828233885
 20
88.870364143066766
 30
0.0
  0
VERTEX
  5
2337
  8
3
 10
83.200000000000017
 20
87.427360368520965
 30
0.0
  0
SEQEND
  5
2338
  8
3
  0
POLYLINE
  5
16CD
  8
3
 66
     1
 10
0.0
 20
0.0
 30
0.0
  0
VERTEX
  5
2339
  8
3
 10
79.171573180942261
 20
89.275690646184387
 30
0.0
  0
VERTEX
  5
233A
  8
3
 10
79.410948419272273
 20
90.315118724893225
 30
0.0
  0
VERTEX
  5
233B
  8
3
 10
79.600000000000023
 20
90.799678971885555
 30
0.0
  0
SEQEND
  5
233C
  8
3
  0
LINE
  5
16CF
  8
3
 10
79.438519892447061
 20
99.095324542420144
 30
0.0
 11
79.600000000000023
 21
100.1568040067082
 31
0.0
  0
LINE
  5
16D0
  8
3
 10
53.600000000000051
 20
100.1568040067082
 30
0.0
 11
53.761480107552977
 21
99.095324542420144
 31
0.0
  0
POLYLINE
  5
16D2
  8
3
 66
     1
 10
0.0
 20
0.0
 30
0.0
  0
VERTEX
  5
233D
  8
3
 10
53.600000000000051
 20
90.799678971885555
 30
0.0
  0
VERTEX
  5
233E
  8
3
 10
53.841983375858433
 20
90.126831170871867
 30
0.0
  0
VERTEX
  5
233F
  8
3
 10
54.028426819057778
 20
89.275690646184387
 30
0.0
  0
SEQEND
  5
2340
  8
3
  0
LINE
  5
16D3
  8
3
 10
54.600000000000023
 20
88.520748659188996
 30
0.0
 11
54.485062611806818
 21
88.46999999999997
 31
0.0
  0
POLYLINE
  5
16D4
  8
3
 66
     1
 10
0.0
 20
0.0
 30
0.0
  0
VERTEX
  5
2341
  8
3
 10
79.171573180942261
 20
89.275690646184387
 30
0.0
  0
VERTEX
  5
2342
  8
3
 10
78.919226497100738
 20
88.630456971844126
 30
0.0
  0
VERTEX
  5
2343
  8
3
 10
78.714937388193221
 20
88.46999999999997
 30
0.0
  0
SEQEND
  5
2344
  8
3
  0
LINE
  5
16D5
  8
3
 10
78.600000000000023
 20
88.46999999999997
 30
0.0
 11
78.714937388193221
 21
88.46999999999997
 31
0.0
  0
LINE
  5
16D6
  8
3
 10
54.485062611806818
 20
88.46999999999997
 30
0.0
 11
54.600000000000023
 21
88.46999999999997
 31
0.0
  0
POLYLINE
  5
16D7
  8
3
 66
     1
 10
0.0
 20
0.0
 30
0.0
  0
VERTEX
  5
2345
  8
3
 10
54.485062611806818
 20
88.46999999999997
 30
0.0
  0
VERTEX
  5
2346
  8
3
 10
54.231313110336679
 20
88.717725154227367
 30
0.0
  0
VERTEX
  5
2347
  8
3
 10
54.028426819057778
 20
89.275690646184387
 30
0.0
  0
SEQEND
  5
2348
  8
3
  0
LINE
  5
16D8
  8
3
 10
78.714937388193221
 20
88.46999999999997
 30
0.0
 11
78.600000000000023
 21
88.520748659188996
 31
0.0
  0
POLYLINE
  5
16D9
  8
3
 66
     1
 10
0.0
 20
0.0
 30
0.0
  0
VERTEX
  5
2349
  8
3
 10
79.43851989244709
 20
99.095324542420087
 30
0.0
  0
VERTEX
  5
234A
  8
3
 10
79.15275629450116
 20
97.737079083856543
 30
0.0
  0
VERTEX
  5
234B
  8
3
 10
78.862785887390686
 20
96.940898947077756
 30
0.0
  0
VERTEX
  5
234C
  8
3
 10
78.600000000000023
 20
96.709999999999994
 30
0.0
  0
SEQEND
  5
234D
  8
3
  0
POLYLINE
  5
16DC
  8
3
 66
     1
 10
0.0
 20
0.0
 30
0.0
  0
VERTEX
  5
234E
  8
3
 10
54.600000000000023
 20
96.709999999999994
 30
0.0
  0
VERTEX
  5
234F
  8
3
 10
54.308129605682268
 20
96.994941006890073
 30
0.0
  0
VERTEX
  5
2350
  8
3
 10
54.018480521301449
 20
97.847595454445866
 30
0.0
  0
VERTEX
  5
2351
  8
3
 10
53.761480107552977
 20
99.095324542420087
 30
0.0
  0
SEQEND
  5
2352
  8
3
  0
POLYLINE
  5
16DE
  8
0
 66
     1
 10
0.0
 20
0.0
 30
0.0
  0
VERTEX
  5
2353
  8
0
 10
70.365981039500952
 20
99.726347732985104
 30
0.0
  0
VERTEX
  5
2354
  8
0
 10
70.415449410584245
 20
99.730812944088882
 30
0.0
  0
VERTEX
  5
2355
  8
0
 10
70.561634455735543
 20
99.753797446248953
 30
0.0
  0
VERTEX
  5
2356
  8
0
 10
70.695154560211392
 20
99.78500864214908
 30
0.0
  0
VERTEX
  5
2357
  8
0
 10
70.815203620076034
 20
99.824735077160824
 30
0.0
  0
VERTEX
  5
2358
  8
0
 10
70.916156226262785
 20
99.871251712237452
 30
0.0
  0
VERTEX
  5
2359
  8
0
 10
70.999891300230274
 20
99.926743586577587
 30
0.0
  0
VERTEX
  5
235A
  8
0
 10
71.058839175935532
 20
99.987280272803957
 30
0.0
  0
VERTEX
  5
235B
  8
0
 10
71.100000000000023
 20
100.10349602250839
 30
0.0
  0
SEQEND
  5
235C
  8
0
  0
POLYLINE
  5
16E0
  8
0
 66
     1
 10
0.0
 20
0.0
 30
0.0
  0
VERTEX
  5
235D
  8
0
 10
62.100000000000023
 20
100.10349602250849
 30
0.0
  0
VERTEX
  5
235E
  8
0
 10
62.115907223657587
 20
100.0305385463847
 30
0.0
  0
VERTEX
  5
235F
  8
0
 10
62.163200989441229
 20
99.960880810572689
 30
0.0
  0
VERTEX
  5
2360
  8
0
 10
62.241986976257323
 20
99.896337328078289
 30
0.0
  0
VERTEX
  5
2361
  8
0
 10
62.350352385294762
 20
99.838870952806204
 30
0.0
  0
VERTEX
  5
2362
  8
0
 10
62.479118331885282
 20
99.792504232508534
 30
0.0
  0
VERTEX
  5
2363
  8
0
 10
62.629130497547749
 20
99.755573381528279
 30
0.0
  0
VERTEX
  5
2364
  8
0
 10
62.784111662921653
 20
99.730912336020594
 30
0.0
  0
VERTEX
  5
2365
  8
0
 10
62.834131174572988
 20
99.726458511284534
 30
0.0
  0
SEQEND
  5
2366
  8
0
  0
POLYLINE
  5
16E2
  8
0
 66
     1
 10
0.0
 20
0.0
 30
0.0
  0
VERTEX
  5
2367
  8
0
 10
70.600000000000023
 20
84.299199968455369
 30
0.0
  0
VERTEX
  5
2368
  8
0
 10
70.696061019631827
 20
84.225939877436858
 30
0.0
  0
VERTEX
  5
2369
  8
0
 10
70.811866104215113
 20
84.105386231401965
 30
0.0
  0
VERTEX
  5
236A
  8
0
 10
70.94641835313459
 20
83.908724940419688
 30
0.0
  0
VERTEX
  5
236B
  8
0
 10
71.037993881739339
 20
83.701823553845713
 30
0.0
  0
VERTEX
  5
236C
  8
0
 10
71.084331329615082
 20
83.520036614830005
 30
0.0
  0
VERTEX
  5
236D
  8
0
 10
71.100000000000023
 20
83.33884050259968
 30
0.0
  0
SEQEND
  5
236E
  8
0
  0
POLYLINE
  5
16E3
  8
0
 66
     1
 10
0.0
 20
0.0
 30
0.0
  0
VERTEX
  5
236F
  8
0
 10
62.100000000000023
 20
83.33884050259968
 30
0.0
  0
VERTEX
  5
2370
  8
0
 10
62.128843929702491
 20
83.585730849163767
 30
0.0
  0
VERTEX
  5
2371
  8
0
 10
62.214308150930471
 20
83.831589828418771
 30
0.0
  0
VERTEX
  5
2372
  8
0
 10
62.315692717224771
 20
84.009526686289007
 30
0.0
  0
VERTEX
  5
2373
  8
0
 10
62.451874497758467
 20
84.175956118316478
 30
0.0
  0
VERTEX
  5
2374
  8
0
 10
62.55928950310885
 20
84.272535895983594
 30
0.0
  0
VERTEX
  5
2375
  8
0
 10
62.600000000000023
 20
84.300013848076844
 30
0.0
  0
SEQEND
  5
2376
  8
0
  0
LINE
  5
16E4
  8
0
 10
62.100000000000023
 20
83.0
 30
0.0
 11
62.100000000000023
 21
103.5
 31
0.0
  0
LINE
  5
16E5
  8
0
 10
62.100000000000023
 20
103.5
 30
0.0
 11
54.600000000000023
 21
103.5
 31
0.0
  0
LINE
  5
16E6
  8
0
 10
54.600000000000023
 20
80.5
 30
0.0
 11
54.600000000000023
 21
80.400000000000091
 31
0.0
  0
LINE
  5
16E7
  8
0
 10
54.600000000000023
 20
103.5
 30
0.0
 11
54.600000000000023
 21
81.380463061704845
 31
0.0
  0
LINE
  5
16E8
  8
0
 10
78.600000000000023
 20
81.380457074028655
 30
0.0
 11
78.600000000000023
 21
103.5
 31
0.0
  0
LINE
  5
16E9
  8
0
 10
78.600000000000023
 20
80.400000000000034
 30
0.0
 11
78.600000000000023
 21
80.5
 31
0.0
  0
LINE
  5
16EA
  8
0
 10
78.600000000000023
 20
103.5
 30
0.0
 11
71.100000000000023
 21
103.5
 31
0.0
  0
LINE
  5
16EB
  8
0
 10
71.100000000000023
 20
103.5
 30
0.0
 11
71.100000000000023
 21
83.0
 31
0.0
  0
LINE
  5
1736
  8
1
 10
131.59999999999999
 20
173.5
 30
0.0
 11
251.15000000000001
 21
173.5
 31
0.0
  0
LINE
  5
1737
  8
1
 10
150.15000000000001
 20
192.05000000000001
 30
0.0
 11
150.15000000000001
 21
154.94999999999999
 31
0.0
  0
POLYLINE
  5
173D
  8
0
 66
     1
 10
0.0
 20
0.0
 30
0.0
  0
VERTEX
  5
2377
  8
0
 10
145.98821809405231
 20
161.5
 30
0.0
  0
VERTEX
  5
2378
  8
0
 10
146.72869318594351
 20
161.2695192374097
 30
0.0
  0
VERTEX
  5
2379
  8
0
 10
147.45819705628199
 20
161.08854573741701
 30
0.0
  0
VERTEX
  5
237A
  8
0
 10
148.22137150500521
 20
160.94729542575411
 30
0.0
  0
VERTEX
  5
237B
  8
0
 10
149.004709565848
 20
160.85174676797459
 30
0.0
  0
VERTEX
  5
237C
  8
0
 10
149.7712726928566
 20
160.8056482785916
 30
0.0
  0
VERTEX
  5
237D
  8
0
 10
150.54641912723829
 20
160.80618844178159
 30
0.0
  0
VERTEX
  5
237E
  8
0
 10
151.336664967096
 20
160.85556144955939
 30
0.0
  0
VERTEX
  5
237F
  8
0
 10
152.1237760524362
 20
160.95431516038971
 30
0.0
  0
VERTEX
  5
2380
  8
0
 10
152.67450150159851
 20
161.0534540035022
 30
0.0
  0
VERTEX
  5
2381
  8
0
 10
153.2157612107371
 20
161.17558893095739
 30
0.0
  0
VERTEX
  5
2382
  8
0
 10
153.74961687035301
 20
161.3208063326561
 30
0.0
  0
VERTEX
  5
2383
  8
0
 10
154.31083961064439
 20
161.5
 30
0.0
  0
SEQEND
  5
2384
  8
0
  0
LINE
  5
173E
  8
0
 10
154.55000000000001
 20
161.5
 30
0.0
 11
154.5499999999999
 21
161.0075002850632
 31
0.0
  0
POLYLINE
  5
173F
  8
0
 66
     1
 10
0.0
 20
0.0
 30
0.0
  0
VERTEX
  5
2385
  8
0
 10
155.28900253427139
 20
160.9680889328032
 30
0.0
  0
VERTEX
  5
2386
  8
0
 10
155.09237709944369
 20
160.90129292070489
 30
0.0
  0
VERTEX
  5
2387
  8
0
 10
154.8834416464525
 20
160.86503965583611
 30
0.0
  0
VERTEX
  5
2388
  8
0
 10
154.77905684612591
 20
160.8634866683106
 30
0.0
  0
VERTEX
  5
2389
  8
0
 10
154.67309055643199
 20
160.88009063174931
 30
0.0
  0
VERTEX
  5
238A
  8
0
 10
154.61070649811489
 20
160.9067425685644
 30
0.0
  0
VERTEX
  5
238B
  8
0
 10
154.57722565121691
 20
160.9345604983076
 30
0.0
  0
VERTEX
  5
238C
  8
0
 10
154.5583787764013
 20
160.96445024776429
 30
0.0
  0
VERTEX
  5
238D
  8
0
 10
154.55025409321331
 20
160.99956267246469
 30
0.0
  0
VERTEX
  5
238E
  8
0
 10
154.5499999999999
 20
161.0075002850632
 30
0.0
  0
SEQEND
  5
238F
  8
0
  0
LINE
  5
1740
  8
0
 10
156.36769844986009
 20
161.47760474566681
 30
0.0
 11
156.4099307872541
 21
161.5
 31
0.0
  0
POLYLINE
  5
1741
  8
0
 66
     1
 10
0.0
 20
0.0
 30
0.0
  0
VERTEX
  5
2390
  8
0
 10
155.28900253427139
 20
160.9680889328032
 30
0.0
  0
VERTEX
  5
2391
  8
0
 10
155.7498075223549
 20
161.17131362442171
 30
0.0
  0
VERTEX
  5
2392
  8
0
 10
156.19620932264769
 20
161.38857007072519
 30
0.0
  0
VERTEX
  5
2393
  8
0
 10
156.36769844986009
 20
161.47760474566681
 30
0.0
  0
SEQEND
  5
2394
  8
0
  0
POLYLINE
  5
1742
  8
0
 66
     1
 10
0.0
 20
0.0
 30
0.0
  0
VERTEX
  5
2395
  8
0
 10
156.35615316056959
 20
185.5284890457437
 30
0.0
  0
VERTEX
  5
2396
  8
0
 10
156.22944992154021
 20
185.59441848119781
 30
0.0
  0
VERTEX
  5
2397
  8
0
 10
155.7669917945845
 20
185.82070032986829
 30
0.0
  0
VERTEX
  5
2398
  8
0
 10
155.28900253427139
 20
186.0319110671968
 30
0.0
  0
SEQEND
  5
2399
  8
0
  0
LINE
  5
1743
  8
0
 10
156.4099362885905
 20
185.5
 30
0.0
 11
156.35615316056959
 21
185.5284890457437
 31
0.0
  0
POLYLINE
  5
1744
  8
0
 66
     1
 10
0.0
 20
0.0
 30
0.0
  0
VERTEX
  5
239A
  8
0
 10
154.55000000000001
 20
185.99249971493691
 30
0.0
  0
VERTEX
  5
239B
  8
0
 10
154.55364687993779
 20
186.02159935364949
 30
0.0
  0
VERTEX
  5
239C
  8
0
 10
154.56824557979519
 20
186.053789015631
 30
0.0
  0
VERTEX
  5
239D
  8
0
 10
154.59683073004771
 20
186.0836878231344
 30
0.0
  0
VERTEX
  5
239E
  8
0
 10
154.65456523220081
 20
186.1139541839882
 30
0.0
  0
VERTEX
  5
239F
  8
0
 10
154.78576769870469
 20
186.13684724471841
 30
0.0
  0
VERTEX
  5
23A0
  8
0
 10
154.94245934597831
 20
186.12869075415179
 30
0.0
  0
VERTEX
  5
23A1
  8
0
 10
155.09920287745049
 20
186.09690080935201
 30
0.0
  0
VERTEX
  5
23A2
  8
0
 10
155.28900253427139
 20
186.0319110671968
 30
0.0
  0
SEQEND
  5
23A3
  8
0
  0
LINE
  5
1745
  8
0
 10
154.55000000000001
 20
185.99249971493691
 30
0.0
 11
154.55000000000311
 21
185.49999999999989
 31
0.0
  0
POLYLINE
  5
1746
  8
0
 66
     1
 10
0.0
 20
0.0
 30
0.0
  0
VERTEX
  5
23A4
  8
0
 10
154.31178190594781
 20
185.5
 30
0.0
  0
VERTEX
  5
23A5
  8
0
 10
153.57130681405661
 20
185.7304807625903
 30
0.0
  0
VERTEX
  5
23A6
  8
0
 10
152.84180294371799
 20
185.91145426258311
 30
0.0
  0
VERTEX
  5
23A7
  8
0
 10
152.0786284949948
 20
186.05270457424589
 30
0.0
  0
VERTEX
  5
23A8
  8
0
 10
151.29529043415209
 20
186.1482532320253
 30
0.0
  0
VERTEX
  5
23A9
  8
0
 10
150.5287273071435
 20
186.1943517214084
 30
0.0
  0
VERTEX
  5
23AA
  8
0
 10
149.75358087276169
 20
186.19381155821841
 30
0.0
  0
VERTEX
  5
23AB
  8
0
 10
148.96333503290401
 20
186.1444385504405
 30
0.0
  0
VERTEX
  5
23AC
  8
0
 10
148.17622394756381
 20
186.04568483961029
 30
0.0
  0
VERTEX
  5
23AD
  8
0
 10
147.62549849840161
 20
185.9465459964978
 30
0.0
  0
VERTEX
  5
23AE
  8
0
 10
147.08423878926291
 20
185.82441106904261
 30
0.0
  0
VERTEX
  5
23AF
  8
0
 10
146.550383129647
 20
185.6791936673439
 30
0.0
  0
VERTEX
  5
23B0
  8
0
 10
145.9891603893557
 20
185.5
 30
0.0
  0
SEQEND
  5
23B1
  8
0
  0
LINE
  5
1747
  8
0
 10
145.7499999999973
 20
185.49999999999989
 30
0.0
 11
145.75
 21
185.99249971493691
 31
0.0
  0
POLYLINE
  5
1748
  8
0
 66
     1
 10
0.0
 20
0.0
 30
0.0
  0
VERTEX
  5
23B2
  8
0
 10
145.01099746572871
 20
186.0319110671968
 30
0.0
  0
VERTEX
  5
23B3
  8
0
 10
145.20762290055629
 20
186.09870707929511
 30
0.0
  0
VERTEX
  5
23B4
  8
0
 10
145.4165583535476
 20
186.13496034416389
 30
0.0
  0
VERTEX
  5
23B5
  8
0
 10
145.5209431538741
 20
186.1365133316894
 30
0.0
  0
VERTEX
  5
23B6
  8
0
 10
145.62690944356811
 20
186.11990936825069
 30
0.0
  0
VERTEX
  5
23B7
  8
0
 10
145.68929350188509
 20
186.0932574314356
 30
0.0
  0
VERTEX
  5
23B8
  8
0
 10
145.7227743487831
 20
186.0654395016924
 30
0.0
  0
VERTEX
  5
23B9
  8
0
 10
145.7416212235988
 20
186.0355497522356
 30
0.0
  0
VERTEX
  5
23BA
  8
0
 10
145.7497459067867
 20
186.00043732753531
 30
0.0
  0
VERTEX
  5
23BB
  8
0
 10
145.75
 20
185.99249971493691
 30
0.0
  0
SEQEND
  5
23BC
  8
0
  0
POLYLINE
  5
1749
  8
0
 66
     1
 10
0.0
 20
0.0
 30
0.0
  0
VERTEX
  5
23BD
  8
0
 10
145.75
 20
161.0075002850632
 30
0.0
  0
VERTEX
  5
23BE
  8
0
 10
145.74635312006231
 20
160.97840064635051
 30
0.0
  0
VERTEX
  5
23BF
  8
0
 10
145.73175442020491
 20
160.946210984369
 30
0.0
  0
VERTEX
  5
23C0
  8
0
 10
145.70316926995241
 20
160.91631217686569
 30
0.0
  0
VERTEX
  5
23C1
  8
0
 10
145.6454347677992
 20
160.8860458160118
 30
0.0
  0
VERTEX
  5
23C2
  8
0
 10
145.51423230129541
 20
160.86315275528159
 30
0.0
  0
VERTEX
  5
23C3
  8
0
 10
145.3575406540219
 20
160.87130924584821
 30
0.0
  0
VERTEX
  5
23C4
  8
0
 10
145.2007971225498
 20
160.90309919064791
 30
0.0
  0
VERTEX
  5
23C5
  8
0
 10
145.01099746572871
 20
160.9680889328032
 30
0.0
  0
SEQEND
  5
23C6
  8
0
  0
LINE
  5
174A
  8
0
 10
145.75
 20
161.0075002850632
 30
0.0
 11
145.75
 21
161.5
 31
0.0
  0
POLYLINE
  5
174B
  8
0
 66
     1
 10
0.0
 20
0.0
 30
0.0
  0
VERTEX
  5
23C7
  8
0
 10
143.8899639470398
 20
161.5
 30
0.0
  0
VERTEX
  5
23C8
  8
0
 10
144.0705500784598
 20
161.40558151880211
 30
0.0
  0
VERTEX
  5
23C9
  8
0
 10
144.53300820541551
 20
161.17929967013171
 30
0.0
  0
VERTEX
  5
23CA
  8
0
 10
145.01099746572871
 20
160.9680889328032
 30
0.0
  0
SEQEND
  5
23CB
  8
0
  0
POLYLINE
  5
174C
  8
0
 66
     1
 10
0.0
 20
0.0
 30
0.0
  0
VERTEX
  5
23CC
  8
0
 10
145.01099746572871
 20
186.0319110671968
 30
0.0
  0
VERTEX
  5
23CD
  8
0
 10
144.5501924776452
 20
185.82868637557829
 30
0.0
  0
VERTEX
  5
23CE
  8
0
 10
144.10379067735241
 20
185.61142992927481
 30
0.0
  0
VERTEX
  5
23CF
  8
0
 10
143.88991954077039
 20
185.5
 30
0.0
  0
SEQEND
  5
23D0
  8
0
  0
LINE
  5
1750
  8
0
 10
158.612269199216
 20
169.0
 30
0.0
 11
158.612269199216
 21
178.0
 31
0.0
  0
LINE
  5
1751
  8
0
 10
141.68773080078401
 20
178.0
 30
0.0
 11
141.68773080078401
 21
169.0
 31
0.0
  0
LINE
  5
175C
  8
0
 10
155.65000000000001
 20
169.0
 30
0.0
 11
155.65000000000001
 21
178.0
 31
0.0
  0
LINE
  5
175D
  8
0
 10
144.65000000000001
 20
178.0
 30
0.0
 11
144.65000000000001
 21
169.0
 31
0.0
  0
POLYLINE
  5
175F
  8
0
 66
     1
 10
0.0
 20
0.0
 30
0.0
  0
VERTEX
  5
23D1
  8
0
 10
244.84692515335209
 20
167.02727407866311
 30
0.0
  0
VERTEX
  5
23D2
  8
0
 10
245.17806115898691
 20
167.8737339363401
 30
0.0
  0
VERTEX
  5
23D3
  8
0
 10
245.45968219300431
 20
168.7278783264984
 30
0.0
  0
VERTEX
  5
23D4
  8
0
 10
245.6923883496415
 20
169.58651071684639
 30
0.0
  0
VERTEX
  5
23D5
  8
0
 10
245.88182274934351
 20
170.47435809797099
 30
0.0
  0
VERTEX
  5
23D6
  8
0
 10
246.02169969448499
 20
171.363164240857
 30
0.0
  0
VERTEX
  5
23D7
  8
0
 10
246.11237178609849
 20
172.243043032141
 30
0.0
  0
VERTEX
  5
23D8
  8
0
 10
246.1313196775358
 20
172.52432702642469
 30
0.0
  0
VERTEX
  5
23D9
  8
0
 10
246.1407335130489
 20
172.7002115911082
 30
0.0
  0
VERTEX
  5
23DA
  8
0
 10
246.14678761256451
 20
172.83762477142761
 30
0.0
  0
VERTEX
  5
23DB
  8
0
 10
246.1488017002535
 20
172.8901786198694
 30
0.0
  0
VERTEX
  5
23DC
  8
0
 10
246.14980234686271
 20
172.9180532282987
 30
0.0
  0
VERTEX
  5
23DD
  8
0
 10
246.15000000000001
 20
172.92371881863079
 30
0.0
  0
SEQEND
  5
23DE
  8
0
  0
POLYLINE
  5
1760
  8
0
 66
     1
 10
0.0
 20
0.0
 30
0.0
  0
VERTEX
  5
23DF
  8
0
 10
246.15000000000001
 20
174.07628118136921
 30
0.0
  0
VERTEX
  5
23E0
  8
0
 10
246.1496736473029
 20
174.0856063550201
 30
0.0
  0
VERTEX
  5
23E1
  8
0
 10
246.14835289640411
 20
174.12191729871151
 30
0.0
  0
VERTEX
  5
23E2
  8
0
 10
246.1453987558925
 20
174.1961223294459
 30
0.0
  0
VERTEX
  5
23E3
  8
0
 10
246.14162436922979
 20
174.28108948935591
 30
0.0
  0
VERTEX
  5
23E4
  8
0
 10
246.11656456441969
 20
174.6987803190336
 30
0.0
  0
VERTEX
  5
23E5
  8
0
 10
246.07932255270271
 20
175.1351134360406
 30
0.0
  0
VERTEX
  5
23E6
  8
0
 10
245.92151526930201
 20
176.30293933659939
 30
0.0
  0
VERTEX
  5
23E7
  8
0
 10
245.67724737305119
 20
177.47428725716651
 30
0.0
  0
VERTEX
  5
23E8
  8
0
 10
245.34528585949371
 20
178.63819468460269
 30
0.0
  0
VERTEX
  5
23E9
  8
0
 10
245.11155939450069
 20
179.30774141129001
 30
0.0
  0
VERTEX
  5
23EA
  8
0
 10
244.84692515335209
 20
179.9727259213368
 30
0.0
  0
SEQEND
  5
23EB
  8
0
  0
LINE
  5
1761
  8
0
 10
246.15000000000001
 20
172.92371881863079
 30
0.0
 11
246.15000000000001
 21
174.07628118136921
 31
0.0
  0
LINE
  5
1762
  8
0
 10
203.65000000000009
 20
160.5
 30
0.0
 11
181.28999999999999
 21
161.5
 31
0.0
  0
LINE
  5
1763
  8
0
 10
181.28999999999991
 20
185.5
 30
0.0
 11
203.65000000000001
 21
186.5
 31
0.0
  0
LINE
  5
1764
  8
0
 10
229.4782548476455
 20
190.09999999999999
 30
0.0
 11
203.65000000000001
 21
186.5
 31
0.0
  0
LINE
  5
1765
  8
0
 10
203.65000000000009
 20
160.5
 30
0.0
 11
229.4782548476455
 21
156.90000000000001
 31
0.0
  0
LINE
  5
1767
  8
0
 10
230.126281181369
 20
156.90000000000001
 30
0.0
 11
229.4782548476455
 21
156.90000000000001
 31
0.0
  0
POLYLINE
  5
1768
  8
0
 66
     1
 10
0.0
 20
0.0
 30
0.0
  0
VERTEX
  5
23EC
  8
0
 10
230.12628118136911
 20
156.90000000000001
 30
0.0
  0
VERTEX
  5
23ED
  8
0
 10
231.11750428776261
 20
156.9642197384546
 30
0.0
  0
VERTEX
  5
23EE
  8
0
 10
232.09572082053
 20
157.08633575192559
 30
0.0
  0
VERTEX
  5
23EF
  8
0
 10
233.05620657635461
 20
157.26427964505649
 30
0.0
  0
VERTEX
  5
23F0
  8
0
 10
234.0257170363297
 20
157.50444030374729
 30
0.0
  0
VERTEX
  5
23F1
  8
0
 10
234.9725967494773
 20
157.8001469087628
 30
0.0
  0
VERTEX
  5
23F2
  8
0
 10
235.8931193228469
 20
158.14887830625639
 30
0.0
  0
VERTEX
  5
23F3
  8
0
 10
236.75842395683779
 20
158.53572072918081
 30
0.0
  0
VERTEX
  5
23F4
  8
0
 10
237.5968460090406
 20
158.96936740985819
 30
0.0
  0
VERTEX
  5
23F5
  8
0
 10
238.40589491664451
 20
159.4477679628697
 30
0.0
  0
VERTEX
  5
23F6
  8
0
 10
239.203025538589
 20
159.98295261425761
 30
0.0
  0
VERTEX
  5
23F7
  8
0
 10
239.967756100939
 20
160.5631599805692
 30
0.0
  0
VERTEX
  5
23F8
  8
0
 10
240.6977845122816
 20
161.1866332602437
 30
0.0
  0
VERTEX
  5
23F9
  8
0
 10
241.44071674830161
 20
161.9024860855512
 30
0.0
  0
VERTEX
  5
23FA
  8
0
 10
242.14150748470411
 20
162.66738962370519
 30
0.0
  0
VERTEX
  5
23FB
  8
0
 10
242.79696357450089
 20
163.47951817247051
 30
0.0
  0
VERTEX
  5
23FC
  8
0
 10
243.42484593638849
 20
164.36880793588711
 30
0.0
  0
VERTEX
  5
23FD
  8
0
 10
243.9998492118383
 20
165.3090318027339
 30
0.0
  0
VERTEX
  5
23FE
  8
0
 10
244.51701685592079
 20
166.29718760243031
 30
0.0
  0
VERTEX
  5
23FF
  8
0
 10
244.8469251533522
 20
167.02727407866311
 30
0.0
  0
SEQEND
  5
2400
  8
0
  0
POLYLINE
  5
176A
  8
0
 66
     1
 10
0.0
 20
0.0
 30
0.0
  0
VERTEX
  5
2401
  8
0
 10
244.84692515335209
 20
179.9727259213368
 30
0.0
  0
VERTEX
  5
2402
  8
0
 10
244.34182729470641
 20
181.0554720281917
 30
0.0
  0
VERTEX
  5
2403
  8
0
 10
243.7671270112584
 20
182.0874680042275
 30
0.0
  0
VERTEX
  5
2404
  8
0
 10
243.1284910578932
 20
183.06529951670751
 30
0.0
  0
VERTEX
  5
2405
  8
0
 10
242.43158618949579
 20
183.985552232895
 30
0.0
  0
VERTEX
  5
2406
  8
0
 10
241.68207916095119
 20
184.84481182005311
 30
0.0
  0
VERTEX
  5
2407
  8
0
 10
240.88542220334341
 20
185.64064910844741
 30
0.0
  0
VERTEX
  5
2408
  8
0
 10
240.03726020425199
 20
186.3801514664251
 30
0.0
  0
VERTEX
  5
2409
  8
0
 10
239.14134597064481
 20
187.06049425517179
 30
0.0
  0
VERTEX
  5
240A
  8
0
 10
238.20143230949009
 20
187.67885283587361
 30
0.0
  0
VERTEX
  5
240B
  8
0
 10
237.2212720277555
 20
188.2324025697161
 30
0.0
  0
VERTEX
  5
240C
  8
0
 10
236.26581759433449
 20
188.69109916597441
 30
0.0
  0
VERTEX
  5
240D
  8
0
 10
235.2727437523923
 20
189.09136366734629
 30
0.0
  0
VERTEX
  5
240E
  8
0
 10
234.2470389415974
 20
189.43001433868619
 30
0.0
  0
VERTEX
  5
240F
  8
0
 10
233.19369160161881
 20
189.70386944484841
 30
0.0
  0
VERTEX
  5
2410
  8
0
 10
232.11769017212509
 20
189.90974725068739
 30
0.0
  0
VERTEX
  5
2411
  8
0
 10
231.02402309278509
 20
190.04446602105779
 30
0.0
  0
VERTEX
  5
2412
  8
0
 10
230.12628118136951
 20
190.09999999999999
 30
0.0
  0
SEQEND
  5
2413
  8
0
  0
LINE
  5
176B
  8
0
 10
230.126281181369
 20
190.09999999999999
 30
0.0
 11
229.4782548476455
 21
190.09999999999999
 31
0.0
  0
LINE
  5
176C
  8
0
 10
138.15000000000001
 20
169.0
 30
0.0
 11
159.65000000000001
 21
169.0
 31
0.0
  0
LINE
  5
176D
  8
0
 10
159.65000000000001
 20
178.0
 30
0.0
 11
138.15000000000001
 21
178.0
 31
0.0
  0
POLYLINE
  5
176E
  8
0
 66
     1
 10
0.0
 20
0.0
 30
0.0
  0
VERTEX
  5
2414
  8
0
 10
159.65000000000001
 20
178.0
 30
0.0
  0
VERTEX
  5
2415
  8
0
 10
159.82711734570029
 20
177.98409277634241
 30
0.0
  0
VERTEX
  5
2416
  8
0
 10
159.9998679948439
 20
177.93679901055879
 30
0.0
  0
VERTEX
  5
2417
  8
0
 10
160.16338610507131
 20
177.8580130237427
 30
0.0
  0
VERTEX
  5
2418
  8
0
 10
160.31183718070741
 20
177.74964761470531
 30
0.0
  0
VERTEX
  5
2419
  8
0
 10
160.43373141885061
 20
177.62088166811481
 30
0.0
  0
VERTEX
  5
241A
  8
0
 10
160.5322028744344
 20
177.47086950245219
 30
0.0
  0
VERTEX
  5
241B
  8
0
 10
160.59866520206489
 20
177.31588833707841
 30
0.0
  0
VERTEX
  5
241C
  8
0
 10
160.63855157412331
 20
177.1508833499706
 30
0.0
  0
VERTEX
  5
241D
  8
0
 10
160.6500000000002
 20
177.0
 30
0.0
  0
SEQEND
  5
241E
  8
0
  0
LINE
  5
176F
  8
0
 10
160.65000000000001
 20
170.0
 30
0.0
 11
160.65000000000001
 21
177.0
 31
0.0
  0
POLYLINE
  5
1770
  8
0
 66
     1
 10
0.0
 20
0.0
 30
0.0
  0
VERTEX
  5
241F
  8
0
 10
160.65000000000001
 20
170.0
 30
0.0
  0
VERTEX
  5
2420
  8
0
 10
160.63700857061821
 20
169.83997713608269
 30
0.0
  0
VERTEX
  5
2421
  8
0
 10
160.59894239517581
 20
169.68455058941581
 30
0.0
  0
VERTEX
  5
2422
  8
0
 10
160.5369683517946
 20
169.53836554426451
 30
0.0
  0
VERTEX
  5
2423
  8
0
 10
160.4536112551848
 20
169.40484543978869
 30
0.0
  0
VERTEX
  5
2424
  8
0
 10
160.34880254210401
 20
169.28479637992399
 30
0.0
  0
VERTEX
  5
2425
  8
0
 10
160.2278313026589
 20
169.18384377373721
 30
0.0
  0
VERTEX
  5
2426
  8
0
 10
160.0859379814913
 20
169.10010869976969
 30
0.0
  0
VERTEX
  5
2427
  8
0
 10
159.9339497045099
 20
169.04116082406449
 30
0.0
  0
VERTEX
  5
2428
  8
0
 10
159.65000000000001
 20
169.0
 30
0.0
  0
SEQEND
  5
2429
  8
0
  0
LINE
  5
1773
  8
0
 10
181.28999999999999
 20
185.5
 30
0.0
 11
138.15000000000001
 21
185.5
 31
0.0
  0
LINE
  5
1774
  8
0
 10
138.15000000000001
 20
185.5
 30
0.0
 11
138.15000000000001
 21
178.0
 31
0.0
  0
LINE
  5
1776
  8
0
 10
138.15000000000001
 20
169.0
 30
0.0
 11
138.15000000000001
 21
161.5
 31
0.0
  0
LINE
  5
1777
  8
0
 10
138.15000000000001
 20
161.5
 30
0.0
 11
181.29000000000011
 21
161.5
 31
0.0
  0
ARC
  5
182D
  8
0
 10
150.15000000000001
 20
173.5
 30
0.0
 40
13.550000000000001
 50
62.326540699039533
 51
117.6734593009604
  0
ARC
  5
182E
  8
0
 10
150.15000000000001
 20
173.5
 30
0.0
 40
13.550000000000001
 50
152.3265406990399
 51
207.6734593009601
  0
ARC
  5
182F
  8
0
 10
150.15000000000001
 20
173.5
 30
0.0
 40
13.550000000000001
 50
242.3265406990395
 51
297.67345930096047
  0
CIRCLE
  5
1836
  8
0
 10
150.15000000000001
 20
173.5
 30
0.0
 40
4.0
  0
ARC
  5
1837
  8
3
 10
150.15000000000001
 20
173.5
 30
0.0
 40
3.323499999999739
 50
280.400782093239
 51
79.59921790676097
  0
LINE
  5
1932
  8
3
 10
63.276500000000283
 20
98.232278316851989
 30
0.0
 11
63.276500000000269
 21
100.0
 31
0.0
  0
LINE
  5
1933
  8
3
 10
69.923499999999763
 20
98.232273915514355
 30
0.0
 11
69.923499999999777
 21
100.0
 31
0.0
  0
LINE
  5
1B2A
  8
0
 10
163.69999999999999
 20
77.0
 30
0.0
 11
136.59999999999999
 21
77.0
 31
0.0
  0
LINE
  5
1B2C
  8
0
 10
80.150000000000034
 20
77.0
 30
0.0
 11
53.050000000000033
 21
77.0
 31
0.0
  0
LINE
  5
1EEB
  8
0
 10
150.75
 20
177.45474398665701
 30
0.0
 11
150.75
 21
169.54525601334291
 31
0.0
  0
LINE
  5
1EEC
  8
0
 10
149.55000000000001
 20
177.45474398665701
 30
0.0
 11
149.55000000000001
 21
169.54525601334291
 31
0.0
  0
ARC
  5
1EF4
  8
3
 10
150.15000000000001
 20
173.5
 30
0.0
 40
3.323499999999739
 50
100.4007820932385
 51
259.5992179067614
  0
LINE
  5
2014
  8
0
 10
62.64525601334298
 20
99.54000000000002
 30
0.0
 11
63.111217977574427
 21
100.0
 31
0.0
  0
LINE
  5
20B1
  8
3
 10
63.276500000000269
 20
87.5
 30
0.0
 11
63.276500000000269
 21
87.767726084485645
 31
0.0
  0
LINE
  5
20B2
  8
3
 10
69.923499999999763
 20
87.5
 30
0.0
 11
69.923499999999777
 21
87.767721683148011
 31
0.0
  0
ENDSEC
  0
EOF
