  0
SECTION
  2
HEADER
  9
$ACADVER
  1
AC1009
  9
$INSBASE
 10
0.0
 20
0.0
 30
0.0
  9
$EXTMIN
 10
0.0
 20
-2.960436562073669
 30
0.0
  9
$EXTMAX
 10
195.1999999999999034
 20
156.0999999999999943
 30
0.0
  9
$LIMMIN
 10
0.0
 20
0.0
  9
$LIMMAX
 10
375.0
 20
270.0
  9
$ORTHOMODE
 70
     0
  9
$REGENMODE
 70
     1
  9
$FILLMODE
 70
     1
  9
$QTEXTMODE
 70
     0
  9
$MIRRTEXT
 70
     0
  9
$DRAGMODE
 70
     2
  9
$LTSCALE
 40
5.0
  9
$OSMODE
 70
    37
  9
$ATTMODE
 70
     1
  9
$TEXTSIZE
 40
0.2
  9
$TRACEWID
 40
0.05
  9
$TEXTSTYLE
  7
STANDARD
  9
$CLAYER
  8
0
  9
$CELTYPE
  6
BYLAYER
  9
$CECOLOR
 62
   256
  9
$DIMSCALE
 40
1.0
  9
$DIMASZ
 40
3.0
  9
$DIMEXO
 40
2.0
  9
$DIMDLI
 40
10.0
  9
$DIMRND
 40
0.0
  9
$DIMDLE
 40
0.0
  9
$DIMEXE
 40
2.0
  9
$DIMTP
 40
0.0
  9
$DIMTM
 40
0.0
  9
$DIMTXT
 40
3.2000000000000002
  9
$DIMCEN
 40
0.0
  9
$DIMTSZ
 40
0.0
  9
$DIMTOL
 70
     0
  9
$DIMLIM
 70
     0
  9
$DIMTIH
 70
     0
  9
$DIMTOH
 70
     0
  9
$DIMSE1
 70
     0
  9
$DIMSE2
 70
     0
  9
$DIMTAD
 70
     1
  9
$DIMZIN
 70
     8
  9
$DIMBLK
  1

  9
$DIMASO
 70
     0
  9
$DIMSHO
 70
     0
  9
$DIMPOST
  1

  9
$DIMAPOST
  1

  9
$DIMALT
 70
     0
  9
$DIMALTD
 70
     2
  9
$DIMALTF
 40
25.3999999999999986
  9
$DIMLFAC
 40
1.0
  9
$DIMTOFL
 70
     1
  9
$DIMTVP
 40
1.6000000000000001
  9
$DIMTIX
 70
     0
  9
$DIMSOXD
 70
     0
  9
$DIMSAH
 70
     0
  9
$DIMBLK1
  1

  9
$DIMBLK2
  1

  9
$DIMSTYLE
  2
STANDARD
  9
$DIMCLRD
 70
   256
  9
$DIMCLRE
 70
   256
  9
$DIMCLRT
 70
   256
  9
$DIMTFAC
 40
1.0
  9
$DIMGAP
 40
0.5
  9
$LUNITS
 70
     2
  9
$LUPREC
 70
     1
  9
$SKETCHINC
 40
0.1
  9
$FILLETRAD
 40
0.0
  9
$AUNITS
 70
     0
  9
$AUPREC
 70
     1
  9
$MENU
  1
E:\r13\win\SUPPORT\ACAD
  9
$ELEVATION
 40
0.0
  9
$PELEVATION
 40
0.0
  9
$THICKNESS
 40
0.0
  9
$LIMCHECK
 70
     0
  9
$BLIPMODE
 70
     0
  9
$CHAMFERA
 40
0.0
  9
$CHAMFERB
 40
0.0
  9
$SKPOLY
 70
     0
  9
$TDCREATE
 40
2449840.6171180559322238
  9
$TDUPDATE
 40
2460566.5206365738995373
  9
$TDINDWG
 40
0.2684543287
  9
$TDUSRTIMER
 40
0.2684543287
  9
$USRTIMER
 70
     1
  9
$ANGBASE
 50
0.0
  9
$ANGDIR
 70
     0
  9
$PDMODE
 70
     0
  9
$PDSIZE
 40
0.0
  9
$PLINEWID
 40
0.0
  9
$COORDS
 70
     1
  9
$SPLFRAME
 70
     0
  9
$SPLINETYPE
 70
     6
  9
$SPLINESEGS
 70
     8
  9
$ATTDIA
 70
     1
  9
$ATTREQ
 70
     1
  9
$HANDLING
 70
     1
  9
$HANDSEED
  5
37F1
  9
$SURFTAB1
 70
     6
  9
$SURFTAB2
 70
     6
  9
$SURFTYPE
 70
     6
  9
$SURFU
 70
     6
  9
$SURFV
 70
     6
  9
$UCSNAME
  2

  9
$UCSORG
 10
0.0
 20
0.0
 30
0.0
  9
$UCSXDIR
 10
1.0
 20
0.0
 30
0.0
  9
$UCSYDIR
 10
0.0
 20
1.0
 30
0.0
  9
$PUCSNAME
  2

  9
$PUCSORG
 10
0.0
 20
0.0
 30
0.0
  9
$PUCSXDIR
 10
1.0
 20
0.0
 30
0.0
  9
$PUCSYDIR
 10
0.0
 20
1.0
 30
0.0
  9
$USERI1
 70
     0
  9
$USERI2
 70
     1
  9
$USERI3
 70
     0
  9
$USERI4
 70
     0
  9
$USERI5
 70
     0
  9
$USERR1
 40
0.0
  9
$USERR2
 40
0.0
  9
$USERR3
 40
0.0
  9
$USERR4
 40
0.0
  9
$USERR5
 40
0.0
  9
$WORLDVIEW
 70
     1
  9
$SHADEDGE
 70
     3
  9
$SHADEDIF
 70
    70
  9
$TILEMODE
 70
     1
  9
$MAXACTVP
 70
    16
  9
$PLIMCHECK
 70
     0
  9
$PEXTMIN
 10
1.0000000000000000E+20
 20
1.0000000000000000E+20
 30
1.0000000000000000E+20
  9
$PEXTMAX
 10
-1.0000000000000000E+20
 20
-1.0000000000000000E+20
 30
-1.0000000000000000E+20
  9
$PLIMMIN
 10
0.0
 20
0.0
  9
$PLIMMAX
 10
12.0
 20
9.0
  9
$UNITMODE
 70
     0
  9
$VISRETAIN
 70
     0
  9
$PLINEGEN
 70
     0
  9
$PSLTSCALE
 70
     0
  0
ENDSEC
  0
SECTION
  2
TABLES
  0
TABLE
  2
VPORT
 70
     1
  0
VPORT
  2
*ACTIVE
 70
     0
 10
0.0
 20
0.0
 11
1.0
 21
1.0
 12
122.6231883754159071
 22
76.5718027631785247
 13
0.0
 23
0.0
 14
10.0
 24
10.0
 15
10.0
 25
10.0
 16
0.0
 26
0.0
 36
1.0
 17
0.0
 27
0.0
 37
0.0
 40
160.3608428099011007
 41
2.3485221674876842
 42
50.0
 43
0.0
 44
0.0
 50
0.0
 51
0.0
 71
     0
 72
   100
 73
     1
 74
     0
 75
     0
 76
     0
 77
     0
 78
     0
  0
ENDTAB
  0
TABLE
  2
LTYPE
 70
     4
  0
LTYPE
  2
CONTINUOUS
 70
     0
  3
Solid Line
 72
    65
 73
     0
 40
0.0
  0
LTYPE
  2
CENTER
 70
     0
  3
____ _ ____ _ ____ _ ____ _ ____ _ ____ _ ____
 72
    65
 73
     4
 40
2.0
 49
1.25
 49
-0.25
 49
0.25
 49
-0.25
  0
LTYPE
  2
PHANTOM2
 70
     0
  3
___ _ _ ___ _ _ ___ _ _ ___ _ _
 72
    65
 73
     6
 40
1.25
 49
0.625
 49
-0.125
 49
0.125
 49
-0.125
 49
0.125
 49
-0.125
  0
LTYPE
  2
HIDDEN
 70
     0
  3
Hidden __ __ __ __ __ __ __ __ __ __ __ __ __ _
 72
    65
 73
     2
 40
0.375
 49
0.25
 49
-0.125
  0
ENDTAB
  0
TABLE
  2
LAYER
 70
     5
  0
LAYER
  2
0
 70
     0
 62
     7
  6
CONTINUOUS
  0
LAYER
  2
1
 70
     0
 62
     1
  6
CENTER
  0
LAYER
  2
3
 70
     0
 62
     3
  6
CONTINUOUS
  0
LAYER
  2
DEFPOINTS
 70
     0
 62
     7
  6
CONTINUOUS
  0
LAYER
  2
2
 70
     0
 62
     2
  6
HIDDEN
  0
ENDTAB
  0
TABLE
  2
STYLE
 70
     2
  0
STYLE
  2
STANDARD
 70
     0
 40
0.0
 41
1.0
 50
0.0
 71
     0
 42
0.2
  3
TXT
  4
BIGFONT
  0
STYLE
  2
STANDARD1
 70
     0
 40
0.0
 41
1.0
 50
0.0
 71
     0
 42
3.0
  3
txt
  4

  0
ENDTAB
  0
TABLE
  2
VIEW
 70
     1
  0
VIEW
  2
ALL
 70
     0
 40
270.0
 10
220.9915970000000129
 20
135.0
 41
0.0
 11
0.0
 21
0.0
 31
1.0
 12
0.0
 22
0.0
 32
0.0
 42
0.0
 43
0.0
 44
0.0
 50
0.0
 71
     0
  0
ENDTAB
  0
TABLE
  2
UCS
 70
     0
  0
ENDTAB
  0
TABLE
  2
APPID
 70
     6
  0
APPID
  2
ACAD
 70
     0
  0
APPID
  2
ACAD_EXEMPT_FROM_CAD_STANDARDS
 70
     0
  0
APPID
  2
ACAD_MLEADERVER
 70
     0
  0
APPID
  2
ACAD_NAV_VCDISPLAY
 70
     0
  0
APPID
  2
ACAD_DSTYLE_DIMJAG
 70
     0
  0
APPID
  2
ACAD_DSTYLE_DIMTALN
 70
     0
  0
ENDTAB
  0
TABLE
  2
DIMSTYLE
 70
     1
  0
DIMSTYLE
  2
STANDARD
 70
     0
  3

  4

  5

  6

  7

 40
1.0
 41
0.18
 42
0.0625
 43
0.38
 44
0.18
 45
0.0
 46
0.0
 47
0.0
 48
0.0
140
0.18
141
0.09
142
0.0
143
25.3999999999999986
144
1.0
145
0.0
146
1.0
147
0.09
 71
     0
 72
     0
 73
     1
 74
     1
 75
     0
 76
     0
 77
     0
 78
     0
170
     0
171
     2
172
     0
173
     0
174
     0
175
     0
176
     0
177
     0
178
     0
  0
ENDTAB
  0
ENDSEC
  0
SECTION
  2
BLOCKS
  0
BLOCK
  8
0
  2
$MODEL_SPACE
 70
     0
 10
0.0
 20
0.0
 30
0.0
  3
$MODEL_SPACE
  1

  0
ENDBLK
  5
E8
  8
0
  0
BLOCK
 67
     1
  8
0
  2
$PAPER_SPACE
 70
     0
 10
0.0
 20
0.0
 30
0.0
  3
$PAPER_SPACE
  1

  0
ENDBLK
  5
E6
 67
     1
  8
0
  0
ENDSEC
  0
SECTION
  2
ENTITIES
  0
TEXT
  5
AFF
  8
0
 62
     3
 10
0.0
 20
0.0
 30
0.0
 40
10.0
  1
KCLF05X50
  7
STANDARD1
  0
LINE
  5
10A9
  8
0
 10
121.8094999999999004
 20
19.9999999999999893
 30
0.0
 11
122.2999999999998977
 21
20.4904999999999902
 31
0.0
  0
LINE
  5
10AA
  8
0
 10
117.2999999999998977
 20
20.4904999999999902
 30
0.0
 11
117.790499999999895
 21
19.9999999999999893
 31
0.0
  0
LINE
  5
10AB
  8
0
 10
121.8094999999999004
 20
19.9999999999999893
 30
0.0
 11
117.790499999999895
 21
19.9999999999999893
 31
0.0
  0
LINE
  5
10AC
  8
0
 10
117.2999999999998977
 20
70.0
 30
0.0
 11
117.2999999999998977
 21
20.4904999999999902
 31
0.0
  0
LINE
  5
10AD
  8
0
 10
122.2999999999998977
 20
20.4904999999999902
 30
0.0
 11
122.2999999999998977
 21
70.0
 31
0.0
  0
LINE
  5
10AE
  8
0
 10
122.2999999999998977
 20
20.4904999999999902
 30
0.0
 11
117.2999999999998977
 21
20.4904999999999902
 31
0.0
  0
LINE
  5
10B2
  8
3
 10
121.8670000000004023
 20
20.0575000000004486
 30
0.0
 11
121.8670000000004023
 21
70.0
 31
0.0
  0
LINE
  5
10B3
  8
3
 10
117.7329999999995067
 20
20.0575000000004486
 30
0.0
 11
117.7329999999995067
 21
70.0
 31
0.0
  0
LINE
  5
10E2
  8
1
 10
119.7999999999998977
 20
14.9999999999999893
 30
0.0
 11
119.7999999999999972
 21
97.2500000000000284
 31
0.0
  0
LINE
  5
110A
  8
1
 10
60.75
 20
97.0500000000000114
 30
0.0
 11
60.75
 21
14.9999999999999893
 31
0.0
  0
POLYLINE
  5
111E
  8
0
 66
     1
 10
0.0
 20
0.0
 30
0.0
  0
VERTEX
  5
32D1
  8
0
 10
61.5003185989963796
 20
88.566999999987047
 30
0.0
  0
VERTEX
  5
32D2
  8
0
 10
61.825225290137837
 20
88.6149726663640962
 30
0.0
  0
VERTEX
  5
32D3
  8
0
 10
62.0305283562869292
 20
88.6535498149776799
 30
0.0
  0
VERTEX
  5
32D4
  8
0
 10
62.2283813920813529
 20
88.6965302704875853
 30
0.0
  0
VERTEX
  5
32D5
  8
0
 10
62.4199080883647568
 20
88.7433464988663872
 30
0.0
  0
VERTEX
  5
32D6
  8
0
 10
62.5999340534999575
 20
88.7918274561502443
 30
0.0
  0
VERTEX
  5
32D7
  8
0
 10
62.8299324864591426
 20
88.8597707621245831
 30
0.0
  0
VERTEX
  5
32D8
  8
0
 10
63.0238488216494872
 20
88.9220161062989973
 30
0.0
  0
VERTEX
  5
32D9
  8
0
 10
63.1405413788326015
 20
88.9615522590112278
 30
0.0
  0
VERTEX
  5
32DA
  8
0
 10
63.218804275722853
 20
88.9889106144788684
 30
0.0
  0
VERTEX
  5
32DB
  8
0
 10
63.2494720981554721
 20
88.9998114784425667
 30
0.0
  0
VERTEX
  5
32DC
  8
0
 10
63.2499999998008207
 20
88.9999999999159144
 30
0.0
  0
SEQEND
  5
32DD
  8
0
  0
POLYLINE
  5
111F
  8
0
 66
     1
 10
0.0
 20
0.0
 30
0.0
  0
VERTEX
  5
32DE
  8
0
 10
59.9996814010034925
 20
88.566999999987047
 30
0.0
  0
VERTEX
  5
32DF
  8
0
 10
60.2958184303664666
 20
88.5229083879813032
 30
0.0
  0
VERTEX
  5
32E0
  8
0
 10
60.6131117491100895
 20
88.4995311466630454
 30
0.0
  0
VERTEX
  5
32E1
  8
0
 10
60.9260153852083022
 20
88.5010614111415634
 30
0.0
  0
VERTEX
  5
32E2
  8
0
 10
61.2430352556193611
 20
88.5274799519276598
 30
0.0
  0
VERTEX
  5
32E3
  8
0
 10
61.5003185989963796
 20
88.566999999987047
 30
0.0
  0
SEQEND
  5
32E4
  8
0
  0
LINE
  5
1122
  8
0
 10
63.75
 20
88.9999999999870255
 30
0.0
 11
63.2499999999999432
 21
88.9999999999870255
 31
0.0
  0
LINE
  5
1123
  8
0
 10
58.2499999999994316
 20
88.9999999999870255
 30
0.0
 11
57.75
 21
88.9999999999870255
 31
0.0
  0
LINE
  5
1124
  8
0
 10
57.75
 20
79.9999999999870397
 30
0.0
 11
58.25
 21
79.9999999999870397
 31
0.0
  0
POLYLINE
  5
1125
  8
0
 66
     1
 10
0.0
 20
0.0
 30
0.0
  0
VERTEX
  5
32E5
  8
0
 10
58.2500000001991225
 20
88.9999999999159144
 30
0.0
  0
VERTEX
  5
32E6
  8
0
 10
58.2686268658395008
 20
88.9933660437143175
 30
0.0
  0
VERTEX
  5
32E7
  8
0
 10
58.3259368757727614
 20
88.973188882717011
 30
0.0
  0
VERTEX
  5
32E8
  8
0
 10
58.4214400603413608
 20
88.9403627274173232
 30
0.0
  0
VERTEX
  5
32E9
  8
0
 10
58.55618076057862
 20
88.895794668047472
 30
0.0
  0
VERTEX
  5
32EA
  8
0
 10
58.7244102631930218
 20
88.8431283090605461
 30
0.0
  0
VERTEX
  5
32EB
  8
0
 10
58.8620965905965932
 20
88.8025883245620662
 30
0.0
  0
VERTEX
  5
32EC
  8
0
 10
59.012570716743312
 20
88.7610320846434746
 30
0.0
  0
VERTEX
  5
32ED
  8
0
 10
59.1768603800721777
 20
88.7190657234374385
 30
0.0
  0
VERTEX
  5
32EE
  8
0
 10
59.3515870321800705
 20
88.6784869693300379
 30
0.0
  0
VERTEX
  5
32EF
  8
0
 10
59.6639793583976825
 20
88.6168446250835444
 30
0.0
  0
VERTEX
  5
32F0
  8
0
 10
59.9996814010034925
 20
88.566999999987047
 30
0.0
  0
SEQEND
  5
32F1
  8
0
  0
POLYLINE
  5
1147
  8
0
 66
     1
 10
0.0
 20
0.0
 30
0.0
  0
VERTEX
  5
32F2
  8
0
 10
63.2499999998943281
 20
77.7593800440305785
 30
0.0
  0
VERTEX
  5
32F3
  8
0
 10
63.3610825150133223
 20
77.6787831917980611
 30
0.0
  0
VERTEX
  5
32F4
  8
0
 10
63.4784225024140483
 20
77.5628780856631579
 30
0.0
  0
VERTEX
  5
32F5
  8
0
 10
63.6071376844442966
 20
77.3855788624327943
 30
0.0
  0
VERTEX
  5
32F6
  8
0
 10
63.694713394081873
 20
77.2003297159554904
 30
0.0
  0
VERTEX
  5
32F7
  8
0
 10
63.7359608300357579
 20
77.0490829464503122
 30
0.0
  0
VERTEX
  5
32F8
  8
0
 10
63.75
 20
76.8993827957626763
 30
0.0
  0
SEQEND
  5
32F9
  8
0
  0
POLYLINE
  5
1148
  8
0
 66
     1
 10
0.0
 20
0.0
 30
0.0
  0
VERTEX
  5
32FA
  8
0
 10
57.75
 20
76.8993827957626763
 30
0.0
  0
VERTEX
  5
32FB
  8
0
 10
57.7677886237408984
 20
77.0682444292744435
 30
0.0
  0
VERTEX
  5
32FC
  8
0
 10
57.819981386246468
 20
77.2386584835600161
 30
0.0
  0
VERTEX
  5
32FD
  8
0
 10
57.9276019289043234
 20
77.4408260776101542
 30
0.0
  0
VERTEX
  5
32FE
  8
0
 10
58.0856812741083104
 20
77.6302615903881019
 30
0.0
  0
VERTEX
  5
32FF
  8
0
 10
58.1939413379873827
 20
77.722848363545836
 30
0.0
  0
VERTEX
  5
3300
  8
0
 10
58.2499999998943281
 20
77.7590417453631773
 30
0.0
  0
SEQEND
  5
3301
  8
0
  0
POLYLINE
  5
188D
  8
0
 66
     1
 10
0.0
 20
0.0
 30
0.0
  0
VERTEX
  5
3302
  8
0
 10
63.2499999998943565
 20
89.1251818177613444
 30
0.0
  0
VERTEX
  5
3303
  8
0
 10
63.3323069767351114
 20
89.1480864175319567
 30
0.0
  0
VERTEX
  5
3304
  8
0
 10
63.4509087845533699
 20
89.194753445290587
 30
0.0
  0
VERTEX
  5
3305
  8
0
 10
63.5512050369487724
 20
89.2495060710639905
 30
0.0
  0
VERTEX
  5
3306
  8
0
 10
63.6372019998592293
 20
89.3165365640203248
 30
0.0
  0
VERTEX
  5
3307
  8
0
 10
63.699192737774581
 20
89.3900586275290721
 30
0.0
  0
VERTEX
  5
3308
  8
0
 10
63.7373081942437167
 20
89.470678294553295
 30
0.0
  0
VERTEX
  5
3309
  8
0
 10
63.75
 20
89.5548475043257355
 30
0.0
  0
SEQEND
  5
330A
  8
0
  0
POLYLINE
  5
188E
  8
0
 66
     1
 10
0.0
 20
0.0
 30
0.0
  0
VERTEX
  5
330B
  8
0
 10
57.75
 20
89.5548475043257355
 30
0.0
  0
VERTEX
  5
330C
  8
0
 10
57.7668329535686027
 20
89.4583017209189251
 30
0.0
  0
VERTEX
  5
330D
  8
0
 10
57.8173044664479221
 20
89.3667756018024306
 30
0.0
  0
VERTEX
  5
330E
  8
0
 10
57.9024175385512194
 20
89.2825384375088333
 30
0.0
  0
VERTEX
  5
330F
  8
0
 10
58.0206262100299668
 20
89.2084897647958428
 30
0.0
  0
VERTEX
  5
3310
  8
0
 10
58.1561566978476492
 20
89.1520688301389868
 30
0.0
  0
VERTEX
  5
3311
  8
0
 10
58.2499999998943281
 20
89.1259587658454961
 30
0.0
  0
SEQEND
  5
3312
  8
0
  0
LINE
  5
188F
  8
0
 10
62.7594999998943308
 20
19.9999999999999893
 30
0.0
 11
63.2499999998943281
 21
20.4904999999999902
 31
0.0
  0
LINE
  5
1890
  8
0
 10
58.2499999998943281
 20
20.4904999999999902
 30
0.0
 11
58.7404999998943183
 21
19.9999999999999893
 31
0.0
  0
LINE
  5
1891
  8
0
 10
62.7594999998943308
 20
19.9999999999999893
 30
0.0
 11
58.7404999998943183
 21
19.9999999999999893
 31
0.0
  0
LINE
  5
1892
  8
0
 10
58.2499999998943281
 20
70.0
 30
0.0
 11
58.2499999998943281
 21
20.4904999999999902
 31
0.0
  0
LINE
  5
1893
  8
0
 10
63.2499999998943281
 20
20.4904999999999902
 30
0.0
 11
63.2499999998943281
 21
70.0
 31
0.0
  0
LINE
  5
1894
  8
0
 10
63.2499999998943281
 20
20.4904999999999902
 30
0.0
 11
58.2499999998943281
 21
20.4904999999999902
 31
0.0
  0
LINE
  5
1895
  8
3
 10
62.8169999998947901
 20
20.0575000000004486
 30
0.0
 11
62.8169999998947901
 21
70.0
 31
0.0
  0
LINE
  5
1896
  8
3
 10
58.682999999893859
 20
20.0575000000004486
 30
0.0
 11
58.682999999893859
 21
70.0
 31
0.0
  0
LINE
  5
18A4
  8
0
 10
58.2499999998943281
 20
79.9999999999870397
 30
0.0
 11
58.2499999998943281
 21
76.6999999999870283
 31
0.0
  0
LINE
  5
18A5
  8
0
 10
63.2499999998943281
 20
76.6999999999870283
 30
0.0
 11
63.2499999998943281
 21
80.0000000000247269
 31
0.0
  0
LINE
  5
1933
  8
0
 10
63.2500000000004903
 20
79.9999999999870397
 30
0.0
 11
63.75
 21
79.9999999999870397
 31
0.0
  0
POLYLINE
  5
1A61
  8
0
 66
     1
 10
0.0
 20
0.0
 30
0.0
  0
VERTEX
  5
3313
  8
0
 10
59.1346546808812334
 20
80.2704999999872939
 30
0.0
  0
VERTEX
  5
3314
  8
0
 10
58.8734014916970168
 20
80.2006347609323598
 30
0.0
  0
VERTEX
  5
3315
  8
0
 10
58.6410230346116279
 20
80.131188351902594
 30
0.0
  0
VERTEX
  5
3316
  8
0
 10
58.4767646164554264
 20
80.0781876798123449
 30
0.0
  0
VERTEX
  5
3317
  8
0
 10
58.3494951365413712
 20
80.0350019047863839
 30
0.0
  0
VERTEX
  5
3318
  8
0
 10
58.2731954288847831
 20
80.0082553870823858
 30
0.0
  0
VERTEX
  5
3319
  8
0
 10
58.2500000002686065
 20
80.0000000000829914
 30
0.0
  0
SEQEND
  5
331A
  8
0
  0
POLYLINE
  5
1A62
  8
0
 66
     1
 10
0.0
 20
0.0
 30
0.0
  0
VERTEX
  5
331B
  8
0
 10
62.3653453191191076
 20
80.2704999999870665
 30
0.0
  0
VERTEX
  5
331C
  8
0
 10
62.0857624051139112
 20
80.369160716785359
 30
0.0
  0
VERTEX
  5
331D
  8
0
 10
61.7673087772158667
 20
80.4609101398576172
 30
0.0
  0
VERTEX
  5
331E
  8
0
 10
61.5354265612638471
 20
80.5128061375996964
 30
0.0
  0
VERTEX
  5
331F
  8
0
 10
61.2906514148385995
 20
80.5537125257245066
 30
0.0
  0
VERTEX
  5
3320
  8
0
 10
61.0380320939528929
 20
80.5805239843509185
 30
0.0
  0
VERTEX
  5
3321
  8
0
 10
60.6842457386797776
 20
80.5902765471310545
 30
0.0
  0
VERTEX
  5
3322
  8
0
 10
60.3325737005393989
 20
80.5688965333403644
 30
0.0
  0
VERTEX
  5
3323
  8
0
 10
60.0185632892541889
 20
80.5231666003021331
 30
0.0
  0
VERTEX
  5
3324
  8
0
 10
59.7227622532779989
 20
80.4583979490312089
 30
0.0
  0
VERTEX
  5
3325
  8
0
 10
59.4097965526608007
 20
80.3677250297054684
 30
0.0
  0
VERTEX
  5
3326
  8
0
 10
59.1346546808808782
 20
80.2704999999870665
 30
0.0
  0
SEQEND
  5
3327
  8
0
  0
POLYLINE
  5
1A65
  8
0
 66
     1
 10
0.0
 20
0.0
 30
0.0
  0
VERTEX
  5
3328
  8
0
 10
63.2499999999574314
 20
80.0000000000022737
 30
0.0
  0
VERTEX
  5
3329
  8
0
 10
63.2274290410640916
 20
80.0080338880733137
 30
0.0
  0
VERTEX
  5
332A
  8
0
 10
63.1665284270249003
 20
80.029437391517078
 30
0.0
  0
VERTEX
  5
332B
  8
0
 10
63.0678490493883999
 20
80.0632555946122011
 30
0.0
  0
VERTEX
  5
332C
  8
0
 10
62.9291320013038487
 20
80.1089370192163983
 30
0.0
  0
VERTEX
  5
332D
  8
0
 10
62.7569883217363724
 20
80.1624857960033381
 30
0.0
  0
VERTEX
  5
332E
  8
0
 10
62.5718730972481225
 20
80.2160068831796451
 30
0.0
  0
VERTEX
  5
332F
  8
0
 10
62.3653453191191076
 20
80.2704999999870665
 30
0.0
  0
SEQEND
  5
3330
  8
0
  0
LINE
  5
2093
  8
0
 10
119.3999999999999062
 20
144.5177925358505888
 30
0.0
 11
119.3999999999999062
 21
139.5822074641494055
 31
0.0
  0
LINE
  5
2094
  8
0
 10
120.1999999999999034
 20
144.5177925358505888
 30
0.0
 11
120.1999999999999034
 21
139.5822074641494055
 31
0.0
  0
LINE
  5
21EA
  8
0
 10
62.9067202530694587
 20
91.4999999999870255
 30
0.0
 11
58.5932797469305271
 21
91.4999999999870255
 31
0.0
  0
LINE
  5
21EC
  8
0
 10
63.2177925358505988
 20
91.1934999999870541
 30
0.0
 11
58.2822074641493799
 21
91.1934999999870541
 31
0.0
  0
LINE
  5
21ED
  8
0
 10
58.2822074641493799
 20
91.1934999999870541
 30
0.0
 11
58.5932797469305271
 21
91.4999999999870255
 31
0.0
  0
LINE
  5
2200
  8
0
 10
63.2177925358505988
 20
91.1934999999870541
 30
0.0
 11
62.9067202530694587
 21
91.4999999999870255
 31
0.0
  0
LINE
  5
2203
  8
0
 10
58.2822074641493799
 20
91.1934999999870683
 30
0.0
 11
58.2822074641508365
 21
90.0968154480979138
 31
0.0
  0
LINE
  5
2204
  8
0
 10
63.2177925358558994
 20
90.0968154480984538
 30
0.0
 11
63.2177925358505988
 21
91.1935000000247555
 31
0.0
  0
LINE
  5
2207
  8
3
 10
62.817000000000462
 20
88.8559504061631742
 30
0.0
 11
62.817000000000462
 21
91.4999999999870255
 31
0.0
  0
LINE
  5
2208
  8
3
 10
58.682999999999538
 20
88.8560923121230246
 30
0.0
 11
58.682999999999538
 21
91.4999999999870255
 31
0.0
  0
LINE
  5
2DE0
  8
0
 10
58.25
 20
90.0993298234274818
 30
0.0
 11
58.2500000000014566
 21
88.9999999999870255
 31
0.0
  0
LINE
  5
2DE1
  8
0
 10
63.2499944832986998
 20
88.9999980298915432
 30
0.0
 11
63.249994483293392
 21
90.0993626245907393
 31
0.0
  0
LINE
  5
2DE6
  8
0
 10
58.25
 20
90.0993298234274818
 30
0.0
 11
58.2822074641508365
 21
90.0968154480979138
 31
0.0
  0
LINE
  5
2DE7
  8
0
 10
63.249994483293392
 20
90.0993626245907393
 30
0.0
 11
63.2177925358558994
 21
90.0968154480984538
 31
0.0
  0
LINE
  5
2E38
  8
0
 10
63.2499999998943281
 20
79.9999999999870397
 30
0.0
 11
58.2499999998943281
 21
79.9999999999870397
 31
0.0
  0
LINE
  5
2E3B
  8
3
 10
62.817000000000462
 20
79.9999999999870397
 30
0.0
 11
62.817000000000462
 21
80.1438179484701294
 31
0.0
  0
LINE
  5
2E3C
  8
3
 10
58.682999999999538
 20
79.9999999999870397
 30
0.0
 11
58.682999999999538
 21
80.1437331873607661
 31
0.0
  0
LINE
  5
3043
  8
0
 10
111.7999999999999972
 20
71.0
 30
0.0
 11
112.7999999999999972
 21
70.0
 31
0.0
  0
LINE
  5
3044
  8
0
 10
126.7999999999999972
 20
70.0
 30
0.0
 11
127.7999999999999972
 21
71.0
 31
0.0
  0
LINE
  5
3045
  8
0
 10
127.7999999999999972
 20
71.0
 30
0.0
 11
127.7999999999999972
 21
75.7000000000001023
 31
0.0
  0
LINE
  5
3046
  8
0
 10
111.7999999999999972
 20
75.7000000000001023
 30
0.0
 11
111.7999999999999972
 21
71.0
 31
0.0
  0
LINE
  5
3047
  8
0
 10
112.7999999999999972
 20
76.6999999999999886
 30
0.0
 11
111.8000000000000966
 21
75.7000000000001023
 31
0.0
  0
LINE
  5
3048
  8
0
 10
127.7999999999997982
 20
75.7000000000001023
 30
0.0
 11
126.7999999999999972
 21
76.6999999999999886
 31
0.0
  0
LINE
  5
3049
  8
0
 10
111.7999999999999972
 20
71.0
 30
0.0
 11
127.7999999999999972
 21
71.0
 31
0.0
  0
LINE
  5
304A
  8
0
 10
112.7999999999999972
 20
70.0
 30
0.0
 11
126.7999999999998977
 21
70.0
 31
0.0
  0
LINE
  5
304B
  8
0
 10
127.7999999999999972
 20
75.7000000000001023
 30
0.0
 11
124.189297808170906
 21
75.7000000000001307
 31
0.0
  0
LINE
  5
304C
  8
0
 10
115.8348392214183065
 20
75.7000000000001023
 30
0.0
 11
111.7999999999999972
 21
75.7000000000001023
 31
0.0
  0
LINE
  5
304D
  8
0
 10
114.2934130352821001
 20
76.6999999999999886
 30
0.0
 11
112.7999999999999972
 21
76.6999999999999886
 31
0.0
  0
LINE
  5
304E
  8
0
 10
126.7999999999999972
 20
76.6999999999999886
 30
0.0
 11
125.8120837781923029
 21
76.6999999999999886
 31
0.0
  0
CIRCLE
  5
304F
  8
0
 10
119.7999999999999972
 20
84.6999999999999744
 30
0.0
 40
4.5
  0
LINE
  5
3050
  8
0
 10
190.1999999999999886
 20
80.7895611645920866
 30
0.0
 11
190.2000000000001023
 21
81.6229007952895813
 31
0.0
  0
ARC
  5
3051
  8
0
 10
188.1900716592791127
 20
80.7894374679968337
 30
0.0
 40
2.0099283445272769
 50
240.1651766476219905
 51
0.003526142050936
  0
ARC
  5
3052
  8
0
 10
187.7065944246270135
 20
81.6261543523461768
 30
0.0
 40
2.4934076980980659
 50
359.9252367991045958
 51
52.596380782975757
  0
ARC
  5
3053
  8
0
 10
169.5799999999993872
 20
57.9899999999987585
 30
0.0
 40
32.2800000000014222
 50
52.5216175820793225
 51
71.3292277442377127
  0
ARC
  5
3054
  8
0
 10
164.798288977794499
 20
39.9962843893087623
 30
0.0
 40
45.0140744153158607
 50
60.169166131274693
 51
70.3791133258036439
  0
LINE
  5
3055
  8
0
 10
179.3630530973451016
 20
88.7518314164570938
 30
0.0
 11
179.9137885764251052
 21
88.5712232204296583
 31
0.0
  0
LINE
  5
3056
  8
0
 10
179.3630530973451016
 20
82.5889373486109264
 30
0.0
 11
179.9137885764251052
 21
82.3966212671142131
 31
0.0
  0
ARC
  5
3057
  8
0
 10
164.8000000000000114
 20
40.0000000000009095
 30
0.0
 40
50.8899999999990698
 50
76.0896677445099101
 51
95.6384716391328027
  0
LINE
  5
3058
  8
0
 10
177.0341132346225947
 20
89.3975563501114152
 30
0.0
 11
179.3630530973451016
 21
88.7518314164570938
 31
0.0
  0
ARC
  5
3059
  8
0
 10
164.8000000000000114
 20
39.9999999999997797
 30
0.0
 40
45.0100000000001828
 50
71.1221587576221168
 51
96.3779470016016404
  0
ARC
  5
305A
  8
0
 10
139.0700000000001921
 20
152.7799999999990916
 30
0.0
 40
65.1399999999991195
 50
270.0
 51
278.9060987494024744
  0
ARC
  5
305B
  8
0
 10
141.3100000000002012
 20
157.6799999999981878
 30
0.0
 40
75.0299999999982816
 50
268.2891960663245072
 51
280.1646527152312842
  0
ARC
  5
305C
  8
0
 10
164.8000000000000114
 20
39.9999999999999787
 30
0.0
 40
50.8900000000000077
 50
95.6384716391311258
 51
107.9046580861959939
  0
ARC
  5
305D
  8
0
 10
164.8000000000000114
 20
39.9999999999997797
 30
0.0
 40
45.010000000000197
 50
96.3779470016016404
 51
103.1618477545109016
  0
ARC
  5
305E
  8
0
 10
135.8699100650702007
 20
72.8400802801861431
 30
0.0
 40
10.0100000000000495
 50
90.1994608608010253
 51
144.3093582997549049
  0
ARC
  5
305F
  8
0
 10
120.0419853909144052
 20
84.2469175562696933
 30
0.0
 40
9.4999999999999751
 50
268.5403956471843117
 51
324.1269467429282258
  0
ARC
  5
3060
  8
0
 10
119.7999999999999972
 20
83.4999999999999858
 30
0.0
 40
8.7500000000000142
 50
55.0211520291482188
 51
270.0
  0
ARC
  5
3061
  8
0
 10
133.4152572345049919
 20
102.9598887570881942
 30
0.0
 40
14.9999999999997904
 50
235.0211520291483112
 51
263.5244580538733885
  0
POLYLINE
  5
3062
  8
0
 66
     1
 10
0.0
 20
0.0
 30
0.0
  0
VERTEX
  5
3331
  8
0
 10
139.0699999999999932
 20
87.6399999999999864
 30
0.0
  0
VERTEX
  5
3332
  8
0
 10
135.3909128132245883
 20
87.743979845995284
 30
0.0
  0
VERTEX
  5
3333
  8
0
 10
131.7235711259604898
 20
88.0555874279365867
 30
0.0
  0
SEQEND
  5
3334
  8
0
  0
LINE
  5
3063
  8
0
 10
139.0699999999999932
 20
82.683444745775148
 30
0.0
 11
135.8350628354704952
 21
82.8500196241876665
 31
0.0
  0
LINE
  5
3064
  8
0
 10
115.2999999999998977
 20
145.0500000000000114
 30
0.0
 11
115.2999999999998977
 21
139.0499999999998977
 31
0.0
  0
LINE
  5
3065
  8
0
 10
124.2999999999998977
 20
139.0499999999998977
 30
0.0
 11
124.2999999999998977
 21
145.0500000000000114
 31
0.0
  0
LINE
  5
3066
  8
0
 10
111.0499999999998977
 20
149.5500000000000114
 30
0.0
 11
111.0499999999998977
 21
145.0500000000000114
 31
0.0
  0
LINE
  5
3067
  8
0
 10
111.0499999999998977
 20
139.0500000000000114
 30
0.0
 11
111.0499999999998977
 21
134.5500000000000114
 31
0.0
  0
ARC
  5
3068
  8
0
 10
119.7957172547737059
 20
141.3955118822534871
 30
0.0
 40
7.3700398042937998
 50
248.2531158296731064
 51
291.7468841703287126
  0
ARC
  5
3069
  8
0
 10
119.8042827452319017
 20
142.7044881175795865
 30
0.0
 40
7.3700398044532243
 50
68.2531158288719695
 51
111.7468841711280021
  0
ARC
  5
306A
  8
0
 10
119.7999999999998977
 20
142.0500000000000114
 30
0.0
 40
6.9999999999999947
 50
154.553186102950491
 51
205.5097039963910106
  0
ARC
  5
306B
  8
0
 10
119.7999999999998977
 20
142.0500000000000114
 30
0.0
 40
7.999999999999992
 50
157.8773108123824898
 51
202.0482870069438945
  0
ARC
  5
306C
  8
0
 10
119.7999999999998977
 20
142.0500000000000114
 30
0.0
 40
6.9999999999999813
 50
334.6230664748480876
 51
25.3769335251515216
  0
POLYLINE
  5
306D
  8
0
 66
     1
 10
0.0
 20
0.0
 30
0.0
  0
VERTEX
  5
3335
  8
0
 10
149.1546847373801938
 20
134.0635222027312921
 30
0.0
  0
VERTEX
  5
3336
  8
0
 10
151.4295941161645089
 20
133.9537249452947947
 30
0.0
  0
VERTEX
  5
3337
  8
0
 10
153.9614713263623003
 20
133.8315388256941105
 30
0.0
  0
VERTEX
  5
3338
  8
0
 10
156.752118062017189
 20
133.6969638439290975
 30
0.0
  0
VERTEX
  5
3339
  8
0
 10
159.7999999999998977
 20
133.5500000000000114
 30
0.0
  0
SEQEND
  5
333A
  8
0
  0
LINE
  5
306E
  8
0
 10
159.7999999999998977
 20
150.5500000000000114
 30
0.0
 11
149.1546847373801938
 21
150.0364777972685886
 31
0.0
  0
LINE
  5
306F
  8
0
 10
177.0341132346196957
 20
152.5321422855083995
 30
0.0
 11
159.7999999999998977
 21
150.5500000000000114
 31
0.0
  0
POLYLINE
  5
3070
  8
0
 66
     1
 10
0.0
 20
0.0
 30
0.0
  0
VERTEX
  5
333B
  8
0
 10
159.7999999999998977
 20
133.5500000000000114
 30
0.0
  0
VERTEX
  5
333C
  8
0
 10
163.2647955751156985
 20
133.1519687973732005
 30
0.0
  0
VERTEX
  5
333D
  8
0
 10
166.7367366468473904
 20
132.7528064385170978
 30
0.0
  0
VERTEX
  5
333E
  8
0
 10
170.1970567304585131
 20
132.3535880250194054
 30
0.0
  0
VERTEX
  5
333F
  8
0
 10
173.633584033669905
 20
131.9584984914739039
 30
0.0
  0
VERTEX
  5
3340
  8
0
 10
177.0341132346225095
 20
131.5678577144911969
 30
0.0
  0
SEQEND
  5
3341
  8
0
  0
ARC
  5
3071
  8
0
 10
126.2999999999999972
 20
140.0499999999998977
 30
0.0
 40
0.9999999999999715
 50
269.9999999999984084
 51
0.0000000000016284
  0
LINE
  5
3072
  8
0
 10
127.2999999999998977
 20
140.0500000000000114
 30
0.0
 11
127.2999999999998977
 21
144.0500000000000114
 31
0.0
  0
ARC
  5
3073
  8
0
 10
126.3000000000000966
 20
144.0500000000000966
 30
0.0
 40
0.999999999999943
 50
359.9999999999968168
 51
90.0000000000032543
  0
LINE
  5
3074
  8
0
 10
111.0499999999998977
 20
139.0500000000000114
 30
0.0
 11
126.2999999999998977
 21
139.0500000000000114
 31
0.0
  0
LINE
  5
3075
  8
0
 10
126.2999999999998977
 20
145.0500000000000114
 30
0.0
 11
111.0499999999998977
 21
145.0500000000000114
 31
0.0
  0
ARC
  5
3076
  8
0
 10
179.4499998314126117
 20
142.0500000000002103
 30
0.0
 40
10.7600000000002094
 50
272.4703878077360741
 51
335.244083274852585
  0
LINE
  5
3077
  8
0
 10
179.3630530973451016
 20
131.3000000000000114
 30
0.0
 11
179.9137885764251052
 21
131.3000000000000114
 31
0.0
  0
LINE
  5
3078
  8
0
 10
179.9137885764249063
 20
152.8000000000000114
 30
0.0
 11
179.3630530973451016
 21
152.8000000000000114
 31
0.0
  0
ARC
  5
3079
  8
0
 10
179.4499998314126969
 20
142.0499999999998977
 30
0.0
 40
10.7600000000000602
 50
24.7559167251474186
 51
87.5296121922654748
  0
LINE
  5
307A
  8
0
 10
179.3630530973451016
 20
152.8000000000000114
 30
0.0
 11
177.0341132346196957
 21
152.5321422855083995
 31
0.0
  0
LINE
  5
307B
  8
0
 10
177.0341132346225947
 20
131.5678577144911969
 30
0.0
 11
179.3630530973451016
 21
131.3000000000000114
 31
0.0
  0
LINE
  5
307C
  8
0
 10
149.1546847373801938
 20
150.0364777972685886
 30
0.0
 11
139.0699999999999932
 21
149.5500000000000114
 31
0.0
  0
POLYLINE
  5
307D
  8
0
 66
     1
 10
0.0
 20
0.0
 30
0.0
  0
VERTEX
  5
3342
  8
0
 10
139.0699999999999932
 20
134.5500000000000114
 30
0.0
  0
VERTEX
  5
3343
  8
0
 10
142.4436267737571029
 20
134.3878407342436958
 30
0.0
  0
VERTEX
  5
3344
  8
0
 10
145.8081985755493974
 20
134.2256814684874939
 30
0.0
  0
VERTEX
  5
3345
  8
0
 10
149.1546847373801938
 20
134.0635222027312921
 30
0.0
  0
SEQEND
  5
3346
  8
0
  0
LINE
  5
307E
  8
0
 10
139.0699999999999932
 20
134.5500000000000114
 30
0.0
 11
111.0499999999999972
 21
134.5500000000000114
 31
0.0
  0
LINE
  5
307F
  8
0
 10
111.0499999999999972
 20
149.5500000000000114
 30
0.0
 11
139.0699999999999932
 21
149.5500000000000114
 31
0.0
  0
LINE
  5
3080
  8
0
 10
190.1999999999999886
 20
141.5862151626321861
 30
0.0
 11
190.1999999999999886
 21
142.5137848373680072
 31
0.0
  0
ARC
  5
3081
  8
0
 10
179.4499998313970082
 20
142.0499999999962029
 30
0.0
 40
10.76000000001582
 50
2.470366980634223
 51
24.7559167251321597
  0
ARC
  5
3082
  8
0
 10
179.4499998314080074
 20
142.0500000000012051
 30
0.0
 40
10.7600000000047196
 50
335.2440832748570188
 51
357.5296330193837093
  0
LINE
  5
3083
  8
0
 10
68.75
 20
70.9999999999870397
 30
0.0
 11
68.75
 21
74.7025572391945616
 31
0.0
  0
LINE
  5
3084
  8
0
 10
52.75
 20
74.7025572391945616
 30
0.0
 11
52.75
 21
70.9999999999870397
 31
0.0
  0
LINE
  5
3085
  8
0
 10
52.75
 20
70.9999999999870397
 30
0.0
 11
53.75
 21
69.9999999999870397
 31
0.0
  0
LINE
  5
3086
  8
0
 10
67.75
 20
69.9999999999870397
 30
0.0
 11
68.75
 21
70.9999999999870397
 31
0.0
  0
LINE
  5
308B
  8
0
 10
57.75
 20
92.2499999999870397
 30
0.0
 11
53.25
 21
92.2499999999870397
 31
0.0
  0
LINE
  5
308C
  8
0
 10
68.25
 20
92.2499999999870397
 30
0.0
 11
63.75
 21
92.2499999999870397
 31
0.0
  0
LINE
  5
308D
  8
0
 10
69.6539552986505441
 20
90.8899999999870261
 30
0.0
 11
68.2500000000001705
 21
90.8899999999870261
 31
0.0
  0
LINE
  5
308E
  8
0
 10
63.7500000000001705
 20
90.8899999999870261
 30
0.0
 11
63.2177925358520696
 21
90.8899999999870118
 31
0.0
  0
LINE
  5
308F
  8
0
 10
53.2500000000001705
 20
90.8899999999870261
 30
0.0
 11
51.6749363867684508
 21
90.8899999999870261
 31
0.0
  0
ARC
  5
3090
  8
0
 10
83.4487375139426462
 20
36.378169117994652
 30
0.0
 40
49.1016760319490331
 50
126.791080255543406
 51
128.6926330096048048
  0
LINE
  5
3091
  8
0
 10
67.4582039324991456
 20
75.699999999987142
 30
0.0
 11
54.0417960675009112
 21
75.6999999999871704
 31
0.0
  0
POLYLINE
  5
3092
  8
0
 66
     1
 10
0.0
 20
0.0
 30
0.0
  0
VERTEX
  5
3347
  8
0
 10
68.7467974102464154
 20
74.7025572391945616
 30
0.0
  0
VERTEX
  5
3348
  8
0
 10
68.7498806264646873
 20
74.7000954985587668
 30
0.0
  0
VERTEX
  5
3349
  8
0
 10
68.6725703615263541
 20
74.7618351224386402
 30
0.0
  0
VERTEX
  5
334A
  8
0
 10
68.4484657220660324
 20
74.9395504983592673
 30
0.0
  0
VERTEX
  5
334B
  8
0
 10
68.1041518195305571
 20
75.2087646228243329
 30
0.0
  0
VERTEX
  5
334C
  8
0
 10
67.6381519151753992
 20
75.5650869294354379
 30
0.0
  0
VERTEX
  5
334D
  8
0
 10
67.4582039324991456
 20
75.6999999999871989
 30
0.0
  0
SEQEND
  5
334E
  8
0
  0
LINE
  5
3093
  8
0
 10
52.75
 20
70.9999999999870397
 30
0.0
 11
68.75
 21
70.9999999999870397
 31
0.0
  0
LINE
  5
3094
  8
0
 10
53.75
 20
69.9999999999870397
 30
0.0
 11
67.75
 21
69.9999999999870397
 31
0.0
  0
ARC
  5
3095
  8
0
 10
62.9202385415391632
 20
53.5055304808800614
 30
0.0
 40
23.9044183781865094
 50
104.5648502037212069
 51
111.8028664056810015
  0
LINE
  5
3096
  8
0
 10
56.9088596086475107
 20
76.6417475728025579
 30
0.0
 11
57.3148871925365029
 21
76.6999999999870283
 31
0.0
  0
LINE
  5
3097
  8
0
 10
64.185112807463554
 20
76.6999999999870283
 30
0.0
 11
57.3148871925364674
 21
76.6999999999870283
 31
0.0
  0
LINE
  5
3098
  8
0
 10
64.185112807463554
 20
76.6999999999870283
 30
0.0
 11
64.5911403913524964
 21
76.6417475728025579
 31
0.0
  0
ARC
  5
3099
  8
0
 10
58.5665414706489784
 20
53.4652834484862183
 30
0.0
 40
23.9466966711708515
 50
68.203531501739846
 51
75.4287518888570787
  0
LINE
  5
309C
  8
0
 10
57.75
 20
76.6999999999870283
 30
0.0
 11
57.75
 21
92.2401479680487455
 31
0.0
  0
LINE
  5
309D
  8
0
 10
53.25
 20
92.2401479680487455
 30
0.0
 11
53.25
 21
75.0947280128566206
 31
0.0
  0
LINE
  5
309E
  8
0
 10
68.25
 20
75.0947280128565922
 30
0.0
 11
68.25
 21
92.2401479680487455
 31
0.0
  0
LINE
  5
309F
  8
0
 10
63.75
 20
92.2401479680487455
 30
0.0
 11
63.75
 21
76.6999999999870283
 31
0.0
  0
POLYLINE
  5
30A6
  8
0
 10
52.7635222027312949
 20
88.4253674258851134
 30
0.0
 66
     1
 70
     8
  0
VERTEX
  8
0
  5
335F
 10
52.7635
 20
88.4254
 30
0.00000
  70
    32
  0
VERTEX
  8
0
  5
3360
 10
52.7673
 20
88.4132
 30
0.00000
  70
    32
  0
VERTEX
  8
0
  5
3361
 10
52.7711
 20
88.4011
 30
0.00000
  70
    32
  0
VERTEX
  8
0
  5
3362
 10
52.7748
 20
88.3891
 30
0.00000
  70
    32
  0
VERTEX
  8
0
  5
3363
 10
52.7786
 20
88.3771
 30
0.00000
  70
    32
  0
VERTEX
  8
0
  5
3364
 10
52.7824
 20
88.3653
 30
0.00000
  70
    32
  0
VERTEX
  8
0
  5
3365
 10
52.7862
 20
88.3536
 30
0.00000
  70
    32
  0
VERTEX
  8
0
  5
3366
 10
52.7899
 20
88.3420
 30
0.00000
  70
    32
  0
VERTEX
  8
0
  5
3367
 10
52.7937
 20
88.3304
 30
0.00000
  70
    32
  0
VERTEX
  8
0
  5
3368
 10
52.7975
 20
88.3190
 30
0.00000
  70
    32
  0
VERTEX
  8
0
  5
3369
 10
52.8013
 20
88.3076
 30
0.00000
  70
    32
  0
VERTEX
  8
0
  5
336A
 10
52.8050
 20
88.2964
 30
0.00000
  70
    32
  0
VERTEX
  8
0
  5
336B
 10
52.8088
 20
88.2852
 30
0.00000
  70
    32
  0
VERTEX
  8
0
  5
336C
 10
52.8126
 20
88.2742
 30
0.00000
  70
    32
  0
VERTEX
  8
0
  5
336D
 10
52.8164
 20
88.2632
 30
0.00000
  70
    32
  0
VERTEX
  8
0
  5
336E
 10
52.8201
 20
88.2524
 30
0.00000
  70
    32
  0
VERTEX
  8
0
  5
336F
 10
52.8239
 20
88.2416
 30
0.00000
  70
    32
  0
VERTEX
  8
0
  5
3370
 10
52.8277
 20
88.2309
 30
0.00000
  70
    32
  0
VERTEX
  8
0
  5
3371
 10
52.8315
 20
88.2203
 30
0.00000
  70
    32
  0
VERTEX
  8
0
  5
3372
 10
52.8353
 20
88.2098
 30
0.00000
  70
    32
  0
VERTEX
  8
0
  5
3373
 10
52.8391
 20
88.1994
 30
0.00000
  70
    32
  0
VERTEX
  8
0
  5
3374
 10
52.8428
 20
88.1891
 30
0.00000
  70
    32
  0
VERTEX
  8
0
  5
3375
 10
52.8466
 20
88.1789
 30
0.00000
  70
    32
  0
VERTEX
  8
0
  5
3376
 10
52.8504
 20
88.1688
 30
0.00000
  70
    32
  0
VERTEX
  8
0
  5
3377
 10
52.8542
 20
88.1588
 30
0.00000
  70
    32
  0
VERTEX
  8
0
  5
3378
 10
52.8580
 20
88.1489
 30
0.00000
  70
    32
  0
VERTEX
  8
0
  5
3379
 10
52.8618
 20
88.1391
 30
0.00000
  70
    32
  0
VERTEX
  8
0
  5
337A
 10
52.8656
 20
88.1294
 30
0.00000
  70
    32
  0
VERTEX
  8
0
  5
337B
 10
52.8693
 20
88.1197
 30
0.00000
  70
    32
  0
VERTEX
  8
0
  5
337C
 10
52.8731
 20
88.1102
 30
0.00000
  70
    32
  0
VERTEX
  8
0
  5
337D
 10
52.8769
 20
88.1008
 30
0.00000
  70
    32
  0
VERTEX
  8
0
  5
337E
 10
52.8807
 20
88.0914
 30
0.00000
  70
    32
  0
VERTEX
  8
0
  5
337F
 10
52.8845
 20
88.0822
 30
0.00000
  70
    32
  0
VERTEX
  8
0
  5
3380
 10
52.8883
 20
88.0730
 30
0.00000
  70
    32
  0
VERTEX
  8
0
  5
3381
 10
52.8921
 20
88.0639
 30
0.00000
  70
    32
  0
VERTEX
  8
0
  5
3382
 10
52.8959
 20
88.0550
 30
0.00000
  70
    32
  0
VERTEX
  8
0
  5
3383
 10
52.8997
 20
88.0461
 30
0.00000
  70
    32
  0
VERTEX
  8
0
  5
3384
 10
52.9035
 20
88.0373
 30
0.00000
  70
    32
  0
VERTEX
  8
0
  5
3385
 10
52.9072
 20
88.0287
 30
0.00000
  70
    32
  0
VERTEX
  8
0
  5
3386
 10
52.9110
 20
88.0201
 30
0.00000
  70
    32
  0
VERTEX
  8
0
  5
3387
 10
52.9148
 20
88.0116
 30
0.00000
  70
    32
  0
VERTEX
  8
0
  5
3388
 10
52.9186
 20
88.0032
 30
0.00000
  70
    32
  0
VERTEX
  8
0
  5
3389
 10
52.9224
 20
87.9949
 30
0.00000
  70
    32
  0
VERTEX
  8
0
  5
338A
 10
52.9262
 20
87.9867
 30
0.00000
  70
    32
  0
VERTEX
  8
0
  5
338B
 10
52.9300
 20
87.9786
 30
0.00000
  70
    32
  0
VERTEX
  8
0
  5
338C
 10
52.9338
 20
87.9706
 30
0.00000
  70
    32
  0
VERTEX
  8
0
  5
338D
 10
52.9376
 20
87.9627
 30
0.00000
  70
    32
  0
VERTEX
  8
0
  5
338E
 10
52.9414
 20
87.9549
 30
0.00000
  70
    32
  0
VERTEX
  8
0
  5
338F
 10
52.9452
 20
87.9472
 30
0.00000
  70
    32
  0
VERTEX
  8
0
  5
3390
 10
52.9490
 20
87.9395
 30
0.00000
  70
    32
  0
VERTEX
  8
0
  5
3391
 10
52.9528
 20
87.9320
 30
0.00000
  70
    32
  0
VERTEX
  8
0
  5
3392
 10
52.9566
 20
87.9246
 30
0.00000
  70
    32
  0
VERTEX
  8
0
  5
3393
 10
52.9604
 20
87.9172
 30
0.00000
  70
    32
  0
VERTEX
  8
0
  5
3394
 10
52.9642
 20
87.9100
 30
0.00000
  70
    32
  0
VERTEX
  8
0
  5
3395
 10
52.9680
 20
87.9028
 30
0.00000
  70
    32
  0
VERTEX
  8
0
  5
3396
 10
52.9718
 20
87.8958
 30
0.00000
  70
    32
  0
VERTEX
  8
0
  5
3397
 10
52.9756
 20
87.8888
 30
0.00000
  70
    32
  0
VERTEX
  8
0
  5
3398
 10
52.9794
 20
87.8820
 30
0.00000
  70
    32
  0
VERTEX
  8
0
  5
3399
 10
52.9832
 20
87.8752
 30
0.00000
  70
    32
  0
VERTEX
  8
0
  5
339A
 10
52.9870
 20
87.8685
 30
0.00000
  70
    32
  0
VERTEX
  8
0
  5
339B
 10
52.9908
 20
87.8620
 30
0.00000
  70
    32
  0
VERTEX
  8
0
  5
339C
 10
52.9946
 20
87.8555
 30
0.00000
  70
    32
  0
VERTEX
  8
0
  5
339D
 10
52.9984
 20
87.8491
 30
0.00000
  70
    32
  0
VERTEX
  8
0
  5
339E
 10
53.0022
 20
87.8428
 30
0.00000
  70
    32
  0
VERTEX
  8
0
  5
339F
 10
53.0060
 20
87.8366
 30
0.00000
  70
    32
  0
VERTEX
  8
0
  5
33A0
 10
53.0098
 20
87.8305
 30
0.00000
  70
    32
  0
VERTEX
  8
0
  5
33A1
 10
53.0136
 20
87.8245
 30
0.00000
  70
    32
  0
VERTEX
  8
0
  5
33A2
 10
53.0174
 20
87.8186
 30
0.00000
  70
    32
  0
VERTEX
  8
0
  5
33A3
 10
53.0212
 20
87.8128
 30
0.00000
  70
    32
  0
VERTEX
  8
0
  5
33A4
 10
53.0251
 20
87.8071
 30
0.00000
  70
    32
  0
VERTEX
  8
0
  5
33A5
 10
53.0289
 20
87.8015
 30
0.00000
  70
    32
  0
VERTEX
  8
0
  5
33A6
 10
53.0327
 20
87.7960
 30
0.00000
  70
    32
  0
VERTEX
  8
0
  5
33A7
 10
53.0365
 20
87.7906
 30
0.00000
  70
    32
  0
VERTEX
  8
0
  5
33A8
 10
53.0403
 20
87.7852
 30
0.00000
  70
    32
  0
VERTEX
  8
0
  5
33A9
 10
53.0441
 20
87.7800
 30
0.00000
  70
    32
  0
VERTEX
  8
0
  5
33AA
 10
53.0479
 20
87.7749
 30
0.00000
  70
    32
  0
VERTEX
  8
0
  5
33AB
 10
53.0517
 20
87.7698
 30
0.00000
  70
    32
  0
VERTEX
  8
0
  5
33AC
 10
53.0555
 20
87.7649
 30
0.00000
  70
    32
  0
VERTEX
  8
0
  5
33AD
 10
53.0593
 20
87.7600
 30
0.00000
  70
    32
  0
VERTEX
  8
0
  5
33AE
 10
53.0631
 20
87.7553
 30
0.00000
  70
    32
  0
VERTEX
  8
0
  5
33AF
 10
53.0669
 20
87.7506
 30
0.00000
  70
    32
  0
VERTEX
  8
0
  5
33B0
 10
53.0707
 20
87.7461
 30
0.00000
  70
    32
  0
VERTEX
  8
0
  5
33B1
 10
53.0746
 20
87.7416
 30
0.00000
  70
    32
  0
VERTEX
  8
0
  5
33B2
 10
53.0784
 20
87.7372
 30
0.00000
  70
    32
  0
VERTEX
  8
0
  5
33B3
 10
53.0822
 20
87.7330
 30
0.00000
  70
    32
  0
VERTEX
  8
0
  5
33B4
 10
53.0860
 20
87.7288
 30
0.00000
  70
    32
  0
VERTEX
  8
0
  5
33B5
 10
53.0898
 20
87.7247
 30
0.00000
  70
    32
  0
VERTEX
  8
0
  5
33B6
 10
53.0936
 20
87.7207
 30
0.00000
  70
    32
  0
VERTEX
  8
0
  5
33B7
 10
53.0974
 20
87.7168
 30
0.00000
  70
    32
  0
VERTEX
  8
0
  5
33B8
 10
53.1012
 20
87.7130
 30
0.00000
  70
    32
  0
VERTEX
  8
0
  5
33B9
 10
53.1050
 20
87.7093
 30
0.00000
  70
    32
  0
VERTEX
  8
0
  5
33BA
 10
53.1089
 20
87.7057
 30
0.00000
  70
    32
  0
VERTEX
  8
0
  5
33BB
 10
53.1127
 20
87.7022
 30
0.00000
  70
    32
  0
VERTEX
  8
0
  5
33BC
 10
53.1165
 20
87.6988
 30
0.00000
  70
    32
  0
VERTEX
  8
0
  5
33BD
 10
53.1203
 20
87.6955
 30
0.00000
  70
    32
  0
VERTEX
  8
0
  5
33BE
 10
53.1241
 20
87.6923
 30
0.00000
  70
    32
  0
VERTEX
  8
0
  5
33BF
 10
53.1279
 20
87.6892
 30
0.00000
  70
    32
  0
VERTEX
  8
0
  5
33C0
 10
53.1317
 20
87.6862
 30
0.00000
  70
    32
  0
VERTEX
  8
0
  5
33C1
 10
53.1355
 20
87.6832
 30
0.00000
  70
    32
  0
VERTEX
  8
0
  5
33C2
 10
53.1394
 20
87.6804
 30
0.00000
  70
    32
  0
VERTEX
  8
0
  5
33C3
 10
53.1432
 20
87.6777
 30
0.00000
  70
    32
  0
VERTEX
  8
0
  5
33C4
 10
53.1470
 20
87.6750
 30
0.00000
  70
    32
  0
VERTEX
  8
0
  5
33C5
 10
53.1508
 20
87.6725
 30
0.00000
  70
    32
  0
VERTEX
  8
0
  5
33C6
 10
53.1546
 20
87.6700
 30
0.00000
  70
    32
  0
VERTEX
  8
0
  5
33C7
 10
53.1584
 20
87.6677
 30
0.00000
  70
    32
  0
VERTEX
  8
0
  5
33C8
 10
53.1622
 20
87.6654
 30
0.00000
  70
    32
  0
VERTEX
  8
0
  5
33C9
 10
53.1661
 20
87.6632
 30
0.00000
  70
    32
  0
VERTEX
  8
0
  5
33CA
 10
53.1699
 20
87.6612
 30
0.00000
  70
    32
  0
VERTEX
  8
0
  5
33CB
 10
53.1737
 20
87.6592
 30
0.00000
  70
    32
  0
VERTEX
  8
0
  5
33CC
 10
53.1775
 20
87.6573
 30
0.00000
  70
    32
  0
VERTEX
  8
0
  5
33CD
 10
53.1813
 20
87.6556
 30
0.00000
  70
    32
  0
VERTEX
  8
0
  5
33CE
 10
53.1851
 20
87.6539
 30
0.00000
  70
    32
  0
VERTEX
  8
0
  5
33CF
 10
53.1889
 20
87.6523
 30
0.00000
  70
    32
  0
VERTEX
  8
0
  5
33D0
 10
53.1928
 20
87.6508
 30
0.00000
  70
    32
  0
VERTEX
  8
0
  5
33D1
 10
53.1966
 20
87.6494
 30
0.00000
  70
    32
  0
VERTEX
  8
0
  5
33D2
 10
53.2004
 20
87.6481
 30
0.00000
  70
    32
  0
VERTEX
  8
0
  5
33D3
 10
53.2042
 20
87.6469
 30
0.00000
  70
    32
  0
VERTEX
  8
0
  5
33D4
 10
53.2080
 20
87.6458
 30
0.00000
  70
    32
  0
VERTEX
  8
0
  5
33D5
 10
53.2118
 20
87.6448
 30
0.00000
  70
    32
  0
VERTEX
  8
0
  5
33D6
 10
53.2157
 20
87.6439
 30
0.00000
  70
    32
  0
VERTEX
  8
0
  5
33D7
 10
53.2195
 20
87.6431
 30
0.00000
  70
    32
  0
VERTEX
  8
0
  5
33D8
 10
53.2233
 20
87.6424
 30
0.00000
  70
    32
  0
VERTEX
  8
0
  5
33D9
 10
53.2271
 20
87.6417
 30
0.00000
  70
    32
  0
VERTEX
  8
0
  5
33DA
 10
53.2309
 20
87.6412
 30
0.00000
  70
    32
  0
VERTEX
  8
0
  5
33DB
 10
53.2347
 20
87.6408
 30
0.00000
  70
    32
  0
VERTEX
  8
0
  5
33DC
 10
53.2386
 20
87.6404
 30
0.00000
  70
    32
  0
VERTEX
  8
0
  5
33DD
 10
53.2424
 20
87.6402
 30
0.00000
  70
    32
  0
VERTEX
  8
0
  5
33DE
 10
53.2462
 20
87.6400
 30
0.00000
  70
    32
  0
VERTEX
  8
0
  5
33DF
 10
53.2500
 20
87.6400
 30
0.00000
  70
    32
  0
SEQEND
  8
0
  5
33E0
  0
ARC
  5
30A7
  8
0
 10
67.7553319739568565
 20
88.4897631937866436
 30
0.0
 40
0.9832568034475571
 50
300.2047359433022962
 51
356.2448788420061874
  0
POLYLINE
  5
30A8
  8
0
 10
52.5032026483892054
 20
83.8276206894242932
 30
0.0
 66
     1
 70
     8
  0
VERTEX
  8
0
  5
33E1
 10
52.5032
 20
83.8276
 30
0.00000
  70
    32
  0
VERTEX
  8
0
  5
33E2
 10
52.5090
 20
83.8063
 30
0.00000
  70
    32
  0
VERTEX
  8
0
  5
33E3
 10
52.5147
 20
83.7851
 30
0.00000
  70
    32
  0
VERTEX
  8
0
  5
33E4
 10
52.5205
 20
83.7642
 30
0.00000
  70
    32
  0
VERTEX
  8
0
  5
33E5
 10
52.5263
 20
83.7434
 30
0.00000
  70
    32
  0
VERTEX
  8
0
  5
33E6
 10
52.5321
 20
83.7228
 30
0.00000
  70
    32
  0
VERTEX
  8
0
  5
33E7
 10
52.5378
 20
83.7025
 30
0.00000
  70
    32
  0
VERTEX
  8
0
  5
33E8
 10
52.5436
 20
83.6823
 30
0.00000
  70
    32
  0
VERTEX
  8
0
  5
33E9
 10
52.5494
 20
83.6623
 30
0.00000
  70
    32
  0
VERTEX
  8
0
  5
33EA
 10
52.5552
 20
83.6425
 30
0.00000
  70
    32
  0
VERTEX
  8
0
  5
33EB
 10
52.5610
 20
83.6229
 30
0.00000
  70
    32
  0
VERTEX
  8
0
  5
33EC
 10
52.5668
 20
83.6035
 30
0.00000
  70
    32
  0
VERTEX
  8
0
  5
33ED
 10
52.5725
 20
83.5843
 30
0.00000
  70
    32
  0
VERTEX
  8
0
  5
33EE
 10
52.5783
 20
83.5653
 30
0.00000
  70
    32
  0
VERTEX
  8
0
  5
33EF
 10
52.5841
 20
83.5465
 30
0.00000
  70
    32
  0
VERTEX
  8
0
  5
33F0
 10
52.5899
 20
83.5278
 30
0.00000
  70
    32
  0
VERTEX
  8
0
  5
33F1
 10
52.5957
 20
83.5094
 30
0.00000
  70
    32
  0
VERTEX
  8
0
  5
33F2
 10
52.6015
 20
83.4912
 30
0.00000
  70
    32
  0
VERTEX
  8
0
  5
33F3
 10
52.6073
 20
83.4731
 30
0.00000
  70
    32
  0
VERTEX
  8
0
  5
33F4
 10
52.6131
 20
83.4553
 30
0.00000
  70
    32
  0
VERTEX
  8
0
  5
33F5
 10
52.6189
 20
83.4376
 30
0.00000
  70
    32
  0
VERTEX
  8
0
  5
33F6
 10
52.6247
 20
83.4201
 30
0.00000
  70
    32
  0
VERTEX
  8
0
  5
33F7
 10
52.6305
 20
83.4029
 30
0.00000
  70
    32
  0
VERTEX
  8
0
  5
33F8
 10
52.6363
 20
83.3858
 30
0.00000
  70
    32
  0
VERTEX
  8
0
  5
33F9
 10
52.6421
 20
83.3689
 30
0.00000
  70
    32
  0
VERTEX
  8
0
  5
33FA
 10
52.6479
 20
83.3523
 30
0.00000
  70
    32
  0
VERTEX
  8
0
  5
33FB
 10
52.6537
 20
83.3358
 30
0.00000
  70
    32
  0
VERTEX
  8
0
  5
33FC
 10
52.6595
 20
83.3195
 30
0.00000
  70
    32
  0
VERTEX
  8
0
  5
33FD
 10
52.6653
 20
83.3034
 30
0.00000
  70
    32
  0
VERTEX
  8
0
  5
33FE
 10
52.6711
 20
83.2875
 30
0.00000
  70
    32
  0
VERTEX
  8
0
  5
33FF
 10
52.6770
 20
83.2718
 30
0.00000
  70
    32
  0
VERTEX
  8
0
  5
3400
 10
52.6828
 20
83.2563
 30
0.00000
  70
    32
  0
VERTEX
  8
0
  5
3401
 10
52.6886
 20
83.2409
 30
0.00000
  70
    32
  0
VERTEX
  8
0
  5
3402
 10
52.6944
 20
83.2258
 30
0.00000
  70
    32
  0
VERTEX
  8
0
  5
3403
 10
52.7002
 20
83.2109
 30
0.00000
  70
    32
  0
VERTEX
  8
0
  5
3404
 10
52.7060
 20
83.1962
 30
0.00000
  70
    32
  0
VERTEX
  8
0
  5
3405
 10
52.7118
 20
83.1816
 30
0.00000
  70
    32
  0
VERTEX
  8
0
  5
3406
 10
52.7177
 20
83.1673
 30
0.00000
  70
    32
  0
VERTEX
  8
0
  5
3407
 10
52.7235
 20
83.1531
 30
0.00000
  70
    32
  0
VERTEX
  8
0
  5
3408
 10
52.7293
 20
83.1392
 30
0.00000
  70
    32
  0
VERTEX
  8
0
  5
3409
 10
52.7351
 20
83.1254
 30
0.00000
  70
    32
  0
VERTEX
  8
0
  5
340A
 10
52.7410
 20
83.1119
 30
0.00000
  70
    32
  0
VERTEX
  8
0
  5
340B
 10
52.7468
 20
83.0985
 30
0.00000
  70
    32
  0
VERTEX
  8
0
  5
340C
 10
52.7526
 20
83.0854
 30
0.00000
  70
    32
  0
VERTEX
  8
0
  5
340D
 10
52.7584
 20
83.0724
 30
0.00000
  70
    32
  0
VERTEX
  8
0
  5
340E
 10
52.7643
 20
83.0596
 30
0.00000
  70
    32
  0
VERTEX
  8
0
  5
340F
 10
52.7701
 20
83.0470
 30
0.00000
  70
    32
  0
VERTEX
  8
0
  5
3410
 10
52.7759
 20
83.0346
 30
0.00000
  70
    32
  0
VERTEX
  8
0
  5
3411
 10
52.7818
 20
83.0225
 30
0.00000
  70
    32
  0
VERTEX
  8
0
  5
3412
 10
52.7876
 20
83.0105
 30
0.00000
  70
    32
  0
VERTEX
  8
0
  5
3413
 10
52.7934
 20
82.9987
 30
0.00000
  70
    32
  0
VERTEX
  8
0
  5
3414
 10
52.7993
 20
82.9871
 30
0.00000
  70
    32
  0
VERTEX
  8
0
  5
3415
 10
52.8051
 20
82.9757
 30
0.00000
  70
    32
  0
VERTEX
  8
0
  5
3416
 10
52.8109
 20
82.9645
 30
0.00000
  70
    32
  0
VERTEX
  8
0
  5
3417
 10
52.8168
 20
82.9534
 30
0.00000
  70
    32
  0
VERTEX
  8
0
  5
3418
 10
52.8226
 20
82.9426
 30
0.00000
  70
    32
  0
VERTEX
  8
0
  5
3419
 10
52.8284
 20
82.9320
 30
0.00000
  70
    32
  0
VERTEX
  8
0
  5
341A
 10
52.8343
 20
82.9216
 30
0.00000
  70
    32
  0
VERTEX
  8
0
  5
341B
 10
52.8401
 20
82.9113
 30
0.00000
  70
    32
  0
VERTEX
  8
0
  5
341C
 10
52.8460
 20
82.9013
 30
0.00000
  70
    32
  0
VERTEX
  8
0
  5
341D
 10
52.8518
 20
82.8915
 30
0.00000
  70
    32
  0
VERTEX
  8
0
  5
341E
 10
52.8576
 20
82.8818
 30
0.00000
  70
    32
  0
VERTEX
  8
0
  5
341F
 10
52.8635
 20
82.8724
 30
0.00000
  70
    32
  0
VERTEX
  8
0
  5
3420
 10
52.8693
 20
82.8631
 30
0.00000
  70
    32
  0
VERTEX
  8
0
  5
3421
 10
52.8752
 20
82.8541
 30
0.00000
  70
    32
  0
VERTEX
  8
0
  5
3422
 10
52.8810
 20
82.8452
 30
0.00000
  70
    32
  0
VERTEX
  8
0
  5
3423
 10
52.8869
 20
82.8366
 30
0.00000
  70
    32
  0
VERTEX
  8
0
  5
3424
 10
52.8927
 20
82.8281
 30
0.00000
  70
    32
  0
VERTEX
  8
0
  5
3425
 10
52.8986
 20
82.8198
 30
0.00000
  70
    32
  0
VERTEX
  8
0
  5
3426
 10
52.9044
 20
82.8118
 30
0.00000
  70
    32
  0
VERTEX
  8
0
  5
3427
 10
52.9103
 20
82.8039
 30
0.00000
  70
    32
  0
VERTEX
  8
0
  5
3428
 10
52.9161
 20
82.7962
 30
0.00000
  70
    32
  0
VERTEX
  8
0
  5
3429
 10
52.9219
 20
82.7887
 30
0.00000
  70
    32
  0
VERTEX
  8
0
  5
342A
 10
52.9278
 20
82.7814
 30
0.00000
  70
    32
  0
VERTEX
  8
0
  5
342B
 10
52.9337
 20
82.7743
 30
0.00000
  70
    32
  0
VERTEX
  8
0
  5
342C
 10
52.9395
 20
82.7675
 30
0.00000
  70
    32
  0
VERTEX
  8
0
  5
342D
 10
52.9454
 20
82.7608
 30
0.00000
  70
    32
  0
VERTEX
  8
0
  5
342E
 10
52.9512
 20
82.7543
 30
0.00000
  70
    32
  0
VERTEX
  8
0
  5
342F
 10
52.9571
 20
82.7480
 30
0.00000
  70
    32
  0
VERTEX
  8
0
  5
3430
 10
52.9629
 20
82.7418
 30
0.00000
  70
    32
  0
VERTEX
  8
0
  5
3431
 10
52.9688
 20
82.7359
 30
0.00000
  70
    32
  0
VERTEX
  8
0
  5
3432
 10
52.9746
 20
82.7302
 30
0.00000
  70
    32
  0
VERTEX
  8
0
  5
3433
 10
52.9805
 20
82.7247
 30
0.00000
  70
    32
  0
VERTEX
  8
0
  5
3434
 10
52.9863
 20
82.7194
 30
0.00000
  70
    32
  0
VERTEX
  8
0
  5
3435
 10
52.9922
 20
82.7143
 30
0.00000
  70
    32
  0
VERTEX
  8
0
  5
3436
 10
52.9980
 20
82.7093
 30
0.00000
  70
    32
  0
VERTEX
  8
0
  5
3437
 10
53.0039
 20
82.7046
 30
0.00000
  70
    32
  0
VERTEX
  8
0
  5
3438
 10
53.0098
 20
82.7001
 30
0.00000
  70
    32
  0
VERTEX
  8
0
  5
3439
 10
53.0156
 20
82.6957
 30
0.00000
  70
    32
  0
VERTEX
  8
0
  5
343A
 10
53.0215
 20
82.6916
 30
0.00000
  70
    32
  0
VERTEX
  8
0
  5
343B
 10
53.0273
 20
82.6876
 30
0.00000
  70
    32
  0
VERTEX
  8
0
  5
343C
 10
53.0332
 20
82.6839
 30
0.00000
  70
    32
  0
VERTEX
  8
0
  5
343D
 10
53.0390
 20
82.6803
 30
0.00000
  70
    32
  0
VERTEX
  8
0
  5
343E
 10
53.0449
 20
82.6770
 30
0.00000
  70
    32
  0
VERTEX
  8
0
  5
343F
 10
53.0508
 20
82.6738
 30
0.00000
  70
    32
  0
VERTEX
  8
0
  5
3440
 10
53.0566
 20
82.6709
 30
0.00000
  70
    32
  0
VERTEX
  8
0
  5
3441
 10
53.0625
 20
82.6681
 30
0.00000
  70
    32
  0
VERTEX
  8
0
  5
3442
 10
53.0683
 20
82.6655
 30
0.00000
  70
    32
  0
VERTEX
  8
0
  5
3443
 10
53.0742
 20
82.6631
 30
0.00000
  70
    32
  0
VERTEX
  8
0
  5
3444
 10
53.0801
 20
82.6610
 30
0.00000
  70
    32
  0
VERTEX
  8
0
  5
3445
 10
53.0859
 20
82.6590
 30
0.00000
  70
    32
  0
VERTEX
  8
0
  5
3446
 10
53.0918
 20
82.6572
 30
0.00000
  70
    32
  0
VERTEX
  8
0
  5
3447
 10
53.0976
 20
82.6556
 30
0.00000
  70
    32
  0
VERTEX
  8
0
  5
3448
 10
53.1035
 20
82.6542
 30
0.00000
  70
    32
  0
VERTEX
  8
0
  5
3449
 10
53.1094
 20
82.6530
 30
0.00000
  70
    32
  0
VERTEX
  8
0
  5
344A
 10
53.1152
 20
82.6520
 30
0.00000
  70
    32
  0
VERTEX
  8
0
  5
344B
 10
53.1211
 20
82.6512
 30
0.00000
  70
    32
  0
VERTEX
  8
0
  5
344C
 10
53.1269
 20
82.6506
 30
0.00000
  70
    32
  0
VERTEX
  8
0
  5
344D
 10
53.1328
 20
82.6502
 30
0.00000
  70
    32
  0
VERTEX
  8
0
  5
344E
 10
53.1387
 20
82.6500
 30
0.00000
  70
    32
  0
VERTEX
  8
0
  5
344F
 10
53.1445
 20
82.6500
 30
0.00000
  70
    32
  0
VERTEX
  8
0
  5
3450
 10
53.1504
 20
82.6502
 30
0.00000
  70
    32
  0
VERTEX
  8
0
  5
3451
 10
53.1562
 20
82.6506
 30
0.00000
  70
    32
  0
VERTEX
  8
0
  5
3452
 10
53.1621
 20
82.6512
 30
0.00000
  70
    32
  0
VERTEX
  8
0
  5
3453
 10
53.1680
 20
82.6519
 30
0.00000
  70
    32
  0
VERTEX
  8
0
  5
3454
 10
53.1738
 20
82.6529
 30
0.00000
  70
    32
  0
VERTEX
  8
0
  5
3455
 10
53.1797
 20
82.6541
 30
0.00000
  70
    32
  0
VERTEX
  8
0
  5
3456
 10
53.1855
 20
82.6554
 30
0.00000
  70
    32
  0
VERTEX
  8
0
  5
3457
 10
53.1914
 20
82.6570
 30
0.00000
  70
    32
  0
VERTEX
  8
0
  5
3458
 10
53.1973
 20
82.6588
 30
0.00000
  70
    32
  0
VERTEX
  8
0
  5
3459
 10
53.2031
 20
82.6607
 30
0.00000
  70
    32
  0
VERTEX
  8
0
  5
345A
 10
53.2090
 20
82.6629
 30
0.00000
  70
    32
  0
VERTEX
  8
0
  5
345B
 10
53.2148
 20
82.6652
 30
0.00000
  70
    32
  0
VERTEX
  8
0
  5
345C
 10
53.2207
 20
82.6678
 30
0.00000
  70
    32
  0
VERTEX
  8
0
  5
345D
 10
53.2266
 20
82.6705
 30
0.00000
  70
    32
  0
VERTEX
  8
0
  5
345E
 10
53.2324
 20
82.6734
 30
0.00000
  70
    32
  0
VERTEX
  8
0
  5
345F
 10
53.2383
 20
82.6766
 30
0.00000
  70
    32
  0
VERTEX
  8
0
  5
3460
 10
53.2441
 20
82.6799
 30
0.00000
  70
    32
  0
VERTEX
  8
0
  5
3461
 10
53.2500
 20
82.6834
 30
0.00000
  70
    32
  0
SEQEND
  8
0
  5
3462
  0
POLYLINE
  5
30A9
  8
0
 66
     1
 10
0.0
 20
0.0
 30
0.0
  0
VERTEX
  5
334F
  8
0
 10
68.9967973516107804
 20
83.8276206894241653
 30
0.0
  0
VERTEX
  5
3350
  8
0
 10
68.9334307177097116
 20
83.6043729591819158
 30
0.0
  0
VERTEX
  5
3351
  8
0
 10
68.8556245164609209
 20
83.3630188210789811
 30
0.0
  0
VERTEX
  5
3352
  8
0
 10
68.7633787478642944
 20
83.1227840025583191
 30
0.0
  0
VERTEX
  5
3353
  8
0
 10
68.6566934119198748
 20
82.9064956595485114
 30
0.0
  0
VERTEX
  5
3354
  8
0
 10
68.5355685086277049
 20
82.7405865682620743
 30
0.0
  0
VERTEX
  5
3355
  8
0
 10
68.4000040379877419
 20
82.655066284413067
 30
0.0
  0
VERTEX
  5
3356
  8
0
 10
68.25
 20
82.6834447457621877
 30
0.0
  0
SEQEND
  5
3357
  8
0
  0
ARC
  5
30AA
  8
0
 10
78.2499530395866714
 20
87.3918074778650293
 30
0.0
 40
9.569454391570531
 50
160.1336016102131055
 51
173.7996082951470953
  0
POLYLINE
  5
30AB
  8
0
 10
69.2500000000000284
 20
84.7314218419092526
 30
0.0
 66
     1
 70
     8
  0
VERTEX
  8
0
  5
3463
 10
69.2500
 20
84.7314
 30
0.00000
  70
    32
  0
VERTEX
  8
0
  5
3464
 10
69.2480
 20
84.7268
 30
0.00000
  70
    32
  0
VERTEX
  8
0
  5
3465
 10
69.2460
 20
84.7221
 30
0.00000
  70
    32
  0
VERTEX
  8
0
  5
3466
 10
69.2440
 20
84.7174
 30
0.00000
  70
    32
  0
VERTEX
  8
0
  5
3467
 10
69.2420
 20
84.7126
 30
0.00000
  70
    32
  0
VERTEX
  8
0
  5
3468
 10
69.2400
 20
84.7078
 30
0.00000
  70
    32
  0
VERTEX
  8
0
  5
3469
 10
69.2380
 20
84.7030
 30
0.00000
  70
    32
  0
VERTEX
  8
0
  5
346A
 10
69.2360
 20
84.6981
 30
0.00000
  70
    32
  0
VERTEX
  8
0
  5
346B
 10
69.2340
 20
84.6932
 30
0.00000
  70
    32
  0
VERTEX
  8
0
  5
346C
 10
69.2320
 20
84.6882
 30
0.00000
  70
    32
  0
VERTEX
  8
0
  5
346D
 10
69.2301
 20
84.6833
 30
0.00000
  70
    32
  0
VERTEX
  8
0
  5
346E
 10
69.2281
 20
84.6782
 30
0.00000
  70
    32
  0
VERTEX
  8
0
  5
346F
 10
69.2261
 20
84.6732
 30
0.00000
  70
    32
  0
VERTEX
  8
0
  5
3470
 10
69.2241
 20
84.6681
 30
0.00000
  70
    32
  0
VERTEX
  8
0
  5
3471
 10
69.2221
 20
84.6629
 30
0.00000
  70
    32
  0
VERTEX
  8
0
  5
3472
 10
69.2201
 20
84.6577
 30
0.00000
  70
    32
  0
VERTEX
  8
0
  5
3473
 10
69.2181
 20
84.6525
 30
0.00000
  70
    32
  0
VERTEX
  8
0
  5
3474
 10
69.2161
 20
84.6473
 30
0.00000
  70
    32
  0
VERTEX
  8
0
  5
3475
 10
69.2141
 20
84.6420
 30
0.00000
  70
    32
  0
VERTEX
  8
0
  5
3476
 10
69.2121
 20
84.6366
 30
0.00000
  70
    32
  0
VERTEX
  8
0
  5
3477
 10
69.2101
 20
84.6313
 30
0.00000
  70
    32
  0
VERTEX
  8
0
  5
3478
 10
69.2081
 20
84.6259
 30
0.00000
  70
    32
  0
VERTEX
  8
0
  5
3479
 10
69.2061
 20
84.6204
 30
0.00000
  70
    32
  0
VERTEX
  8
0
  5
347A
 10
69.2042
 20
84.6149
 30
0.00000
  70
    32
  0
VERTEX
  8
0
  5
347B
 10
69.2022
 20
84.6094
 30
0.00000
  70
    32
  0
VERTEX
  8
0
  5
347C
 10
69.2002
 20
84.6038
 30
0.00000
  70
    32
  0
VERTEX
  8
0
  5
347D
 10
69.1982
 20
84.5982
 30
0.00000
  70
    32
  0
VERTEX
  8
0
  5
347E
 10
69.1962
 20
84.5926
 30
0.00000
  70
    32
  0
VERTEX
  8
0
  5
347F
 10
69.1942
 20
84.5869
 30
0.00000
  70
    32
  0
VERTEX
  8
0
  5
3480
 10
69.1922
 20
84.5812
 30
0.00000
  70
    32
  0
VERTEX
  8
0
  5
3481
 10
69.1902
 20
84.5755
 30
0.00000
  70
    32
  0
VERTEX
  8
0
  5
3482
 10
69.1882
 20
84.5697
 30
0.00000
  70
    32
  0
VERTEX
  8
0
  5
3483
 10
69.1862
 20
84.5638
 30
0.00000
  70
    32
  0
VERTEX
  8
0
  5
3484
 10
69.1843
 20
84.5580
 30
0.00000
  70
    32
  0
VERTEX
  8
0
  5
3485
 10
69.1823
 20
84.5521
 30
0.00000
  70
    32
  0
VERTEX
  8
0
  5
3486
 10
69.1803
 20
84.5461
 30
0.00000
  70
    32
  0
VERTEX
  8
0
  5
3487
 10
69.1783
 20
84.5402
 30
0.00000
  70
    32
  0
VERTEX
  8
0
  5
3488
 10
69.1763
 20
84.5341
 30
0.00000
  70
    32
  0
VERTEX
  8
0
  5
3489
 10
69.1743
 20
84.5281
 30
0.00000
  70
    32
  0
VERTEX
  8
0
  5
348A
 10
69.1723
 20
84.5220
 30
0.00000
  70
    32
  0
VERTEX
  8
0
  5
348B
 10
69.1703
 20
84.5158
 30
0.00000
  70
    32
  0
VERTEX
  8
0
  5
348C
 10
69.1684
 20
84.5097
 30
0.00000
  70
    32
  0
VERTEX
  8
0
  5
348D
 10
69.1664
 20
84.5035
 30
0.00000
  70
    32
  0
VERTEX
  8
0
  5
348E
 10
69.1644
 20
84.4972
 30
0.00000
  70
    32
  0
VERTEX
  8
0
  5
348F
 10
69.1624
 20
84.4909
 30
0.00000
  70
    32
  0
VERTEX
  8
0
  5
3490
 10
69.1604
 20
84.4846
 30
0.00000
  70
    32
  0
VERTEX
  8
0
  5
3491
 10
69.1584
 20
84.4782
 30
0.00000
  70
    32
  0
VERTEX
  8
0
  5
3492
 10
69.1564
 20
84.4718
 30
0.00000
  70
    32
  0
VERTEX
  8
0
  5
3493
 10
69.1545
 20
84.4654
 30
0.00000
  70
    32
  0
VERTEX
  8
0
  5
3494
 10
69.1525
 20
84.4589
 30
0.00000
  70
    32
  0
VERTEX
  8
0
  5
3495
 10
69.1505
 20
84.4524
 30
0.00000
  70
    32
  0
VERTEX
  8
0
  5
3496
 10
69.1485
 20
84.4459
 30
0.00000
  70
    32
  0
VERTEX
  8
0
  5
3497
 10
69.1465
 20
84.4393
 30
0.00000
  70
    32
  0
VERTEX
  8
0
  5
3498
 10
69.1445
 20
84.4326
 30
0.00000
  70
    32
  0
VERTEX
  8
0
  5
3499
 10
69.1426
 20
84.4260
 30
0.00000
  70
    32
  0
VERTEX
  8
0
  5
349A
 10
69.1406
 20
84.4193
 30
0.00000
  70
    32
  0
VERTEX
  8
0
  5
349B
 10
69.1386
 20
84.4125
 30
0.00000
  70
    32
  0
VERTEX
  8
0
  5
349C
 10
69.1366
 20
84.4058
 30
0.00000
  70
    32
  0
VERTEX
  8
0
  5
349D
 10
69.1346
 20
84.3989
 30
0.00000
  70
    32
  0
VERTEX
  8
0
  5
349E
 10
69.1327
 20
84.3921
 30
0.00000
  70
    32
  0
VERTEX
  8
0
  5
349F
 10
69.1307
 20
84.3852
 30
0.00000
  70
    32
  0
VERTEX
  8
0
  5
34A0
 10
69.1287
 20
84.3783
 30
0.00000
  70
    32
  0
VERTEX
  8
0
  5
34A1
 10
69.1267
 20
84.3713
 30
0.00000
  70
    32
  0
VERTEX
  8
0
  5
34A2
 10
69.1247
 20
84.3643
 30
0.00000
  70
    32
  0
VERTEX
  8
0
  5
34A3
 10
69.1228
 20
84.3572
 30
0.00000
  70
    32
  0
VERTEX
  8
0
  5
34A4
 10
69.1208
 20
84.3501
 30
0.00000
  70
    32
  0
VERTEX
  8
0
  5
34A5
 10
69.1188
 20
84.3430
 30
0.00000
  70
    32
  0
VERTEX
  8
0
  5
34A6
 10
69.1168
 20
84.3359
 30
0.00000
  70
    32
  0
VERTEX
  8
0
  5
34A7
 10
69.1148
 20
84.3287
 30
0.00000
  70
    32
  0
VERTEX
  8
0
  5
34A8
 10
69.1129
 20
84.3214
 30
0.00000
  70
    32
  0
VERTEX
  8
0
  5
34A9
 10
69.1109
 20
84.3142
 30
0.00000
  70
    32
  0
VERTEX
  8
0
  5
34AA
 10
69.1089
 20
84.3068
 30
0.00000
  70
    32
  0
VERTEX
  8
0
  5
34AB
 10
69.1069
 20
84.2995
 30
0.00000
  70
    32
  0
VERTEX
  8
0
  5
34AC
 10
69.1050
 20
84.2921
 30
0.00000
  70
    32
  0
VERTEX
  8
0
  5
34AD
 10
69.1030
 20
84.2847
 30
0.00000
  70
    32
  0
VERTEX
  8
0
  5
34AE
 10
69.1010
 20
84.2772
 30
0.00000
  70
    32
  0
VERTEX
  8
0
  5
34AF
 10
69.0990
 20
84.2697
 30
0.00000
  70
    32
  0
VERTEX
  8
0
  5
34B0
 10
69.0970
 20
84.2622
 30
0.00000
  70
    32
  0
VERTEX
  8
0
  5
34B1
 10
69.0951
 20
84.2546
 30
0.00000
  70
    32
  0
VERTEX
  8
0
  5
34B2
 10
69.0931
 20
84.2470
 30
0.00000
  70
    32
  0
VERTEX
  8
0
  5
34B3
 10
69.0911
 20
84.2393
 30
0.00000
  70
    32
  0
VERTEX
  8
0
  5
34B4
 10
69.0892
 20
84.2316
 30
0.00000
  70
    32
  0
VERTEX
  8
0
  5
34B5
 10
69.0872
 20
84.2239
 30
0.00000
  70
    32
  0
VERTEX
  8
0
  5
34B6
 10
69.0852
 20
84.2161
 30
0.00000
  70
    32
  0
VERTEX
  8
0
  5
34B7
 10
69.0832
 20
84.2083
 30
0.00000
  70
    32
  0
VERTEX
  8
0
  5
34B8
 10
69.0813
 20
84.2005
 30
0.00000
  70
    32
  0
VERTEX
  8
0
  5
34B9
 10
69.0793
 20
84.1926
 30
0.00000
  70
    32
  0
VERTEX
  8
0
  5
34BA
 10
69.0773
 20
84.1847
 30
0.00000
  70
    32
  0
VERTEX
  8
0
  5
34BB
 10
69.0753
 20
84.1768
 30
0.00000
  70
    32
  0
VERTEX
  8
0
  5
34BC
 10
69.0734
 20
84.1688
 30
0.00000
  70
    32
  0
VERTEX
  8
0
  5
34BD
 10
69.0714
 20
84.1607
 30
0.00000
  70
    32
  0
VERTEX
  8
0
  5
34BE
 10
69.0694
 20
84.1527
 30
0.00000
  70
    32
  0
VERTEX
  8
0
  5
34BF
 10
69.0675
 20
84.1446
 30
0.00000
  70
    32
  0
VERTEX
  8
0
  5
34C0
 10
69.0655
 20
84.1364
 30
0.00000
  70
    32
  0
VERTEX
  8
0
  5
34C1
 10
69.0635
 20
84.1282
 30
0.00000
  70
    32
  0
VERTEX
  8
0
  5
34C2
 10
69.0616
 20
84.1200
 30
0.00000
  70
    32
  0
VERTEX
  8
0
  5
34C3
 10
69.0596
 20
84.1117
 30
0.00000
  70
    32
  0
VERTEX
  8
0
  5
34C4
 10
69.0576
 20
84.1035
 30
0.00000
  70
    32
  0
VERTEX
  8
0
  5
34C5
 10
69.0557
 20
84.0951
 30
0.00000
  70
    32
  0
VERTEX
  8
0
  5
34C6
 10
69.0537
 20
84.0867
 30
0.00000
  70
    32
  0
VERTEX
  8
0
  5
34C7
 10
69.0517
 20
84.0783
 30
0.00000
  70
    32
  0
VERTEX
  8
0
  5
34C8
 10
69.0497
 20
84.0699
 30
0.00000
  70
    32
  0
VERTEX
  8
0
  5
34C9
 10
69.0478
 20
84.0614
 30
0.00000
  70
    32
  0
VERTEX
  8
0
  5
34CA
 10
69.0458
 20
84.0529
 30
0.00000
  70
    32
  0
VERTEX
  8
0
  5
34CB
 10
69.0439
 20
84.0443
 30
0.00000
  70
    32
  0
VERTEX
  8
0
  5
34CC
 10
69.0419
 20
84.0357
 30
0.00000
  70
    32
  0
VERTEX
  8
0
  5
34CD
 10
69.0399
 20
84.0271
 30
0.00000
  70
    32
  0
VERTEX
  8
0
  5
34CE
 10
69.0380
 20
84.0184
 30
0.00000
  70
    32
  0
VERTEX
  8
0
  5
34CF
 10
69.0360
 20
84.0097
 30
0.00000
  70
    32
  0
VERTEX
  8
0
  5
34D0
 10
69.0340
 20
84.0010
 30
0.00000
  70
    32
  0
VERTEX
  8
0
  5
34D1
 10
69.0321
 20
83.9922
 30
0.00000
  70
    32
  0
VERTEX
  8
0
  5
34D2
 10
69.0301
 20
83.9834
 30
0.00000
  70
    32
  0
VERTEX
  8
0
  5
34D3
 10
69.0281
 20
83.9745
 30
0.00000
  70
    32
  0
VERTEX
  8
0
  5
34D4
 10
69.0262
 20
83.9656
 30
0.00000
  70
    32
  0
VERTEX
  8
0
  5
34D5
 10
69.0242
 20
83.9567
 30
0.00000
  70
    32
  0
VERTEX
  8
0
  5
34D6
 10
69.0223
 20
83.9477
 30
0.00000
  70
    32
  0
VERTEX
  8
0
  5
34D7
 10
69.0203
 20
83.9387
 30
0.00000
  70
    32
  0
VERTEX
  8
0
  5
34D8
 10
69.0183
 20
83.9296
 30
0.00000
  70
    32
  0
VERTEX
  8
0
  5
34D9
 10
69.0164
 20
83.9205
 30
0.00000
  70
    32
  0
VERTEX
  8
0
  5
34DA
 10
69.0144
 20
83.9114
 30
0.00000
  70
    32
  0
VERTEX
  8
0
  5
34DB
 10
69.0125
 20
83.9023
 30
0.00000
  70
    32
  0
VERTEX
  8
0
  5
34DC
 10
69.0105
 20
83.8931
 30
0.00000
  70
    32
  0
VERTEX
  8
0
  5
34DD
 10
69.0085
 20
83.8838
 30
0.00000
  70
    32
  0
VERTEX
  8
0
  5
34DE
 10
69.0066
 20
83.8746
 30
0.00000
  70
    32
  0
VERTEX
  8
0
  5
34DF
 10
69.0046
 20
83.8652
 30
0.00000
  70
    32
  0
VERTEX
  8
0
  5
34E0
 10
69.0027
 20
83.8559
 30
0.00000
  70
    32
  0
VERTEX
  8
0
  5
34E1
 10
69.0007
 20
83.8465
 30
0.00000
  70
    32
  0
VERTEX
  8
0
  5
34E2
 10
68.9988
 20
83.8371
 30
0.00000
  70
    32
  0
VERTEX
  8
0
  5
34E3
 10
68.9968
 20
83.8276
 30
0.00000
  70
    32
  0
SEQEND
  8
0
  5
34E4
  0
POLYLINE
  5
30AC
  8
0
 10
52.5032026483886298
 20
83.8276206894270643
 30
0.0
 66
     1
 70
     8
  0
VERTEX
  8
0
  5
34E5
 10
52.5032
 20
83.8276
 30
0.00000
  70
    32
  0
VERTEX
  8
0
  5
34E6
 10
52.5012
 20
83.8371
 30
0.00000
  70
    32
  0
VERTEX
  8
0
  5
34E7
 10
52.4993
 20
83.8465
 30
0.00000
  70
    32
  0
VERTEX
  8
0
  5
34E8
 10
52.4973
 20
83.8559
 30
0.00000
  70
    32
  0
VERTEX
  8
0
  5
34E9
 10
52.4954
 20
83.8652
 30
0.00000
  70
    32
  0
VERTEX
  8
0
  5
34EA
 10
52.4934
 20
83.8746
 30
0.00000
  70
    32
  0
VERTEX
  8
0
  5
34EB
 10
52.4915
 20
83.8838
 30
0.00000
  70
    32
  0
VERTEX
  8
0
  5
34EC
 10
52.4895
 20
83.8931
 30
0.00000
  70
    32
  0
VERTEX
  8
0
  5
34ED
 10
52.4875
 20
83.9023
 30
0.00000
  70
    32
  0
VERTEX
  8
0
  5
34EE
 10
52.4856
 20
83.9114
 30
0.00000
  70
    32
  0
VERTEX
  8
0
  5
34EF
 10
52.4836
 20
83.9205
 30
0.00000
  70
    32
  0
VERTEX
  8
0
  5
34F0
 10
52.4817
 20
83.9296
 30
0.00000
  70
    32
  0
VERTEX
  8
0
  5
34F1
 10
52.4797
 20
83.9387
 30
0.00000
  70
    32
  0
VERTEX
  8
0
  5
34F2
 10
52.4777
 20
83.9477
 30
0.00000
  70
    32
  0
VERTEX
  8
0
  5
34F3
 10
52.4758
 20
83.9567
 30
0.00000
  70
    32
  0
VERTEX
  8
0
  5
34F4
 10
52.4738
 20
83.9656
 30
0.00000
  70
    32
  0
VERTEX
  8
0
  5
34F5
 10
52.4719
 20
83.9745
 30
0.00000
  70
    32
  0
VERTEX
  8
0
  5
34F6
 10
52.4699
 20
83.9834
 30
0.00000
  70
    32
  0
VERTEX
  8
0
  5
34F7
 10
52.4679
 20
83.9922
 30
0.00000
  70
    32
  0
VERTEX
  8
0
  5
34F8
 10
52.4660
 20
84.0010
 30
0.00000
  70
    32
  0
VERTEX
  8
0
  5
34F9
 10
52.4640
 20
84.0097
 30
0.00000
  70
    32
  0
VERTEX
  8
0
  5
34FA
 10
52.4620
 20
84.0184
 30
0.00000
  70
    32
  0
VERTEX
  8
0
  5
34FB
 10
52.4601
 20
84.0271
 30
0.00000
  70
    32
  0
VERTEX
  8
0
  5
34FC
 10
52.4581
 20
84.0357
 30
0.00000
  70
    32
  0
VERTEX
  8
0
  5
34FD
 10
52.4561
 20
84.0443
 30
0.00000
  70
    32
  0
VERTEX
  8
0
  5
34FE
 10
52.4542
 20
84.0529
 30
0.00000
  70
    32
  0
VERTEX
  8
0
  5
34FF
 10
52.4522
 20
84.0614
 30
0.00000
  70
    32
  0
VERTEX
  8
0
  5
3500
 10
52.4503
 20
84.0699
 30
0.00000
  70
    32
  0
VERTEX
  8
0
  5
3501
 10
52.4483
 20
84.0783
 30
0.00000
  70
    32
  0
VERTEX
  8
0
  5
3502
 10
52.4463
 20
84.0867
 30
0.00000
  70
    32
  0
VERTEX
  8
0
  5
3503
 10
52.4443
 20
84.0951
 30
0.00000
  70
    32
  0
VERTEX
  8
0
  5
3504
 10
52.4424
 20
84.1035
 30
0.00000
  70
    32
  0
VERTEX
  8
0
  5
3505
 10
52.4404
 20
84.1117
 30
0.00000
  70
    32
  0
VERTEX
  8
0
  5
3506
 10
52.4384
 20
84.1200
 30
0.00000
  70
    32
  0
VERTEX
  8
0
  5
3507
 10
52.4365
 20
84.1282
 30
0.00000
  70
    32
  0
VERTEX
  8
0
  5
3508
 10
52.4345
 20
84.1364
 30
0.00000
  70
    32
  0
VERTEX
  8
0
  5
3509
 10
52.4325
 20
84.1446
 30
0.00000
  70
    32
  0
VERTEX
  8
0
  5
350A
 10
52.4306
 20
84.1527
 30
0.00000
  70
    32
  0
VERTEX
  8
0
  5
350B
 10
52.4286
 20
84.1607
 30
0.00000
  70
    32
  0
VERTEX
  8
0
  5
350C
 10
52.4266
 20
84.1688
 30
0.00000
  70
    32
  0
VERTEX
  8
0
  5
350D
 10
52.4247
 20
84.1768
 30
0.00000
  70
    32
  0
VERTEX
  8
0
  5
350E
 10
52.4227
 20
84.1847
 30
0.00000
  70
    32
  0
VERTEX
  8
0
  5
350F
 10
52.4207
 20
84.1926
 30
0.00000
  70
    32
  0
VERTEX
  8
0
  5
3510
 10
52.4187
 20
84.2005
 30
0.00000
  70
    32
  0
VERTEX
  8
0
  5
3511
 10
52.4168
 20
84.2083
 30
0.00000
  70
    32
  0
VERTEX
  8
0
  5
3512
 10
52.4148
 20
84.2161
 30
0.00000
  70
    32
  0
VERTEX
  8
0
  5
3513
 10
52.4128
 20
84.2239
 30
0.00000
  70
    32
  0
VERTEX
  8
0
  5
3514
 10
52.4108
 20
84.2316
 30
0.00000
  70
    32
  0
VERTEX
  8
0
  5
3515
 10
52.4089
 20
84.2393
 30
0.00000
  70
    32
  0
VERTEX
  8
0
  5
3516
 10
52.4069
 20
84.2470
 30
0.00000
  70
    32
  0
VERTEX
  8
0
  5
3517
 10
52.4049
 20
84.2546
 30
0.00000
  70
    32
  0
VERTEX
  8
0
  5
3518
 10
52.4030
 20
84.2622
 30
0.00000
  70
    32
  0
VERTEX
  8
0
  5
3519
 10
52.4010
 20
84.2697
 30
0.00000
  70
    32
  0
VERTEX
  8
0
  5
351A
 10
52.3990
 20
84.2772
 30
0.00000
  70
    32
  0
VERTEX
  8
0
  5
351B
 10
52.3970
 20
84.2847
 30
0.00000
  70
    32
  0
VERTEX
  8
0
  5
351C
 10
52.3950
 20
84.2921
 30
0.00000
  70
    32
  0
VERTEX
  8
0
  5
351D
 10
52.3931
 20
84.2995
 30
0.00000
  70
    32
  0
VERTEX
  8
0
  5
351E
 10
52.3911
 20
84.3068
 30
0.00000
  70
    32
  0
VERTEX
  8
0
  5
351F
 10
52.3891
 20
84.3142
 30
0.00000
  70
    32
  0
VERTEX
  8
0
  5
3520
 10
52.3871
 20
84.3214
 30
0.00000
  70
    32
  0
VERTEX
  8
0
  5
3521
 10
52.3852
 20
84.3287
 30
0.00000
  70
    32
  0
VERTEX
  8
0
  5
3522
 10
52.3832
 20
84.3359
 30
0.00000
  70
    32
  0
VERTEX
  8
0
  5
3523
 10
52.3812
 20
84.3430
 30
0.00000
  70
    32
  0
VERTEX
  8
0
  5
3524
 10
52.3792
 20
84.3501
 30
0.00000
  70
    32
  0
VERTEX
  8
0
  5
3525
 10
52.3772
 20
84.3572
 30
0.00000
  70
    32
  0
VERTEX
  8
0
  5
3526
 10
52.3753
 20
84.3643
 30
0.00000
  70
    32
  0
VERTEX
  8
0
  5
3527
 10
52.3733
 20
84.3713
 30
0.00000
  70
    32
  0
VERTEX
  8
0
  5
3528
 10
52.3713
 20
84.3783
 30
0.00000
  70
    32
  0
VERTEX
  8
0
  5
3529
 10
52.3693
 20
84.3852
 30
0.00000
  70
    32
  0
VERTEX
  8
0
  5
352A
 10
52.3673
 20
84.3921
 30
0.00000
  70
    32
  0
VERTEX
  8
0
  5
352B
 10
52.3654
 20
84.3989
 30
0.00000
  70
    32
  0
VERTEX
  8
0
  5
352C
 10
52.3634
 20
84.4058
 30
0.00000
  70
    32
  0
VERTEX
  8
0
  5
352D
 10
52.3614
 20
84.4125
 30
0.00000
  70
    32
  0
VERTEX
  8
0
  5
352E
 10
52.3594
 20
84.4193
 30
0.00000
  70
    32
  0
VERTEX
  8
0
  5
352F
 10
52.3574
 20
84.4260
 30
0.00000
  70
    32
  0
VERTEX
  8
0
  5
3530
 10
52.3555
 20
84.4326
 30
0.00000
  70
    32
  0
VERTEX
  8
0
  5
3531
 10
52.3535
 20
84.4393
 30
0.00000
  70
    32
  0
VERTEX
  8
0
  5
3532
 10
52.3515
 20
84.4459
 30
0.00000
  70
    32
  0
VERTEX
  8
0
  5
3533
 10
52.3495
 20
84.4524
 30
0.00000
  70
    32
  0
VERTEX
  8
0
  5
3534
 10
52.3475
 20
84.4589
 30
0.00000
  70
    32
  0
VERTEX
  8
0
  5
3535
 10
52.3455
 20
84.4654
 30
0.00000
  70
    32
  0
VERTEX
  8
0
  5
3536
 10
52.3436
 20
84.4718
 30
0.00000
  70
    32
  0
VERTEX
  8
0
  5
3537
 10
52.3416
 20
84.4782
 30
0.00000
  70
    32
  0
VERTEX
  8
0
  5
3538
 10
52.3396
 20
84.4846
 30
0.00000
  70
    32
  0
VERTEX
  8
0
  5
3539
 10
52.3376
 20
84.4909
 30
0.00000
  70
    32
  0
VERTEX
  8
0
  5
353A
 10
52.3356
 20
84.4972
 30
0.00000
  70
    32
  0
VERTEX
  8
0
  5
353B
 10
52.3336
 20
84.5035
 30
0.00000
  70
    32
  0
VERTEX
  8
0
  5
353C
 10
52.3316
 20
84.5097
 30
0.00000
  70
    32
  0
VERTEX
  8
0
  5
353D
 10
52.3297
 20
84.5158
 30
0.00000
  70
    32
  0
VERTEX
  8
0
  5
353E
 10
52.3277
 20
84.5220
 30
0.00000
  70
    32
  0
VERTEX
  8
0
  5
353F
 10
52.3257
 20
84.5281
 30
0.00000
  70
    32
  0
VERTEX
  8
0
  5
3540
 10
52.3237
 20
84.5341
 30
0.00000
  70
    32
  0
VERTEX
  8
0
  5
3541
 10
52.3217
 20
84.5402
 30
0.00000
  70
    32
  0
VERTEX
  8
0
  5
3542
 10
52.3197
 20
84.5461
 30
0.00000
  70
    32
  0
VERTEX
  8
0
  5
3543
 10
52.3177
 20
84.5521
 30
0.00000
  70
    32
  0
VERTEX
  8
0
  5
3544
 10
52.3157
 20
84.5580
 30
0.00000
  70
    32
  0
VERTEX
  8
0
  5
3545
 10
52.3138
 20
84.5638
 30
0.00000
  70
    32
  0
VERTEX
  8
0
  5
3546
 10
52.3118
 20
84.5697
 30
0.00000
  70
    32
  0
VERTEX
  8
0
  5
3547
 10
52.3098
 20
84.5755
 30
0.00000
  70
    32
  0
VERTEX
  8
0
  5
3548
 10
52.3078
 20
84.5812
 30
0.00000
  70
    32
  0
VERTEX
  8
0
  5
3549
 10
52.3058
 20
84.5869
 30
0.00000
  70
    32
  0
VERTEX
  8
0
  5
354A
 10
52.3038
 20
84.5926
 30
0.00000
  70
    32
  0
VERTEX
  8
0
  5
354B
 10
52.3018
 20
84.5982
 30
0.00000
  70
    32
  0
VERTEX
  8
0
  5
354C
 10
52.2998
 20
84.6038
 30
0.00000
  70
    32
  0
VERTEX
  8
0
  5
354D
 10
52.2978
 20
84.6094
 30
0.00000
  70
    32
  0
VERTEX
  8
0
  5
354E
 10
52.2958
 20
84.6149
 30
0.00000
  70
    32
  0
VERTEX
  8
0
  5
354F
 10
52.2939
 20
84.6204
 30
0.00000
  70
    32
  0
VERTEX
  8
0
  5
3550
 10
52.2919
 20
84.6259
 30
0.00000
  70
    32
  0
VERTEX
  8
0
  5
3551
 10
52.2899
 20
84.6313
 30
0.00000
  70
    32
  0
VERTEX
  8
0
  5
3552
 10
52.2879
 20
84.6366
 30
0.00000
  70
    32
  0
VERTEX
  8
0
  5
3553
 10
52.2859
 20
84.6420
 30
0.00000
  70
    32
  0
VERTEX
  8
0
  5
3554
 10
52.2839
 20
84.6473
 30
0.00000
  70
    32
  0
VERTEX
  8
0
  5
3555
 10
52.2819
 20
84.6525
 30
0.00000
  70
    32
  0
VERTEX
  8
0
  5
3556
 10
52.2799
 20
84.6577
 30
0.00000
  70
    32
  0
VERTEX
  8
0
  5
3557
 10
52.2779
 20
84.6629
 30
0.00000
  70
    32
  0
VERTEX
  8
0
  5
3558
 10
52.2759
 20
84.6681
 30
0.00000
  70
    32
  0
VERTEX
  8
0
  5
3559
 10
52.2739
 20
84.6732
 30
0.00000
  70
    32
  0
VERTEX
  8
0
  5
355A
 10
52.2719
 20
84.6782
 30
0.00000
  70
    32
  0
VERTEX
  8
0
  5
355B
 10
52.2699
 20
84.6833
 30
0.00000
  70
    32
  0
VERTEX
  8
0
  5
355C
 10
52.2680
 20
84.6882
 30
0.00000
  70
    32
  0
VERTEX
  8
0
  5
355D
 10
52.2660
 20
84.6932
 30
0.00000
  70
    32
  0
VERTEX
  8
0
  5
355E
 10
52.2640
 20
84.6981
 30
0.00000
  70
    32
  0
VERTEX
  8
0
  5
355F
 10
52.2620
 20
84.7030
 30
0.00000
  70
    32
  0
VERTEX
  8
0
  5
3560
 10
52.2600
 20
84.7078
 30
0.00000
  70
    32
  0
VERTEX
  8
0
  5
3561
 10
52.2580
 20
84.7126
 30
0.00000
  70
    32
  0
VERTEX
  8
0
  5
3562
 10
52.2560
 20
84.7174
 30
0.00000
  70
    32
  0
VERTEX
  8
0
  5
3563
 10
52.2540
 20
84.7221
 30
0.00000
  70
    32
  0
VERTEX
  8
0
  5
3564
 10
52.2520
 20
84.7268
 30
0.00000
  70
    32
  0
VERTEX
  8
0
  5
3565
 10
52.2500
 20
84.7314
 30
0.00000
  70
    32
  0
SEQEND
  8
0
  5
3566
  0
POLYLINE
  5
30AD
  8
0
 10
52.7635222027307051
 20
88.425367425889263
 30
0.0
 66
     1
 70
     8
  0
VERTEX
  8
0
  5
3567
 10
52.7635
 20
88.4254
 30
0.00000
  70
    32
  0
VERTEX
  8
0
  5
3568
 10
52.7596
 20
88.4515
 30
0.00000
  70
    32
  0
VERTEX
  8
0
  5
3569
 10
52.7557
 20
88.4774
 30
0.00000
  70
    32
  0
VERTEX
  8
0
  5
356A
 10
52.7518
 20
88.5033
 30
0.00000
  70
    32
  0
VERTEX
  8
0
  5
356B
 10
52.7479
 20
88.5290
 30
0.00000
  70
    32
  0
VERTEX
  8
0
  5
356C
 10
52.7440
 20
88.5545
 30
0.00000
  70
    32
  0
VERTEX
  8
0
  5
356D
 10
52.7400
 20
88.5799
 30
0.00000
  70
    32
  0
VERTEX
  8
0
  5
356E
 10
52.7361
 20
88.6052
 30
0.00000
  70
    32
  0
VERTEX
  8
0
  5
356F
 10
52.7322
 20
88.6304
 30
0.00000
  70
    32
  0
VERTEX
  8
0
  5
3570
 10
52.7283
 20
88.6554
 30
0.00000
  70
    32
  0
VERTEX
  8
0
  5
3571
 10
52.7243
 20
88.6803
 30
0.00000
  70
    32
  0
VERTEX
  8
0
  5
3572
 10
52.7204
 20
88.7050
 30
0.00000
  70
    32
  0
VERTEX
  8
0
  5
3573
 10
52.7165
 20
88.7296
 30
0.00000
  70
    32
  0
VERTEX
  8
0
  5
3574
 10
52.7126
 20
88.7541
 30
0.00000
  70
    32
  0
VERTEX
  8
0
  5
3575
 10
52.7086
 20
88.7784
 30
0.00000
  70
    32
  0
VERTEX
  8
0
  5
3576
 10
52.7047
 20
88.8026
 30
0.00000
  70
    32
  0
VERTEX
  8
0
  5
3577
 10
52.7007
 20
88.8267
 30
0.00000
  70
    32
  0
VERTEX
  8
0
  5
3578
 10
52.6968
 20
88.8506
 30
0.00000
  70
    32
  0
VERTEX
  8
0
  5
3579
 10
52.6929
 20
88.8744
 30
0.00000
  70
    32
  0
VERTEX
  8
0
  5
357A
 10
52.6889
 20
88.8980
 30
0.00000
  70
    32
  0
VERTEX
  8
0
  5
357B
 10
52.6850
 20
88.9215
 30
0.00000
  70
    32
  0
VERTEX
  8
0
  5
357C
 10
52.6810
 20
88.9449
 30
0.00000
  70
    32
  0
VERTEX
  8
0
  5
357D
 10
52.6771
 20
88.9681
 30
0.00000
  70
    32
  0
VERTEX
  8
0
  5
357E
 10
52.6731
 20
88.9912
 30
0.00000
  70
    32
  0
VERTEX
  8
0
  5
357F
 10
52.6692
 20
89.0142
 30
0.00000
  70
    32
  0
VERTEX
  8
0
  5
3580
 10
52.6652
 20
89.0370
 30
0.00000
  70
    32
  0
VERTEX
  8
0
  5
3581
 10
52.6613
 20
89.0597
 30
0.00000
  70
    32
  0
VERTEX
  8
0
  5
3582
 10
52.6573
 20
89.0823
 30
0.00000
  70
    32
  0
VERTEX
  8
0
  5
3583
 10
52.6533
 20
89.1047
 30
0.00000
  70
    32
  0
VERTEX
  8
0
  5
3584
 10
52.6494
 20
89.1270
 30
0.00000
  70
    32
  0
VERTEX
  8
0
  5
3585
 10
52.6454
 20
89.1491
 30
0.00000
  70
    32
  0
VERTEX
  8
0
  5
3586
 10
52.6414
 20
89.1711
 30
0.00000
  70
    32
  0
VERTEX
  8
0
  5
3587
 10
52.6375
 20
89.1930
 30
0.00000
  70
    32
  0
VERTEX
  8
0
  5
3588
 10
52.6335
 20
89.2147
 30
0.00000
  70
    32
  0
VERTEX
  8
0
  5
3589
 10
52.6295
 20
89.2363
 30
0.00000
  70
    32
  0
VERTEX
  8
0
  5
358A
 10
52.6256
 20
89.2578
 30
0.00000
  70
    32
  0
VERTEX
  8
0
  5
358B
 10
52.6216
 20
89.2791
 30
0.00000
  70
    32
  0
VERTEX
  8
0
  5
358C
 10
52.6176
 20
89.3002
 30
0.00000
  70
    32
  0
VERTEX
  8
0
  5
358D
 10
52.6136
 20
89.3213
 30
0.00000
  70
    32
  0
VERTEX
  8
0
  5
358E
 10
52.6096
 20
89.3422
 30
0.00000
  70
    32
  0
VERTEX
  8
0
  5
358F
 10
52.6057
 20
89.3630
 30
0.00000
  70
    32
  0
VERTEX
  8
0
  5
3590
 10
52.6017
 20
89.3836
 30
0.00000
  70
    32
  0
VERTEX
  8
0
  5
3591
 10
52.5977
 20
89.4041
 30
0.00000
  70
    32
  0
VERTEX
  8
0
  5
3592
 10
52.5937
 20
89.4244
 30
0.00000
  70
    32
  0
VERTEX
  8
0
  5
3593
 10
52.5897
 20
89.4446
 30
0.00000
  70
    32
  0
VERTEX
  8
0
  5
3594
 10
52.5857
 20
89.4647
 30
0.00000
  70
    32
  0
VERTEX
  8
0
  5
3595
 10
52.5817
 20
89.4846
 30
0.00000
  70
    32
  0
VERTEX
  8
0
  5
3596
 10
52.5777
 20
89.5044
 30
0.00000
  70
    32
  0
VERTEX
  8
0
  5
3597
 10
52.5738
 20
89.5241
 30
0.00000
  70
    32
  0
VERTEX
  8
0
  5
3598
 10
52.5698
 20
89.5436
 30
0.00000
  70
    32
  0
VERTEX
  8
0
  5
3599
 10
52.5658
 20
89.5630
 30
0.00000
  70
    32
  0
VERTEX
  8
0
  5
359A
 10
52.5618
 20
89.5822
 30
0.00000
  70
    32
  0
VERTEX
  8
0
  5
359B
 10
52.5578
 20
89.6013
 30
0.00000
  70
    32
  0
VERTEX
  8
0
  5
359C
 10
52.5538
 20
89.6203
 30
0.00000
  70
    32
  0
VERTEX
  8
0
  5
359D
 10
52.5498
 20
89.6391
 30
0.00000
  70
    32
  0
VERTEX
  8
0
  5
359E
 10
52.5457
 20
89.6578
 30
0.00000
  70
    32
  0
VERTEX
  8
0
  5
359F
 10
52.5417
 20
89.6763
 30
0.00000
  70
    32
  0
VERTEX
  8
0
  5
35A0
 10
52.5377
 20
89.6948
 30
0.00000
  70
    32
  0
VERTEX
  8
0
  5
35A1
 10
52.5337
 20
89.7130
 30
0.00000
  70
    32
  0
VERTEX
  8
0
  5
35A2
 10
52.5297
 20
89.7312
 30
0.00000
  70
    32
  0
VERTEX
  8
0
  5
35A3
 10
52.5257
 20
89.7491
 30
0.00000
  70
    32
  0
VERTEX
  8
0
  5
35A4
 10
52.5217
 20
89.7670
 30
0.00000
  70
    32
  0
VERTEX
  8
0
  5
35A5
 10
52.5177
 20
89.7847
 30
0.00000
  70
    32
  0
VERTEX
  8
0
  5
35A6
 10
52.5136
 20
89.8023
 30
0.00000
  70
    32
  0
VERTEX
  8
0
  5
35A7
 10
52.5096
 20
89.8197
 30
0.00000
  70
    32
  0
VERTEX
  8
0
  5
35A8
 10
52.5056
 20
89.8370
 30
0.00000
  70
    32
  0
VERTEX
  8
0
  5
35A9
 10
52.5016
 20
89.8542
 30
0.00000
  70
    32
  0
VERTEX
  8
0
  5
35AA
 10
52.4976
 20
89.8712
 30
0.00000
  70
    32
  0
VERTEX
  8
0
  5
35AB
 10
52.4935
 20
89.8881
 30
0.00000
  70
    32
  0
VERTEX
  8
0
  5
35AC
 10
52.4895
 20
89.9048
 30
0.00000
  70
    32
  0
VERTEX
  8
0
  5
35AD
 10
52.4855
 20
89.9214
 30
0.00000
  70
    32
  0
VERTEX
  8
0
  5
35AE
 10
52.4815
 20
89.9379
 30
0.00000
  70
    32
  0
VERTEX
  8
0
  5
35AF
 10
52.4774
 20
89.9542
 30
0.00000
  70
    32
  0
VERTEX
  8
0
  5
35B0
 10
52.4734
 20
89.9704
 30
0.00000
  70
    32
  0
VERTEX
  8
0
  5
35B1
 10
52.4694
 20
89.9864
 30
0.00000
  70
    32
  0
VERTEX
  8
0
  5
35B2
 10
52.4653
 20
90.0023
 30
0.00000
  70
    32
  0
VERTEX
  8
0
  5
35B3
 10
52.4613
 20
90.0180
 30
0.00000
  70
    32
  0
VERTEX
  8
0
  5
35B4
 10
52.4573
 20
90.0337
 30
0.00000
  70
    32
  0
VERTEX
  8
0
  5
35B5
 10
52.4532
 20
90.0491
 30
0.00000
  70
    32
  0
VERTEX
  8
0
  5
35B6
 10
52.4492
 20
90.0645
 30
0.00000
  70
    32
  0
VERTEX
  8
0
  5
35B7
 10
52.4451
 20
90.0797
 30
0.00000
  70
    32
  0
VERTEX
  8
0
  5
35B8
 10
52.4411
 20
90.0947
 30
0.00000
  70
    32
  0
VERTEX
  8
0
  5
35B9
 10
52.4371
 20
90.1097
 30
0.00000
  70
    32
  0
VERTEX
  8
0
  5
35BA
 10
52.4330
 20
90.1244
 30
0.00000
  70
    32
  0
VERTEX
  8
0
  5
35BB
 10
52.4290
 20
90.1391
 30
0.00000
  70
    32
  0
VERTEX
  8
0
  5
35BC
 10
52.4249
 20
90.1536
 30
0.00000
  70
    32
  0
VERTEX
  8
0
  5
35BD
 10
52.4209
 20
90.1679
 30
0.00000
  70
    32
  0
VERTEX
  8
0
  5
35BE
 10
52.4168
 20
90.1821
 30
0.00000
  70
    32
  0
VERTEX
  8
0
  5
35BF
 10
52.4128
 20
90.1962
 30
0.00000
  70
    32
  0
VERTEX
  8
0
  5
35C0
 10
52.4087
 20
90.2102
 30
0.00000
  70
    32
  0
VERTEX
  8
0
  5
35C1
 10
52.4047
 20
90.2240
 30
0.00000
  70
    32
  0
VERTEX
  8
0
  5
35C2
 10
52.4006
 20
90.2376
 30
0.00000
  70
    32
  0
VERTEX
  8
0
  5
35C3
 10
52.3966
 20
90.2511
 30
0.00000
  70
    32
  0
VERTEX
  8
0
  5
35C4
 10
52.3925
 20
90.2645
 30
0.00000
  70
    32
  0
VERTEX
  8
0
  5
35C5
 10
52.3885
 20
90.2777
 30
0.00000
  70
    32
  0
VERTEX
  8
0
  5
35C6
 10
52.3844
 20
90.2908
 30
0.00000
  70
    32
  0
VERTEX
  8
0
  5
35C7
 10
52.3803
 20
90.3038
 30
0.00000
  70
    32
  0
VERTEX
  8
0
  5
35C8
 10
52.3763
 20
90.3166
 30
0.00000
  70
    32
  0
VERTEX
  8
0
  5
35C9
 10
52.3722
 20
90.3293
 30
0.00000
  70
    32
  0
VERTEX
  8
0
  5
35CA
 10
52.3682
 20
90.3418
 30
0.00000
  70
    32
  0
VERTEX
  8
0
  5
35CB
 10
52.3641
 20
90.3542
 30
0.00000
  70
    32
  0
VERTEX
  8
0
  5
35CC
 10
52.3600
 20
90.3664
 30
0.00000
  70
    32
  0
VERTEX
  8
0
  5
35CD
 10
52.3560
 20
90.3785
 30
0.00000
  70
    32
  0
VERTEX
  8
0
  5
35CE
 10
52.3519
 20
90.3905
 30
0.00000
  70
    32
  0
VERTEX
  8
0
  5
35CF
 10
52.3478
 20
90.4023
 30
0.00000
  70
    32
  0
VERTEX
  8
0
  5
35D0
 10
52.3438
 20
90.4140
 30
0.00000
  70
    32
  0
VERTEX
  8
0
  5
35D1
 10
52.3397
 20
90.4256
 30
0.00000
  70
    32
  0
VERTEX
  8
0
  5
35D2
 10
52.3356
 20
90.4370
 30
0.00000
  70
    32
  0
VERTEX
  8
0
  5
35D3
 10
52.3316
 20
90.4482
 30
0.00000
  70
    32
  0
VERTEX
  8
0
  5
35D4
 10
52.3275
 20
90.4593
 30
0.00000
  70
    32
  0
VERTEX
  8
0
  5
35D5
 10
52.3234
 20
90.4703
 30
0.00000
  70
    32
  0
VERTEX
  8
0
  5
35D6
 10
52.3194
 20
90.4812
 30
0.00000
  70
    32
  0
VERTEX
  8
0
  5
35D7
 10
52.3153
 20
90.4919
 30
0.00000
  70
    32
  0
VERTEX
  8
0
  5
35D8
 10
52.3112
 20
90.5024
 30
0.00000
  70
    32
  0
VERTEX
  8
0
  5
35D9
 10
52.3071
 20
90.5128
 30
0.00000
  70
    32
  0
VERTEX
  8
0
  5
35DA
 10
52.3031
 20
90.5231
 30
0.00000
  70
    32
  0
VERTEX
  8
0
  5
35DB
 10
52.2990
 20
90.5332
 30
0.00000
  70
    32
  0
VERTEX
  8
0
  5
35DC
 10
52.2949
 20
90.5432
 30
0.00000
  70
    32
  0
VERTEX
  8
0
  5
35DD
 10
52.2908
 20
90.5531
 30
0.00000
  70
    32
  0
VERTEX
  8
0
  5
35DE
 10
52.2867
 20
90.5628
 30
0.00000
  70
    32
  0
VERTEX
  8
0
  5
35DF
 10
52.2827
 20
90.5723
 30
0.00000
  70
    32
  0
VERTEX
  8
0
  5
35E0
 10
52.2786
 20
90.5818
 30
0.00000
  70
    32
  0
VERTEX
  8
0
  5
35E1
 10
52.2745
 20
90.5911
 30
0.00000
  70
    32
  0
VERTEX
  8
0
  5
35E2
 10
52.2704
 20
90.6002
 30
0.00000
  70
    32
  0
VERTEX
  8
0
  5
35E3
 10
52.2663
 20
90.6092
 30
0.00000
  70
    32
  0
VERTEX
  8
0
  5
35E4
 10
52.2623
 20
90.6181
 30
0.00000
  70
    32
  0
VERTEX
  8
0
  5
35E5
 10
52.2582
 20
90.6268
 30
0.00000
  70
    32
  0
VERTEX
  8
0
  5
35E6
 10
52.2541
 20
90.6353
 30
0.00000
  70
    32
  0
VERTEX
  8
0
  5
35E7
 10
52.2500
 20
90.6438
 30
0.00000
  70
    32
  0
SEQEND
  8
0
  5
35E8
  0
POLYLINE
  5
30AE
  8
0
 10
52.2499999999992824
 20
90.6437765179370274
 30
0.0
 66
     1
 70
     8
  0
VERTEX
  8
0
  5
35E9
 10
52.2500
 20
90.6438
 30
0.00000
  70
    32
  0
VERTEX
  8
0
  5
35EA
 10
52.2345
 20
90.6569
 30
0.00000
  70
    32
  0
VERTEX
  8
0
  5
35EB
 10
52.2189
 20
90.6697
 30
0.00000
  70
    32
  0
VERTEX
  8
0
  5
35EC
 10
52.2034
 20
90.6821
 30
0.00000
  70
    32
  0
VERTEX
  8
0
  5
35ED
 10
52.1879
 20
90.6942
 30
0.00000
  70
    32
  0
VERTEX
  8
0
  5
35EE
 10
52.1723
 20
90.7059
 30
0.00000
  70
    32
  0
VERTEX
  8
0
  5
35EF
 10
52.1568
 20
90.7173
 30
0.00000
  70
    32
  0
VERTEX
  8
0
  5
35F0
 10
52.1412
 20
90.7282
 30
0.00000
  70
    32
  0
VERTEX
  8
0
  5
35F1
 10
52.1257
 20
90.7389
 30
0.00000
  70
    32
  0
VERTEX
  8
0
  5
35F2
 10
52.1101
 20
90.7491
 30
0.00000
  70
    32
  0
VERTEX
  8
0
  5
35F3
 10
52.0946
 20
90.7590
 30
0.00000
  70
    32
  0
VERTEX
  8
0
  5
35F4
 10
52.0790
 20
90.7686
 30
0.00000
  70
    32
  0
VERTEX
  8
0
  5
35F5
 10
52.0634
 20
90.7778
 30
0.00000
  70
    32
  0
VERTEX
  8
0
  5
35F6
 10
52.0479
 20
90.7866
 30
0.00000
  70
    32
  0
VERTEX
  8
0
  5
35F7
 10
52.0323
 20
90.7951
 30
0.00000
  70
    32
  0
VERTEX
  8
0
  5
35F8
 10
52.0167
 20
90.8032
 30
0.00000
  70
    32
  0
VERTEX
  8
0
  5
35F9
 10
52.0011
 20
90.8109
 30
0.00000
  70
    32
  0
VERTEX
  8
0
  5
35FA
 10
51.9856
 20
90.8183
 30
0.00000
  70
    32
  0
VERTEX
  8
0
  5
35FB
 10
51.9700
 20
90.8253
 30
0.00000
  70
    32
  0
VERTEX
  8
0
  5
35FC
 10
51.9544
 20
90.8320
 30
0.00000
  70
    32
  0
VERTEX
  8
0
  5
35FD
 10
51.9388
 20
90.8383
 30
0.00000
  70
    32
  0
VERTEX
  8
0
  5
35FE
 10
51.9232
 20
90.8442
 30
0.00000
  70
    32
  0
VERTEX
  8
0
  5
35FF
 10
51.9076
 20
90.8498
 30
0.00000
  70
    32
  0
VERTEX
  8
0
  5
3600
 10
51.8920
 20
90.8550
 30
0.00000
  70
    32
  0
VERTEX
  8
0
  5
3601
 10
51.8765
 20
90.8598
 30
0.00000
  70
    32
  0
VERTEX
  8
0
  5
3602
 10
51.8609
 20
90.8643
 30
0.00000
  70
    32
  0
VERTEX
  8
0
  5
3603
 10
51.8453
 20
90.8684
 30
0.00000
  70
    32
  0
VERTEX
  8
0
  5
3604
 10
51.8297
 20
90.8722
 30
0.00000
  70
    32
  0
VERTEX
  8
0
  5
3605
 10
51.8141
 20
90.8756
 30
0.00000
  70
    32
  0
VERTEX
  8
0
  5
3606
 10
51.7985
 20
90.8787
 30
0.00000
  70
    32
  0
VERTEX
  8
0
  5
3607
 10
51.7829
 20
90.8813
 30
0.00000
  70
    32
  0
VERTEX
  8
0
  5
3608
 10
51.7673
 20
90.8837
 30
0.00000
  70
    32
  0
VERTEX
  8
0
  5
3609
 10
51.7517
 20
90.8856
 30
0.00000
  70
    32
  0
VERTEX
  8
0
  5
360A
 10
51.7361
 20
90.8872
 30
0.00000
  70
    32
  0
VERTEX
  8
0
  5
360B
 10
51.7205
 20
90.8885
 30
0.00000
  70
    32
  0
VERTEX
  8
0
  5
360C
 10
51.7049
 20
90.8893
 30
0.00000
  70
    32
  0
VERTEX
  8
0
  5
360D
 10
51.6893
 20
90.8898
 30
0.00000
  70
    32
  0
VERTEX
  8
0
  5
360E
 10
51.6737
 20
90.8900
 30
0.00000
  70
    32
  0
VERTEX
  8
0
  5
360F
 10
51.6581
 20
90.8898
 30
0.00000
  70
    32
  0
VERTEX
  8
0
  5
3610
 10
51.6425
 20
90.8892
 30
0.00000
  70
    32
  0
VERTEX
  8
0
  5
3611
 10
51.6269
 20
90.8883
 30
0.00000
  70
    32
  0
VERTEX
  8
0
  5
3612
 10
51.6113
 20
90.8870
 30
0.00000
  70
    32
  0
VERTEX
  8
0
  5
3613
 10
51.5957
 20
90.8853
 30
0.00000
  70
    32
  0
VERTEX
  8
0
  5
3614
 10
51.5801
 20
90.8833
 30
0.00000
  70
    32
  0
VERTEX
  8
0
  5
3615
 10
51.5645
 20
90.8809
 30
0.00000
  70
    32
  0
VERTEX
  8
0
  5
3616
 10
51.5489
 20
90.8782
 30
0.00000
  70
    32
  0
VERTEX
  8
0
  5
3617
 10
51.5333
 20
90.8751
 30
0.00000
  70
    32
  0
VERTEX
  8
0
  5
3618
 10
51.5177
 20
90.8716
 30
0.00000
  70
    32
  0
VERTEX
  8
0
  5
3619
 10
51.5021
 20
90.8678
 30
0.00000
  70
    32
  0
VERTEX
  8
0
  5
361A
 10
51.4865
 20
90.8636
 30
0.00000
  70
    32
  0
VERTEX
  8
0
  5
361B
 10
51.4709
 20
90.8591
 30
0.00000
  70
    32
  0
VERTEX
  8
0
  5
361C
 10
51.4553
 20
90.8542
 30
0.00000
  70
    32
  0
VERTEX
  8
0
  5
361D
 10
51.4397
 20
90.8489
 30
0.00000
  70
    32
  0
VERTEX
  8
0
  5
361E
 10
51.4241
 20
90.8433
 30
0.00000
  70
    32
  0
VERTEX
  8
0
  5
361F
 10
51.4085
 20
90.8373
 30
0.00000
  70
    32
  0
VERTEX
  8
0
  5
3620
 10
51.3930
 20
90.8309
 30
0.00000
  70
    32
  0
VERTEX
  8
0
  5
3621
 10
51.3774
 20
90.8242
 30
0.00000
  70
    32
  0
VERTEX
  8
0
  5
3622
 10
51.3618
 20
90.8171
 30
0.00000
  70
    32
  0
VERTEX
  8
0
  5
3623
 10
51.3462
 20
90.8097
 30
0.00000
  70
    32
  0
VERTEX
  8
0
  5
3624
 10
51.3306
 20
90.8019
 30
0.00000
  70
    32
  0
VERTEX
  8
0
  5
3625
 10
51.3151
 20
90.7937
 30
0.00000
  70
    32
  0
VERTEX
  8
0
  5
3626
 10
51.2995
 20
90.7852
 30
0.00000
  70
    32
  0
VERTEX
  8
0
  5
3627
 10
51.2839
 20
90.7763
 30
0.00000
  70
    32
  0
VERTEX
  8
0
  5
3628
 10
51.2684
 20
90.7671
 30
0.00000
  70
    32
  0
VERTEX
  8
0
  5
3629
 10
51.2528
 20
90.7575
 30
0.00000
  70
    32
  0
VERTEX
  8
0
  5
362A
 10
51.2372
 20
90.7475
 30
0.00000
  70
    32
  0
VERTEX
  8
0
  5
362B
 10
51.2217
 20
90.7372
 30
0.00000
  70
    32
  0
VERTEX
  8
0
  5
362C
 10
51.2061
 20
90.7265
 30
0.00000
  70
    32
  0
VERTEX
  8
0
  5
362D
 10
51.1906
 20
90.7155
 30
0.00000
  70
    32
  0
VERTEX
  8
0
  5
362E
 10
51.1750
 20
90.7040
 30
0.00000
  70
    32
  0
VERTEX
  8
0
  5
362F
 10
51.1595
 20
90.6923
 30
0.00000
  70
    32
  0
VERTEX
  8
0
  5
3630
 10
51.1440
 20
90.6802
 30
0.00000
  70
    32
  0
VERTEX
  8
0
  5
3631
 10
51.1284
 20
90.6677
 30
0.00000
  70
    32
  0
VERTEX
  8
0
  5
3632
 10
51.1129
 20
90.6548
 30
0.00000
  70
    32
  0
VERTEX
  8
0
  5
3633
 10
51.0974
 20
90.6416
 30
0.00000
  70
    32
  0
VERTEX
  8
0
  5
3634
 10
51.0818
 20
90.6280
 30
0.00000
  70
    32
  0
VERTEX
  8
0
  5
3635
 10
51.0663
 20
90.6141
 30
0.00000
  70
    32
  0
VERTEX
  8
0
  5
3636
 10
51.0508
 20
90.5998
 30
0.00000
  70
    32
  0
VERTEX
  8
0
  5
3637
 10
51.0353
 20
90.5852
 30
0.00000
  70
    32
  0
VERTEX
  8
0
  5
3638
 10
51.0198
 20
90.5702
 30
0.00000
  70
    32
  0
VERTEX
  8
0
  5
3639
 10
51.0043
 20
90.5548
 30
0.00000
  70
    32
  0
VERTEX
  8
0
  5
363A
 10
50.9888
 20
90.5391
 30
0.00000
  70
    32
  0
VERTEX
  8
0
  5
363B
 10
50.9733
 20
90.5230
 30
0.00000
  70
    32
  0
VERTEX
  8
0
  5
363C
 10
50.9578
 20
90.5066
 30
0.00000
  70
    32
  0
VERTEX
  8
0
  5
363D
 10
50.9423
 20
90.4898
 30
0.00000
  70
    32
  0
VERTEX
  8
0
  5
363E
 10
50.9269
 20
90.4726
 30
0.00000
  70
    32
  0
VERTEX
  8
0
  5
363F
 10
50.9114
 20
90.4551
 30
0.00000
  70
    32
  0
VERTEX
  8
0
  5
3640
 10
50.8959
 20
90.4372
 30
0.00000
  70
    32
  0
VERTEX
  8
0
  5
3641
 10
50.8805
 20
90.4190
 30
0.00000
  70
    32
  0
VERTEX
  8
0
  5
3642
 10
50.8650
 20
90.4004
 30
0.00000
  70
    32
  0
VERTEX
  8
0
  5
3643
 10
50.8496
 20
90.3815
 30
0.00000
  70
    32
  0
VERTEX
  8
0
  5
3644
 10
50.8341
 20
90.3621
 30
0.00000
  70
    32
  0
VERTEX
  8
0
  5
3645
 10
50.8187
 20
90.3425
 30
0.00000
  70
    32
  0
VERTEX
  8
0
  5
3646
 10
50.8032
 20
90.3225
 30
0.00000
  70
    32
  0
VERTEX
  8
0
  5
3647
 10
50.7878
 20
90.3021
 30
0.00000
  70
    32
  0
VERTEX
  8
0
  5
3648
 10
50.7724
 20
90.2813
 30
0.00000
  70
    32
  0
VERTEX
  8
0
  5
3649
 10
50.7570
 20
90.2602
 30
0.00000
  70
    32
  0
VERTEX
  8
0
  5
364A
 10
50.7416
 20
90.2388
 30
0.00000
  70
    32
  0
VERTEX
  8
0
  5
364B
 10
50.7262
 20
90.2170
 30
0.00000
  70
    32
  0
VERTEX
  8
0
  5
364C
 10
50.7108
 20
90.1948
 30
0.00000
  70
    32
  0
VERTEX
  8
0
  5
364D
 10
50.6954
 20
90.1723
 30
0.00000
  70
    32
  0
VERTEX
  8
0
  5
364E
 10
50.6800
 20
90.1494
 30
0.00000
  70
    32
  0
VERTEX
  8
0
  5
364F
 10
50.6647
 20
90.1262
 30
0.00000
  70
    32
  0
VERTEX
  8
0
  5
3650
 10
50.6493
 20
90.1026
 30
0.00000
  70
    32
  0
VERTEX
  8
0
  5
3651
 10
50.6339
 20
90.0786
 30
0.00000
  70
    32
  0
VERTEX
  8
0
  5
3652
 10
50.6186
 20
90.0543
 30
0.00000
  70
    32
  0
VERTEX
  8
0
  5
3653
 10
50.6033
 20
90.0297
 30
0.00000
  70
    32
  0
VERTEX
  8
0
  5
3654
 10
50.5879
 20
90.0047
 30
0.00000
  70
    32
  0
VERTEX
  8
0
  5
3655
 10
50.5726
 20
89.9793
 30
0.00000
  70
    32
  0
VERTEX
  8
0
  5
3656
 10
50.5573
 20
89.9536
 30
0.00000
  70
    32
  0
VERTEX
  8
0
  5
3657
 10
50.5420
 20
89.9275
 30
0.00000
  70
    32
  0
VERTEX
  8
0
  5
3658
 10
50.5267
 20
89.9010
 30
0.00000
  70
    32
  0
VERTEX
  8
0
  5
3659
 10
50.5114
 20
89.8743
 30
0.00000
  70
    32
  0
VERTEX
  8
0
  5
365A
 10
50.4961
 20
89.8471
 30
0.00000
  70
    32
  0
VERTEX
  8
0
  5
365B
 10
50.4808
 20
89.8196
 30
0.00000
  70
    32
  0
VERTEX
  8
0
  5
365C
 10
50.4655
 20
89.7918
 30
0.00000
  70
    32
  0
VERTEX
  8
0
  5
365D
 10
50.4503
 20
89.7635
 30
0.00000
  70
    32
  0
VERTEX
  8
0
  5
365E
 10
50.4350
 20
89.7350
 30
0.00000
  70
    32
  0
VERTEX
  8
0
  5
365F
 10
50.4198
 20
89.7061
 30
0.00000
  70
    32
  0
VERTEX
  8
0
  5
3660
 10
50.4045
 20
89.6768
 30
0.00000
  70
    32
  0
VERTEX
  8
0
  5
3661
 10
50.3893
 20
89.6472
 30
0.00000
  70
    32
  0
VERTEX
  8
0
  5
3662
 10
50.3741
 20
89.6172
 30
0.00000
  70
    32
  0
VERTEX
  8
0
  5
3663
 10
50.3589
 20
89.5869
 30
0.00000
  70
    32
  0
VERTEX
  8
0
  5
3664
 10
50.3437
 20
89.5562
 30
0.00000
  70
    32
  0
VERTEX
  8
0
  5
3665
 10
50.3285
 20
89.5252
 30
0.00000
  70
    32
  0
VERTEX
  8
0
  5
3666
 10
50.3133
 20
89.4938
 30
0.00000
  70
    32
  0
VERTEX
  8
0
  5
3667
 10
50.2982
 20
89.4621
 30
0.00000
  70
    32
  0
VERTEX
  8
0
  5
3668
 10
50.2830
 20
89.4300
 30
0.00000
  70
    32
  0
VERTEX
  8
0
  5
3669
 10
50.2679
 20
89.3976
 30
0.00000
  70
    32
  0
SEQEND
  8
0
  5
366A
  0
POLYLINE
  5
30AF
  8
0
 66
     1
 10
0.0
 20
0.0
 30
0.0
  0
VERTEX
  5
3358
  8
0
 10
69.25
 20
90.6437765179363737
 30
0.0
  0
VERTEX
  5
3359
  8
0
 10
69.6539552986505441
 20
90.8899999999870261
 30
0.0
  0
VERTEX
  5
335A
  8
0
 10
70.0471935614827999
 20
90.8531331498801364
 30
0.0
  0
VERTEX
  5
335B
  8
0
 10
70.4464119749806059
 20
90.6030026643369837
 30
0.0
  0
VERTEX
  5
335C
  8
0
 10
70.8415015085261075
 20
90.1174609604157126
 30
0.0
  0
VERTEX
  5
335D
  8
0
 10
71.2321422855088144
 20
89.3975563500984265
 30
0.0
  0
SEQEND
  5
335E
  8
0
  0
POLYLINE
  5
30B0
  8
0
 10
71.4999999999995026
 20
82.588937348599373
 30
0.0
 66
     1
 70
     8
  0
VERTEX
  8
0
  5
366B
 10
71.5000
 20
82.5889
 30
0.00000
  70
    32
  0
VERTEX
  8
0
  5
366C
 10
71.4831
 20
82.6388
 30
0.00000
  70
    32
  0
VERTEX
  8
0
  5
366D
 10
71.4662
 20
82.6882
 30
0.00000
  70
    32
  0
VERTEX
  8
0
  5
366E
 10
71.4493
 20
82.7371
 30
0.00000
  70
    32
  0
VERTEX
  8
0
  5
366F
 10
71.4324
 20
82.7855
 30
0.00000
  70
    32
  0
VERTEX
  8
0
  5
3670
 10
71.4154
 20
82.8334
 30
0.00000
  70
    32
  0
VERTEX
  8
0
  5
3671
 10
71.3984
 20
82.8807
 30
0.00000
  70
    32
  0
VERTEX
  8
0
  5
3672
 10
71.3814
 20
82.9276
 30
0.00000
  70
    32
  0
VERTEX
  8
0
  5
3673
 10
71.3644
 20
82.9739
 30
0.00000
  70
    32
  0
VERTEX
  8
0
  5
3674
 10
71.3474
 20
83.0198
 30
0.00000
  70
    32
  0
VERTEX
  8
0
  5
3675
 10
71.3304
 20
83.0651
 30
0.00000
  70
    32
  0
VERTEX
  8
0
  5
3676
 10
71.3133
 20
83.1099
 30
0.00000
  70
    32
  0
VERTEX
  8
0
  5
3677
 10
71.2962
 20
83.1542
 30
0.00000
  70
    32
  0
VERTEX
  8
0
  5
3678
 10
71.2791
 20
83.1980
 30
0.00000
  70
    32
  0
VERTEX
  8
0
  5
3679
 10
71.2620
 20
83.2413
 30
0.00000
  70
    32
  0
VERTEX
  8
0
  5
367A
 10
71.2449
 20
83.2841
 30
0.00000
  70
    32
  0
VERTEX
  8
0
  5
367B
 10
71.2277
 20
83.3263
 30
0.00000
  70
    32
  0
VERTEX
  8
0
  5
367C
 10
71.2105
 20
83.3681
 30
0.00000
  70
    32
  0
VERTEX
  8
0
  5
367D
 10
71.1933
 20
83.4093
 30
0.00000
  70
    32
  0
VERTEX
  8
0
  5
367E
 10
71.1761
 20
83.4500
 30
0.00000
  70
    32
  0
VERTEX
  8
0
  5
367F
 10
71.1589
 20
83.4902
 30
0.00000
  70
    32
  0
VERTEX
  8
0
  5
3680
 10
71.1417
 20
83.5299
 30
0.00000
  70
    32
  0
VERTEX
  8
0
  5
3681
 10
71.1244
 20
83.5690
 30
0.00000
  70
    32
  0
VERTEX
  8
0
  5
3682
 10
71.1072
 20
83.6077
 30
0.00000
  70
    32
  0
VERTEX
  8
0
  5
3683
 10
71.0899
 20
83.6458
 30
0.00000
  70
    32
  0
VERTEX
  8
0
  5
3684
 10
71.0726
 20
83.6834
 30
0.00000
  70
    32
  0
VERTEX
  8
0
  5
3685
 10
71.0553
 20
83.7205
 30
0.00000
  70
    32
  0
VERTEX
  8
0
  5
3686
 10
71.0380
 20
83.7571
 30
0.00000
  70
    32
  0
VERTEX
  8
0
  5
3687
 10
71.0206
 20
83.7932
 30
0.00000
  70
    32
  0
VERTEX
  8
0
  5
3688
 10
71.0033
 20
83.8287
 30
0.00000
  70
    32
  0
VERTEX
  8
0
  5
3689
 10
70.9859
 20
83.8637
 30
0.00000
  70
    32
  0
VERTEX
  8
0
  5
368A
 10
70.9685
 20
83.8982
 30
0.00000
  70
    32
  0
VERTEX
  8
0
  5
368B
 10
70.9511
 20
83.9322
 30
0.00000
  70
    32
  0
VERTEX
  8
0
  5
368C
 10
70.9337
 20
83.9656
 30
0.00000
  70
    32
  0
VERTEX
  8
0
  5
368D
 10
70.9163
 20
83.9986
 30
0.00000
  70
    32
  0
VERTEX
  8
0
  5
368E
 10
70.8989
 20
84.0310
 30
0.00000
  70
    32
  0
VERTEX
  8
0
  5
368F
 10
70.8814
 20
84.0629
 30
0.00000
  70
    32
  0
VERTEX
  8
0
  5
3690
 10
70.8640
 20
84.0943
 30
0.00000
  70
    32
  0
VERTEX
  8
0
  5
3691
 10
70.8465
 20
84.1251
 30
0.00000
  70
    32
  0
VERTEX
  8
0
  5
3692
 10
70.8290
 20
84.1554
 30
0.00000
  70
    32
  0
VERTEX
  8
0
  5
3693
 10
70.8115
 20
84.1852
 30
0.00000
  70
    32
  0
VERTEX
  8
0
  5
3694
 10
70.7940
 20
84.2145
 30
0.00000
  70
    32
  0
VERTEX
  8
0
  5
3695
 10
70.7765
 20
84.2433
 30
0.00000
  70
    32
  0
VERTEX
  8
0
  5
3696
 10
70.7590
 20
84.2715
 30
0.00000
  70
    32
  0
VERTEX
  8
0
  5
3697
 10
70.7414
 20
84.2992
 30
0.00000
  70
    32
  0
VERTEX
  8
0
  5
3698
 10
70.7239
 20
84.3264
 30
0.00000
  70
    32
  0
VERTEX
  8
0
  5
3699
 10
70.7063
 20
84.3530
 30
0.00000
  70
    32
  0
VERTEX
  8
0
  5
369A
 10
70.6888
 20
84.3791
 30
0.00000
  70
    32
  0
VERTEX
  8
0
  5
369B
 10
70.6712
 20
84.4047
 30
0.00000
  70
    32
  0
VERTEX
  8
0
  5
369C
 10
70.6536
 20
84.4298
 30
0.00000
  70
    32
  0
VERTEX
  8
0
  5
369D
 10
70.6360
 20
84.4543
 30
0.00000
  70
    32
  0
VERTEX
  8
0
  5
369E
 10
70.6184
 20
84.4784
 30
0.00000
  70
    32
  0
VERTEX
  8
0
  5
369F
 10
70.6007
 20
84.5018
 30
0.00000
  70
    32
  0
VERTEX
  8
0
  5
36A0
 10
70.5831
 20
84.5248
 30
0.00000
  70
    32
  0
VERTEX
  8
0
  5
36A1
 10
70.5655
 20
84.5472
 30
0.00000
  70
    32
  0
VERTEX
  8
0
  5
36A2
 10
70.5478
 20
84.5691
 30
0.00000
  70
    32
  0
VERTEX
  8
0
  5
36A3
 10
70.5302
 20
84.5905
 30
0.00000
  70
    32
  0
VERTEX
  8
0
  5
36A4
 10
70.5125
 20
84.6114
 30
0.00000
  70
    32
  0
VERTEX
  8
0
  5
36A5
 10
70.4948
 20
84.6317
 30
0.00000
  70
    32
  0
VERTEX
  8
0
  5
36A6
 10
70.4772
 20
84.6515
 30
0.00000
  70
    32
  0
VERTEX
  8
0
  5
36A7
 10
70.4595
 20
84.6707
 30
0.00000
  70
    32
  0
VERTEX
  8
0
  5
36A8
 10
70.4418
 20
84.6895
 30
0.00000
  70
    32
  0
VERTEX
  8
0
  5
36A9
 10
70.4241
 20
84.7077
 30
0.00000
  70
    32
  0
VERTEX
  8
0
  5
36AA
 10
70.4064
 20
84.7253
 30
0.00000
  70
    32
  0
VERTEX
  8
0
  5
36AB
 10
70.3886
 20
84.7425
 30
0.00000
  70
    32
  0
VERTEX
  8
0
  5
36AC
 10
70.3709
 20
84.7591
 30
0.00000
  70
    32
  0
VERTEX
  8
0
  5
36AD
 10
70.3532
 20
84.7752
 30
0.00000
  70
    32
  0
VERTEX
  8
0
  5
36AE
 10
70.3354
 20
84.7907
 30
0.00000
  70
    32
  0
VERTEX
  8
0
  5
36AF
 10
70.3177
 20
84.8057
 30
0.00000
  70
    32
  0
VERTEX
  8
0
  5
36B0
 10
70.2999
 20
84.8202
 30
0.00000
  70
    32
  0
VERTEX
  8
0
  5
36B1
 10
70.2822
 20
84.8342
 30
0.00000
  70
    32
  0
VERTEX
  8
0
  5
36B2
 10
70.2644
 20
84.8476
 30
0.00000
  70
    32
  0
VERTEX
  8
0
  5
36B3
 10
70.2467
 20
84.8605
 30
0.00000
  70
    32
  0
VERTEX
  8
0
  5
36B4
 10
70.2289
 20
84.8728
 30
0.00000
  70
    32
  0
VERTEX
  8
0
  5
36B5
 10
70.2111
 20
84.8847
 30
0.00000
  70
    32
  0
VERTEX
  8
0
  5
36B6
 10
70.1933
 20
84.8960
 30
0.00000
  70
    32
  0
VERTEX
  8
0
  5
36B7
 10
70.1756
 20
84.9067
 30
0.00000
  70
    32
  0
VERTEX
  8
0
  5
36B8
 10
70.1578
 20
84.9169
 30
0.00000
  70
    32
  0
VERTEX
  8
0
  5
36B9
 10
70.1400
 20
84.9266
 30
0.00000
  70
    32
  0
VERTEX
  8
0
  5
36BA
 10
70.1222
 20
84.9358
 30
0.00000
  70
    32
  0
VERTEX
  8
0
  5
36BB
 10
70.1044
 20
84.9444
 30
0.00000
  70
    32
  0
VERTEX
  8
0
  5
36BC
 10
70.0866
 20
84.9525
 30
0.00000
  70
    32
  0
VERTEX
  8
0
  5
36BD
 10
70.0688
 20
84.9601
 30
0.00000
  70
    32
  0
VERTEX
  8
0
  5
36BE
 10
70.0510
 20
84.9671
 30
0.00000
  70
    32
  0
VERTEX
  8
0
  5
36BF
 10
70.0332
 20
84.9736
 30
0.00000
  70
    32
  0
VERTEX
  8
0
  5
36C0
 10
70.0153
 20
84.9796
 30
0.00000
  70
    32
  0
VERTEX
  8
0
  5
36C1
 10
69.9975
 20
84.9850
 30
0.00000
  70
    32
  0
VERTEX
  8
0
  5
36C2
 10
69.9797
 20
84.9899
 30
0.00000
  70
    32
  0
VERTEX
  8
0
  5
36C3
 10
69.9619
 20
84.9943
 30
0.00000
  70
    32
  0
VERTEX
  8
0
  5
36C4
 10
69.9441
 20
84.9981
 30
0.00000
  70
    32
  0
VERTEX
  8
0
  5
36C5
 10
69.9262
 20
85.0014
 30
0.00000
  70
    32
  0
VERTEX
  8
0
  5
36C6
 10
69.9084
 20
85.0042
 30
0.00000
  70
    32
  0
VERTEX
  8
0
  5
36C7
 10
69.8906
 20
85.0064
 30
0.00000
  70
    32
  0
VERTEX
  8
0
  5
36C8
 10
69.8728
 20
85.0081
 30
0.00000
  70
    32
  0
VERTEX
  8
0
  5
36C9
 10
69.8549
 20
85.0093
 30
0.00000
  70
    32
  0
VERTEX
  8
0
  5
36CA
 10
69.8371
 20
85.0099
 30
0.00000
  70
    32
  0
VERTEX
  8
0
  5
36CB
 10
69.8193
 20
85.0100
 30
0.00000
  70
    32
  0
VERTEX
  8
0
  5
36CC
 10
69.8015
 20
85.0095
 30
0.00000
  70
    32
  0
VERTEX
  8
0
  5
36CD
 10
69.7836
 20
85.0086
 30
0.00000
  70
    32
  0
VERTEX
  8
0
  5
36CE
 10
69.7658
 20
85.0071
 30
0.00000
  70
    32
  0
VERTEX
  8
0
  5
36CF
 10
69.7480
 20
85.0050
 30
0.00000
  70
    32
  0
VERTEX
  8
0
  5
36D0
 10
69.7302
 20
85.0024
 30
0.00000
  70
    32
  0
VERTEX
  8
0
  5
36D1
 10
69.7123
 20
84.9993
 30
0.00000
  70
    32
  0
VERTEX
  8
0
  5
36D2
 10
69.6945
 20
84.9957
 30
0.00000
  70
    32
  0
VERTEX
  8
0
  5
36D3
 10
69.6767
 20
84.9915
 30
0.00000
  70
    32
  0
VERTEX
  8
0
  5
36D4
 10
69.6589
 20
84.9868
 30
0.00000
  70
    32
  0
VERTEX
  8
0
  5
36D5
 10
69.6410
 20
84.9816
 30
0.00000
  70
    32
  0
VERTEX
  8
0
  5
36D6
 10
69.6232
 20
84.9758
 30
0.00000
  70
    32
  0
VERTEX
  8
0
  5
36D7
 10
69.6054
 20
84.9695
 30
0.00000
  70
    32
  0
VERTEX
  8
0
  5
36D8
 10
69.5876
 20
84.9626
 30
0.00000
  70
    32
  0
VERTEX
  8
0
  5
36D9
 10
69.5698
 20
84.9552
 30
0.00000
  70
    32
  0
VERTEX
  8
0
  5
36DA
 10
69.5520
 20
84.9473
 30
0.00000
  70
    32
  0
VERTEX
  8
0
  5
36DB
 10
69.5342
 20
84.9389
 30
0.00000
  70
    32
  0
VERTEX
  8
0
  5
36DC
 10
69.5164
 20
84.9299
 30
0.00000
  70
    32
  0
VERTEX
  8
0
  5
36DD
 10
69.4986
 20
84.9204
 30
0.00000
  70
    32
  0
VERTEX
  8
0
  5
36DE
 10
69.4808
 20
84.9104
 30
0.00000
  70
    32
  0
VERTEX
  8
0
  5
36DF
 10
69.4630
 20
84.8998
 30
0.00000
  70
    32
  0
VERTEX
  8
0
  5
36E0
 10
69.4453
 20
84.8887
 30
0.00000
  70
    32
  0
VERTEX
  8
0
  5
36E1
 10
69.4275
 20
84.8771
 30
0.00000
  70
    32
  0
VERTEX
  8
0
  5
36E2
 10
69.4097
 20
84.8649
 30
0.00000
  70
    32
  0
VERTEX
  8
0
  5
36E3
 10
69.3919
 20
84.8522
 30
0.00000
  70
    32
  0
VERTEX
  8
0
  5
36E4
 10
69.3742
 20
84.8389
 30
0.00000
  70
    32
  0
VERTEX
  8
0
  5
36E5
 10
69.3564
 20
84.8252
 30
0.00000
  70
    32
  0
VERTEX
  8
0
  5
36E6
 10
69.3387
 20
84.8109
 30
0.00000
  70
    32
  0
VERTEX
  8
0
  5
36E7
 10
69.3209
 20
84.7961
 30
0.00000
  70
    32
  0
VERTEX
  8
0
  5
36E8
 10
69.3032
 20
84.7807
 30
0.00000
  70
    32
  0
VERTEX
  8
0
  5
36E9
 10
69.2854
 20
84.7648
 30
0.00000
  70
    32
  0
VERTEX
  8
0
  5
36EA
 10
69.2677
 20
84.7484
 30
0.00000
  70
    32
  0
VERTEX
  8
0
  5
36EB
 10
69.2500
 20
84.7314
 30
0.00000
  70
    32
  0
SEQEND
  8
0
  5
36EC
  0
LINE
  5
30B1
  8
0
 10
71.5
 20
82.5889373485979661
 30
0.0
 11
71.5
 21
82.396621267101267
 31
0.0
  0
ARC
  5
30B2
  8
0
 10
65.971222109156983
 20
84.5249425792424063
 30
0.0
 40
5.924283633823503
 50
292.6220365136313717
 51
338.945624586118015
  0
ARC
  5
30B3
  8
0
 10
55.5475566606369284
 20
84.543299831500164
 30
0.0
 40
5.9484127094399346
 50
201.154408575365494
 51
247.2788216011178122
  0
LINE
  5
30B4
  8
0
 10
50.0
 20
82.5889373485979661
 30
0.0
 11
50.0
 21
82.3966212671012954
 31
0.0
  0
POLYLINE
  5
30B5
  8
0
 10
52.2499999999993747
 20
84.7314218419097926
 30
0.0
 66
     1
 70
     8
  0
VERTEX
  8
0
  5
36ED
 10
52.2500
 20
84.7314
 30
0.00000
  70
    32
  0
VERTEX
  8
0
  5
36EE
 10
52.2323
 20
84.7484
 30
0.00000
  70
    32
  0
VERTEX
  8
0
  5
36EF
 10
52.2146
 20
84.7648
 30
0.00000
  70
    32
  0
VERTEX
  8
0
  5
36F0
 10
52.1968
 20
84.7807
 30
0.00000
  70
    32
  0
VERTEX
  8
0
  5
36F1
 10
52.1791
 20
84.7961
 30
0.00000
  70
    32
  0
VERTEX
  8
0
  5
36F2
 10
52.1613
 20
84.8109
 30
0.00000
  70
    32
  0
VERTEX
  8
0
  5
36F3
 10
52.1436
 20
84.8252
 30
0.00000
  70
    32
  0
VERTEX
  8
0
  5
36F4
 10
52.1258
 20
84.8389
 30
0.00000
  70
    32
  0
VERTEX
  8
0
  5
36F5
 10
52.1081
 20
84.8522
 30
0.00000
  70
    32
  0
VERTEX
  8
0
  5
36F6
 10
52.0903
 20
84.8649
 30
0.00000
  70
    32
  0
VERTEX
  8
0
  5
36F7
 10
52.0725
 20
84.8771
 30
0.00000
  70
    32
  0
VERTEX
  8
0
  5
36F8
 10
52.0547
 20
84.8887
 30
0.00000
  70
    32
  0
VERTEX
  8
0
  5
36F9
 10
52.0370
 20
84.8998
 30
0.00000
  70
    32
  0
VERTEX
  8
0
  5
36FA
 10
52.0192
 20
84.9104
 30
0.00000
  70
    32
  0
VERTEX
  8
0
  5
36FB
 10
52.0014
 20
84.9204
 30
0.00000
  70
    32
  0
VERTEX
  8
0
  5
36FC
 10
51.9836
 20
84.9299
 30
0.00000
  70
    32
  0
VERTEX
  8
0
  5
36FD
 10
51.9658
 20
84.9389
 30
0.00000
  70
    32
  0
VERTEX
  8
0
  5
36FE
 10
51.9480
 20
84.9473
 30
0.00000
  70
    32
  0
VERTEX
  8
0
  5
36FF
 10
51.9302
 20
84.9552
 30
0.00000
  70
    32
  0
VERTEX
  8
0
  5
3700
 10
51.9124
 20
84.9626
 30
0.00000
  70
    32
  0
VERTEX
  8
0
  5
3701
 10
51.8946
 20
84.9695
 30
0.00000
  70
    32
  0
VERTEX
  8
0
  5
3702
 10
51.8768
 20
84.9758
 30
0.00000
  70
    32
  0
VERTEX
  8
0
  5
3703
 10
51.8590
 20
84.9816
 30
0.00000
  70
    32
  0
VERTEX
  8
0
  5
3704
 10
51.8411
 20
84.9868
 30
0.00000
  70
    32
  0
VERTEX
  8
0
  5
3705
 10
51.8233
 20
84.9915
 30
0.00000
  70
    32
  0
VERTEX
  8
0
  5
3706
 10
51.8055
 20
84.9957
 30
0.00000
  70
    32
  0
VERTEX
  8
0
  5
3707
 10
51.7877
 20
84.9993
 30
0.00000
  70
    32
  0
VERTEX
  8
0
  5
3708
 10
51.7698
 20
85.0024
 30
0.00000
  70
    32
  0
VERTEX
  8
0
  5
3709
 10
51.7520
 20
85.0050
 30
0.00000
  70
    32
  0
VERTEX
  8
0
  5
370A
 10
51.7342
 20
85.0071
 30
0.00000
  70
    32
  0
VERTEX
  8
0
  5
370B
 10
51.7164
 20
85.0086
 30
0.00000
  70
    32
  0
VERTEX
  8
0
  5
370C
 10
51.6985
 20
85.0095
 30
0.00000
  70
    32
  0
VERTEX
  8
0
  5
370D
 10
51.6807
 20
85.0100
 30
0.00000
  70
    32
  0
VERTEX
  8
0
  5
370E
 10
51.6629
 20
85.0099
 30
0.00000
  70
    32
  0
VERTEX
  8
0
  5
370F
 10
51.6451
 20
85.0093
 30
0.00000
  70
    32
  0
VERTEX
  8
0
  5
3710
 10
51.6272
 20
85.0081
 30
0.00000
  70
    32
  0
VERTEX
  8
0
  5
3711
 10
51.6094
 20
85.0064
 30
0.00000
  70
    32
  0
VERTEX
  8
0
  5
3712
 10
51.5916
 20
85.0042
 30
0.00000
  70
    32
  0
VERTEX
  8
0
  5
3713
 10
51.5738
 20
85.0014
 30
0.00000
  70
    32
  0
VERTEX
  8
0
  5
3714
 10
51.5559
 20
84.9981
 30
0.00000
  70
    32
  0
VERTEX
  8
0
  5
3715
 10
51.5381
 20
84.9943
 30
0.00000
  70
    32
  0
VERTEX
  8
0
  5
3716
 10
51.5203
 20
84.9899
 30
0.00000
  70
    32
  0
VERTEX
  8
0
  5
3717
 10
51.5025
 20
84.9850
 30
0.00000
  70
    32
  0
VERTEX
  8
0
  5
3718
 10
51.4847
 20
84.9796
 30
0.00000
  70
    32
  0
VERTEX
  8
0
  5
3719
 10
51.4668
 20
84.9736
 30
0.00000
  70
    32
  0
VERTEX
  8
0
  5
371A
 10
51.4490
 20
84.9671
 30
0.00000
  70
    32
  0
VERTEX
  8
0
  5
371B
 10
51.4312
 20
84.9601
 30
0.00000
  70
    32
  0
VERTEX
  8
0
  5
371C
 10
51.4134
 20
84.9525
 30
0.00000
  70
    32
  0
VERTEX
  8
0
  5
371D
 10
51.3956
 20
84.9444
 30
0.00000
  70
    32
  0
VERTEX
  8
0
  5
371E
 10
51.3778
 20
84.9358
 30
0.00000
  70
    32
  0
VERTEX
  8
0
  5
371F
 10
51.3600
 20
84.9266
 30
0.00000
  70
    32
  0
VERTEX
  8
0
  5
3720
 10
51.3422
 20
84.9169
 30
0.00000
  70
    32
  0
VERTEX
  8
0
  5
3721
 10
51.3244
 20
84.9067
 30
0.00000
  70
    32
  0
VERTEX
  8
0
  5
3722
 10
51.3067
 20
84.8960
 30
0.00000
  70
    32
  0
VERTEX
  8
0
  5
3723
 10
51.2889
 20
84.8847
 30
0.00000
  70
    32
  0
VERTEX
  8
0
  5
3724
 10
51.2711
 20
84.8728
 30
0.00000
  70
    32
  0
VERTEX
  8
0
  5
3725
 10
51.2533
 20
84.8605
 30
0.00000
  70
    32
  0
VERTEX
  8
0
  5
3726
 10
51.2356
 20
84.8476
 30
0.00000
  70
    32
  0
VERTEX
  8
0
  5
3727
 10
51.2178
 20
84.8342
 30
0.00000
  70
    32
  0
VERTEX
  8
0
  5
3728
 10
51.2001
 20
84.8202
 30
0.00000
  70
    32
  0
VERTEX
  8
0
  5
3729
 10
51.1823
 20
84.8057
 30
0.00000
  70
    32
  0
VERTEX
  8
0
  5
372A
 10
51.1646
 20
84.7907
 30
0.00000
  70
    32
  0
VERTEX
  8
0
  5
372B
 10
51.1468
 20
84.7752
 30
0.00000
  70
    32
  0
VERTEX
  8
0
  5
372C
 10
51.1291
 20
84.7591
 30
0.00000
  70
    32
  0
VERTEX
  8
0
  5
372D
 10
51.1114
 20
84.7425
 30
0.00000
  70
    32
  0
VERTEX
  8
0
  5
372E
 10
51.0936
 20
84.7253
 30
0.00000
  70
    32
  0
VERTEX
  8
0
  5
372F
 10
51.0759
 20
84.7077
 30
0.00000
  70
    32
  0
VERTEX
  8
0
  5
3730
 10
51.0582
 20
84.6895
 30
0.00000
  70
    32
  0
VERTEX
  8
0
  5
3731
 10
51.0405
 20
84.6707
 30
0.00000
  70
    32
  0
VERTEX
  8
0
  5
3732
 10
51.0228
 20
84.6515
 30
0.00000
  70
    32
  0
VERTEX
  8
0
  5
3733
 10
51.0052
 20
84.6317
 30
0.00000
  70
    32
  0
VERTEX
  8
0
  5
3734
 10
50.9875
 20
84.6114
 30
0.00000
  70
    32
  0
VERTEX
  8
0
  5
3735
 10
50.9698
 20
84.5905
 30
0.00000
  70
    32
  0
VERTEX
  8
0
  5
3736
 10
50.9522
 20
84.5691
 30
0.00000
  70
    32
  0
VERTEX
  8
0
  5
3737
 10
50.9345
 20
84.5472
 30
0.00000
  70
    32
  0
VERTEX
  8
0
  5
3738
 10
50.9169
 20
84.5248
 30
0.00000
  70
    32
  0
VERTEX
  8
0
  5
3739
 10
50.8993
 20
84.5018
 30
0.00000
  70
    32
  0
VERTEX
  8
0
  5
373A
 10
50.8816
 20
84.4784
 30
0.00000
  70
    32
  0
VERTEX
  8
0
  5
373B
 10
50.8640
 20
84.4543
 30
0.00000
  70
    32
  0
VERTEX
  8
0
  5
373C
 10
50.8464
 20
84.4298
 30
0.00000
  70
    32
  0
VERTEX
  8
0
  5
373D
 10
50.8288
 20
84.4047
 30
0.00000
  70
    32
  0
VERTEX
  8
0
  5
373E
 10
50.8112
 20
84.3791
 30
0.00000
  70
    32
  0
VERTEX
  8
0
  5
373F
 10
50.7937
 20
84.3530
 30
0.00000
  70
    32
  0
VERTEX
  8
0
  5
3740
 10
50.7761
 20
84.3264
 30
0.00000
  70
    32
  0
VERTEX
  8
0
  5
3741
 10
50.7586
 20
84.2992
 30
0.00000
  70
    32
  0
VERTEX
  8
0
  5
3742
 10
50.7410
 20
84.2715
 30
0.00000
  70
    32
  0
VERTEX
  8
0
  5
3743
 10
50.7235
 20
84.2433
 30
0.00000
  70
    32
  0
VERTEX
  8
0
  5
3744
 10
50.7060
 20
84.2145
 30
0.00000
  70
    32
  0
VERTEX
  8
0
  5
3745
 10
50.6885
 20
84.1852
 30
0.00000
  70
    32
  0
VERTEX
  8
0
  5
3746
 10
50.6710
 20
84.1554
 30
0.00000
  70
    32
  0
VERTEX
  8
0
  5
3747
 10
50.6535
 20
84.1251
 30
0.00000
  70
    32
  0
VERTEX
  8
0
  5
3748
 10
50.6360
 20
84.0943
 30
0.00000
  70
    32
  0
VERTEX
  8
0
  5
3749
 10
50.6186
 20
84.0629
 30
0.00000
  70
    32
  0
VERTEX
  8
0
  5
374A
 10
50.6011
 20
84.0310
 30
0.00000
  70
    32
  0
VERTEX
  8
0
  5
374B
 10
50.5837
 20
83.9986
 30
0.00000
  70
    32
  0
VERTEX
  8
0
  5
374C
 10
50.5663
 20
83.9656
 30
0.00000
  70
    32
  0
VERTEX
  8
0
  5
374D
 10
50.5489
 20
83.9322
 30
0.00000
  70
    32
  0
VERTEX
  8
0
  5
374E
 10
50.5315
 20
83.8982
 30
0.00000
  70
    32
  0
VERTEX
  8
0
  5
374F
 10
50.5141
 20
83.8637
 30
0.00000
  70
    32
  0
VERTEX
  8
0
  5
3750
 10
50.4967
 20
83.8287
 30
0.00000
  70
    32
  0
VERTEX
  8
0
  5
3751
 10
50.4794
 20
83.7932
 30
0.00000
  70
    32
  0
VERTEX
  8
0
  5
3752
 10
50.4620
 20
83.7571
 30
0.00000
  70
    32
  0
VERTEX
  8
0
  5
3753
 10
50.4447
 20
83.7205
 30
0.00000
  70
    32
  0
VERTEX
  8
0
  5
3754
 10
50.4274
 20
83.6834
 30
0.00000
  70
    32
  0
VERTEX
  8
0
  5
3755
 10
50.4101
 20
83.6458
 30
0.00000
  70
    32
  0
VERTEX
  8
0
  5
3756
 10
50.3928
 20
83.6077
 30
0.00000
  70
    32
  0
VERTEX
  8
0
  5
3757
 10
50.3756
 20
83.5690
 30
0.00000
  70
    32
  0
VERTEX
  8
0
  5
3758
 10
50.3583
 20
83.5299
 30
0.00000
  70
    32
  0
VERTEX
  8
0
  5
3759
 10
50.3411
 20
83.4902
 30
0.00000
  70
    32
  0
VERTEX
  8
0
  5
375A
 10
50.3239
 20
83.4500
 30
0.00000
  70
    32
  0
VERTEX
  8
0
  5
375B
 10
50.3067
 20
83.4093
 30
0.00000
  70
    32
  0
VERTEX
  8
0
  5
375C
 10
50.2895
 20
83.3681
 30
0.00000
  70
    32
  0
VERTEX
  8
0
  5
375D
 10
50.2723
 20
83.3263
 30
0.00000
  70
    32
  0
VERTEX
  8
0
  5
375E
 10
50.2551
 20
83.2841
 30
0.00000
  70
    32
  0
VERTEX
  8
0
  5
375F
 10
50.2380
 20
83.2413
 30
0.00000
  70
    32
  0
VERTEX
  8
0
  5
3760
 10
50.2209
 20
83.1980
 30
0.00000
  70
    32
  0
VERTEX
  8
0
  5
3761
 10
50.2038
 20
83.1542
 30
0.00000
  70
    32
  0
VERTEX
  8
0
  5
3762
 10
50.1867
 20
83.1099
 30
0.00000
  70
    32
  0
VERTEX
  8
0
  5
3763
 10
50.1696
 20
83.0651
 30
0.00000
  70
    32
  0
VERTEX
  8
0
  5
3764
 10
50.1526
 20
83.0198
 30
0.00000
  70
    32
  0
VERTEX
  8
0
  5
3765
 10
50.1356
 20
82.9739
 30
0.00000
  70
    32
  0
VERTEX
  8
0
  5
3766
 10
50.1186
 20
82.9276
 30
0.00000
  70
    32
  0
VERTEX
  8
0
  5
3767
 10
50.1016
 20
82.8807
 30
0.00000
  70
    32
  0
VERTEX
  8
0
  5
3768
 10
50.0846
 20
82.8334
 30
0.00000
  70
    32
  0
VERTEX
  8
0
  5
3769
 10
50.0676
 20
82.7855
 30
0.00000
  70
    32
  0
VERTEX
  8
0
  5
376A
 10
50.0507
 20
82.7371
 30
0.00000
  70
    32
  0
VERTEX
  8
0
  5
376B
 10
50.0338
 20
82.6882
 30
0.00000
  70
    32
  0
VERTEX
  8
0
  5
376C
 10
50.0169
 20
82.6388
 30
0.00000
  70
    32
  0
VERTEX
  8
0
  5
376D
 10
50.0000
 20
82.5889
 30
0.00000
  70
    32
  0
SEQEND
  8
0
  5
376E
  0
LINE
  5
30B6
  8
0
 10
71.2321422855088144
 20
89.3975563500984549
 30
0.0
 11
71.5
 21
88.7518314164441335
 31
0.0
  0
LINE
  5
30B7
  8
0
 10
71.5
 20
88.7518314164440767
 30
0.0
 11
71.5
 21
82.5889373485979377
 31
0.0
  0
POLYLINE
  5
30B8
  8
0
 10
50.2678577144916048
 20
89.3975563500991797
 30
0.0
 66
     1
 70
     8
  0
VERTEX
  8
0
  5
376F
 10
50.2679
 20
89.3976
 30
0.00000
  70
    32
  0
VERTEX
  8
0
  5
3770
 10
50.2657
 20
89.3932
 30
0.00000
  70
    32
  0
VERTEX
  8
0
  5
3771
 10
50.2636
 20
89.3888
 30
0.00000
  70
    32
  0
VERTEX
  8
0
  5
3772
 10
50.2615
 20
89.3844
 30
0.00000
  70
    32
  0
VERTEX
  8
0
  5
3773
 10
50.2594
 20
89.3800
 30
0.00000
  70
    32
  0
VERTEX
  8
0
  5
3774
 10
50.2573
 20
89.3756
 30
0.00000
  70
    32
  0
VERTEX
  8
0
  5
3775
 10
50.2552
 20
89.3712
 30
0.00000
  70
    32
  0
VERTEX
  8
0
  5
3776
 10
50.2531
 20
89.3668
 30
0.00000
  70
    32
  0
VERTEX
  8
0
  5
3777
 10
50.2510
 20
89.3623
 30
0.00000
  70
    32
  0
VERTEX
  8
0
  5
3778
 10
50.2488
 20
89.3579
 30
0.00000
  70
    32
  0
VERTEX
  8
0
  5
3779
 10
50.2467
 20
89.3534
 30
0.00000
  70
    32
  0
VERTEX
  8
0
  5
377A
 10
50.2446
 20
89.3489
 30
0.00000
  70
    32
  0
VERTEX
  8
0
  5
377B
 10
50.2425
 20
89.3444
 30
0.00000
  70
    32
  0
VERTEX
  8
0
  5
377C
 10
50.2404
 20
89.3400
 30
0.00000
  70
    32
  0
VERTEX
  8
0
  5
377D
 10
50.2383
 20
89.3354
 30
0.00000
  70
    32
  0
VERTEX
  8
0
  5
377E
 10
50.2362
 20
89.3309
 30
0.00000
  70
    32
  0
VERTEX
  8
0
  5
377F
 10
50.2341
 20
89.3264
 30
0.00000
  70
    32
  0
VERTEX
  8
0
  5
3780
 10
50.2320
 20
89.3219
 30
0.00000
  70
    32
  0
VERTEX
  8
0
  5
3781
 10
50.2299
 20
89.3173
 30
0.00000
  70
    32
  0
VERTEX
  8
0
  5
3782
 10
50.2278
 20
89.3128
 30
0.00000
  70
    32
  0
VERTEX
  8
0
  5
3783
 10
50.2256
 20
89.3082
 30
0.00000
  70
    32
  0
VERTEX
  8
0
  5
3784
 10
50.2235
 20
89.3036
 30
0.00000
  70
    32
  0
VERTEX
  8
0
  5
3785
 10
50.2214
 20
89.2990
 30
0.00000
  70
    32
  0
VERTEX
  8
0
  5
3786
 10
50.2193
 20
89.2944
 30
0.00000
  70
    32
  0
VERTEX
  8
0
  5
3787
 10
50.2172
 20
89.2898
 30
0.00000
  70
    32
  0
VERTEX
  8
0
  5
3788
 10
50.2151
 20
89.2852
 30
0.00000
  70
    32
  0
VERTEX
  8
0
  5
3789
 10
50.2130
 20
89.2805
 30
0.00000
  70
    32
  0
VERTEX
  8
0
  5
378A
 10
50.2109
 20
89.2759
 30
0.00000
  70
    32
  0
VERTEX
  8
0
  5
378B
 10
50.2088
 20
89.2712
 30
0.00000
  70
    32
  0
VERTEX
  8
0
  5
378C
 10
50.2067
 20
89.2666
 30
0.00000
  70
    32
  0
VERTEX
  8
0
  5
378D
 10
50.2046
 20
89.2619
 30
0.00000
  70
    32
  0
VERTEX
  8
0
  5
378E
 10
50.2025
 20
89.2572
 30
0.00000
  70
    32
  0
VERTEX
  8
0
  5
378F
 10
50.2004
 20
89.2525
 30
0.00000
  70
    32
  0
VERTEX
  8
0
  5
3790
 10
50.1983
 20
89.2478
 30
0.00000
  70
    32
  0
VERTEX
  8
0
  5
3791
 10
50.1962
 20
89.2431
 30
0.00000
  70
    32
  0
VERTEX
  8
0
  5
3792
 10
50.1941
 20
89.2383
 30
0.00000
  70
    32
  0
VERTEX
  8
0
  5
3793
 10
50.1920
 20
89.2336
 30
0.00000
  70
    32
  0
VERTEX
  8
0
  5
3794
 10
50.1899
 20
89.2289
 30
0.00000
  70
    32
  0
VERTEX
  8
0
  5
3795
 10
50.1878
 20
89.2241
 30
0.00000
  70
    32
  0
VERTEX
  8
0
  5
3796
 10
50.1857
 20
89.2193
 30
0.00000
  70
    32
  0
VERTEX
  8
0
  5
3797
 10
50.1836
 20
89.2145
 30
0.00000
  70
    32
  0
VERTEX
  8
0
  5
3798
 10
50.1815
 20
89.2097
 30
0.00000
  70
    32
  0
VERTEX
  8
0
  5
3799
 10
50.1794
 20
89.2049
 30
0.00000
  70
    32
  0
VERTEX
  8
0
  5
379A
 10
50.1773
 20
89.2001
 30
0.00000
  70
    32
  0
VERTEX
  8
0
  5
379B
 10
50.1752
 20
89.1953
 30
0.00000
  70
    32
  0
VERTEX
  8
0
  5
379C
 10
50.1731
 20
89.1904
 30
0.00000
  70
    32
  0
VERTEX
  8
0
  5
379D
 10
50.1710
 20
89.1856
 30
0.00000
  70
    32
  0
VERTEX
  8
0
  5
379E
 10
50.1689
 20
89.1807
 30
0.00000
  70
    32
  0
VERTEX
  8
0
  5
379F
 10
50.1668
 20
89.1759
 30
0.00000
  70
    32
  0
VERTEX
  8
0
  5
37A0
 10
50.1647
 20
89.1710
 30
0.00000
  70
    32
  0
VERTEX
  8
0
  5
37A1
 10
50.1626
 20
89.1661
 30
0.00000
  70
    32
  0
VERTEX
  8
0
  5
37A2
 10
50.1605
 20
89.1612
 30
0.00000
  70
    32
  0
VERTEX
  8
0
  5
37A3
 10
50.1584
 20
89.1563
 30
0.00000
  70
    32
  0
VERTEX
  8
0
  5
37A4
 10
50.1563
 20
89.1514
 30
0.00000
  70
    32
  0
VERTEX
  8
0
  5
37A5
 10
50.1542
 20
89.1464
 30
0.00000
  70
    32
  0
VERTEX
  8
0
  5
37A6
 10
50.1521
 20
89.1415
 30
0.00000
  70
    32
  0
VERTEX
  8
0
  5
37A7
 10
50.1500
 20
89.1365
 30
0.00000
  70
    32
  0
VERTEX
  8
0
  5
37A8
 10
50.1479
 20
89.1316
 30
0.00000
  70
    32
  0
VERTEX
  8
0
  5
37A9
 10
50.1458
 20
89.1266
 30
0.00000
  70
    32
  0
VERTEX
  8
0
  5
37AA
 10
50.1437
 20
89.1216
 30
0.00000
  70
    32
  0
VERTEX
  8
0
  5
37AB
 10
50.1416
 20
89.1166
 30
0.00000
  70
    32
  0
VERTEX
  8
0
  5
37AC
 10
50.1395
 20
89.1116
 30
0.00000
  70
    32
  0
VERTEX
  8
0
  5
37AD
 10
50.1374
 20
89.1066
 30
0.00000
  70
    32
  0
VERTEX
  8
0
  5
37AE
 10
50.1353
 20
89.1015
 30
0.00000
  70
    32
  0
VERTEX
  8
0
  5
37AF
 10
50.1332
 20
89.0965
 30
0.00000
  70
    32
  0
VERTEX
  8
0
  5
37B0
 10
50.1311
 20
89.0914
 30
0.00000
  70
    32
  0
VERTEX
  8
0
  5
37B1
 10
50.1290
 20
89.0864
 30
0.00000
  70
    32
  0
VERTEX
  8
0
  5
37B2
 10
50.1270
 20
89.0813
 30
0.00000
  70
    32
  0
VERTEX
  8
0
  5
37B3
 10
50.1249
 20
89.0762
 30
0.00000
  70
    32
  0
VERTEX
  8
0
  5
37B4
 10
50.1228
 20
89.0711
 30
0.00000
  70
    32
  0
VERTEX
  8
0
  5
37B5
 10
50.1207
 20
89.0660
 30
0.00000
  70
    32
  0
VERTEX
  8
0
  5
37B6
 10
50.1186
 20
89.0609
 30
0.00000
  70
    32
  0
VERTEX
  8
0
  5
37B7
 10
50.1165
 20
89.0558
 30
0.00000
  70
    32
  0
VERTEX
  8
0
  5
37B8
 10
50.1144
 20
89.0507
 30
0.00000
  70
    32
  0
VERTEX
  8
0
  5
37B9
 10
50.1123
 20
89.0455
 30
0.00000
  70
    32
  0
VERTEX
  8
0
  5
37BA
 10
50.1102
 20
89.0403
 30
0.00000
  70
    32
  0
VERTEX
  8
0
  5
37BB
 10
50.1081
 20
89.0352
 30
0.00000
  70
    32
  0
VERTEX
  8
0
  5
37BC
 10
50.1061
 20
89.0300
 30
0.00000
  70
    32
  0
VERTEX
  8
0
  5
37BD
 10
50.1040
 20
89.0248
 30
0.00000
  70
    32
  0
VERTEX
  8
0
  5
37BE
 10
50.1019
 20
89.0196
 30
0.00000
  70
    32
  0
VERTEX
  8
0
  5
37BF
 10
50.0998
 20
89.0144
 30
0.00000
  70
    32
  0
VERTEX
  8
0
  5
37C0
 10
50.0977
 20
89.0092
 30
0.00000
  70
    32
  0
VERTEX
  8
0
  5
37C1
 10
50.0956
 20
89.0039
 30
0.00000
  70
    32
  0
VERTEX
  8
0
  5
37C2
 10
50.0935
 20
88.9987
 30
0.00000
  70
    32
  0
VERTEX
  8
0
  5
37C3
 10
50.0914
 20
88.9935
 30
0.00000
  70
    32
  0
VERTEX
  8
0
  5
37C4
 10
50.0894
 20
88.9882
 30
0.00000
  70
    32
  0
VERTEX
  8
0
  5
37C5
 10
50.0873
 20
88.9829
 30
0.00000
  70
    32
  0
VERTEX
  8
0
  5
37C6
 10
50.0852
 20
88.9776
 30
0.00000
  70
    32
  0
VERTEX
  8
0
  5
37C7
 10
50.0831
 20
88.9723
 30
0.00000
  70
    32
  0
VERTEX
  8
0
  5
37C8
 10
50.0810
 20
88.9670
 30
0.00000
  70
    32
  0
VERTEX
  8
0
  5
37C9
 10
50.0789
 20
88.9617
 30
0.00000
  70
    32
  0
VERTEX
  8
0
  5
37CA
 10
50.0768
 20
88.9564
 30
0.00000
  70
    32
  0
VERTEX
  8
0
  5
37CB
 10
50.0748
 20
88.9510
 30
0.00000
  70
    32
  0
VERTEX
  8
0
  5
37CC
 10
50.0727
 20
88.9457
 30
0.00000
  70
    32
  0
VERTEX
  8
0
  5
37CD
 10
50.0706
 20
88.9403
 30
0.00000
  70
    32
  0
VERTEX
  8
0
  5
37CE
 10
50.0685
 20
88.9350
 30
0.00000
  70
    32
  0
VERTEX
  8
0
  5
37CF
 10
50.0664
 20
88.9296
 30
0.00000
  70
    32
  0
VERTEX
  8
0
  5
37D0
 10
50.0643
 20
88.9242
 30
0.00000
  70
    32
  0
VERTEX
  8
0
  5
37D1
 10
50.0623
 20
88.9188
 30
0.00000
  70
    32
  0
VERTEX
  8
0
  5
37D2
 10
50.0602
 20
88.9134
 30
0.00000
  70
    32
  0
VERTEX
  8
0
  5
37D3
 10
50.0581
 20
88.9080
 30
0.00000
  70
    32
  0
VERTEX
  8
0
  5
37D4
 10
50.0560
 20
88.9025
 30
0.00000
  70
    32
  0
VERTEX
  8
0
  5
37D5
 10
50.0539
 20
88.8971
 30
0.00000
  70
    32
  0
VERTEX
  8
0
  5
37D6
 10
50.0519
 20
88.8916
 30
0.00000
  70
    32
  0
VERTEX
  8
0
  5
37D7
 10
50.0498
 20
88.8862
 30
0.00000
  70
    32
  0
VERTEX
  8
0
  5
37D8
 10
50.0477
 20
88.8807
 30
0.00000
  70
    32
  0
VERTEX
  8
0
  5
37D9
 10
50.0456
 20
88.8752
 30
0.00000
  70
    32
  0
VERTEX
  8
0
  5
37DA
 10
50.0436
 20
88.8697
 30
0.00000
  70
    32
  0
VERTEX
  8
0
  5
37DB
 10
50.0415
 20
88.8642
 30
0.00000
  70
    32
  0
VERTEX
  8
0
  5
37DC
 10
50.0394
 20
88.8587
 30
0.00000
  70
    32
  0
VERTEX
  8
0
  5
37DD
 10
50.0373
 20
88.8531
 30
0.00000
  70
    32
  0
VERTEX
  8
0
  5
37DE
 10
50.0352
 20
88.8476
 30
0.00000
  70
    32
  0
VERTEX
  8
0
  5
37DF
 10
50.0332
 20
88.8421
 30
0.00000
  70
    32
  0
VERTEX
  8
0
  5
37E0
 10
50.0311
 20
88.8365
 30
0.00000
  70
    32
  0
VERTEX
  8
0
  5
37E1
 10
50.0290
 20
88.8309
 30
0.00000
  70
    32
  0
VERTEX
  8
0
  5
37E2
 10
50.0269
 20
88.8253
 30
0.00000
  70
    32
  0
VERTEX
  8
0
  5
37E3
 10
50.0249
 20
88.8198
 30
0.00000
  70
    32
  0
VERTEX
  8
0
  5
37E4
 10
50.0228
 20
88.8142
 30
0.00000
  70
    32
  0
VERTEX
  8
0
  5
37E5
 10
50.0207
 20
88.8085
 30
0.00000
  70
    32
  0
VERTEX
  8
0
  5
37E6
 10
50.0186
 20
88.8029
 30
0.00000
  70
    32
  0
VERTEX
  8
0
  5
37E7
 10
50.0166
 20
88.7973
 30
0.00000
  70
    32
  0
VERTEX
  8
0
  5
37E8
 10
50.0145
 20
88.7916
 30
0.00000
  70
    32
  0
VERTEX
  8
0
  5
37E9
 10
50.0124
 20
88.7860
 30
0.00000
  70
    32
  0
VERTEX
  8
0
  5
37EA
 10
50.0104
 20
88.7803
 30
0.00000
  70
    32
  0
VERTEX
  8
0
  5
37EB
 10
50.0083
 20
88.7746
 30
0.00000
  70
    32
  0
VERTEX
  8
0
  5
37EC
 10
50.0062
 20
88.7690
 30
0.00000
  70
    32
  0
VERTEX
  8
0
  5
37ED
 10
50.0041
 20
88.7633
 30
0.00000
  70
    32
  0
VERTEX
  8
0
  5
37EE
 10
50.0021
 20
88.7575
 30
0.00000
  70
    32
  0
VERTEX
  8
0
  5
37EF
 10
50.0000
 20
88.7518
 30
0.00000
  70
    32
  0
SEQEND
  8
0
  5
37F0
  0
LINE
  5
30B9
  8
0
 10
50.0
 20
82.5889373485979377
 30
0.0
 11
50.0
 21
88.7518314164440767
 31
0.0
  0
LINE
  5
30C2
  8
1
 10
105.7499999999999005
 20
142.0500000000000114
 30
0.0
 11
195.1999999999999034
 21
142.0500000000000114
 31
0.0
  0
LINE
  5
30C3
  8
1
 10
119.7999999999998977
 20
128.0
 30
0.0
 11
119.7999999999998977
 21
156.0999999999999943
 31
0.0
  0
CIRCLE
  5
30C4
  8
0
 10
119.7999999999998977
 20
142.0500000000000114
 30
0.0
 40
2.5
  0
ARC
  5
30C5
  8
3
 10
119.7999999999998977
 20
142.0500000000000114
 30
0.0
 40
2.067000000000462
 50
281.158114068395605
 51
78.8418859316047786
  0
LINE
  5
30C6
  8
1
 10
106.1024637251803
 20
84.7000000000000171
 30
0.0
 11
133.4975362748197085
 21
84.7000000000000171
 31
0.0
  0
LINE
  5
30C7
  8
1
 10
106.0499999999998977
 20
83.5000000000000284
 30
0.0
 11
133.5500000000000114
 21
83.5000000000000284
 31
0.0
  0
LINE
  5
30CA
  8
1
 10
45.0
 20
84.6999999999870568
 30
0.0
 11
76.5
 21
84.6999999999870568
 31
0.0
  0
ARC
  5
30D5
  8
3
 10
119.7999999999998977
 20
142.0500000000000114
 30
0.0
 40
2.067000000000462
 50
101.1581140683943971
 51
258.8418859316058729
  0
LINE
  5
30D8
  8
0
 10
58.282207464149792
 20
90.8899999999870261
 30
0.0
 11
57.7500000000001705
 21
90.8899999999870261
 31
0.0
  0
ENDSEC
  0
EOF
