  0
SECTION
  2
HEADER
  9
$ACADVER
  1
AC1009
  9
$INSBASE
 10
0.0
 20
0.0
 30
0.0
  9
$EXTMIN
 10
0.0
 20
-2.960436562073669
 30
0.0
  9
$EXTMAX
 10
174.0
 20
149.64999999999989
 30
0.0
  9
$LIMMIN
 10
0.0
 20
0.0
  9
$LIMMAX
 10
375.0
 20
270.0
  9
$ORTHOMODE
 70
     1
  9
$REGENMODE
 70
     1
  9
$FILLMODE
 70
     1
  9
$QTEXTMODE
 70
     0
  9
$MIRRTEXT
 70
     0
  9
$DRAGMODE
 70
     2
  9
$LTSCALE
 40
5.0
  9
$OSMODE
 70
    37
  9
$ATTMODE
 70
     1
  9
$TEXTSIZE
 40
0.2
  9
$TRACEWID
 40
0.05
  9
$TEXTSTYLE
  7
STANDARD
  9
$CLAYER
  8
0
  9
$CELTYPE
  6
BYLAYER
  9
$CECOLOR
 62
   256
  9
$DIMSCALE
 40
1.0
  9
$DIMASZ
 40
3.0
  9
$DIMEXO
 40
2.0
  9
$DIMDLI
 40
10.0
  9
$DIMRND
 40
0.0
  9
$DIMDLE
 40
0.0
  9
$DIMEXE
 40
2.0
  9
$DIMTP
 40
0.0
  9
$DIMTM
 40
0.0
  9
$DIMTXT
 40
3.2000000000000002
  9
$DIMCEN
 40
0.0
  9
$DIMTSZ
 40
0.0
  9
$DIMTOL
 70
     0
  9
$DIMLIM
 70
     0
  9
$DIMTIH
 70
     0
  9
$DIMTOH
 70
     0
  9
$DIMSE1
 70
     0
  9
$DIMSE2
 70
     0
  9
$DIMTAD
 70
     1
  9
$DIMZIN
 70
     8
  9
$DIMBLK
  1

  9
$DIMASO
 70
     0
  9
$DIMSHO
 70
     0
  9
$DIMPOST
  1

  9
$DIMAPOST
  1

  9
$DIMALT
 70
     0
  9
$DIMALTD
 70
     2
  9
$DIMALTF
 40
25.399999999999999
  9
$DIMLFAC
 40
1.0
  9
$DIMTOFL
 70
     1
  9
$DIMTVP
 40
1.6000000000000001
  9
$DIMTIX
 70
     0
  9
$DIMSOXD
 70
     0
  9
$DIMSAH
 70
     0
  9
$DIMBLK1
  1

  9
$DIMBLK2
  1

  9
$DIMSTYLE
  2
STANDARD
  9
$DIMCLRD
 70
   256
  9
$DIMCLRE
 70
   256
  9
$DIMCLRT
 70
   256
  9
$DIMTFAC
 40
1.0
  9
$DIMGAP
 40
0.5
  9
$LUNITS
 70
     2
  9
$LUPREC
 70
     1
  9
$SKETCHINC
 40
0.1
  9
$FILLETRAD
 40
0.0
  9
$AUNITS
 70
     0
  9
$AUPREC
 70
     1
  9
$MENU
  1
E:\r13\win\SUPPORT\ACAD
  9
$ELEVATION
 40
0.0
  9
$PELEVATION
 40
0.0
  9
$THICKNESS
 40
0.0
  9
$LIMCHECK
 70
     0
  9
$BLIPMODE
 70
     0
  9
$CHAMFERA
 40
0.0
  9
$CHAMFERB
 40
0.0
  9
$SKPOLY
 70
     0
  9
$TDCREATE
 40
2449840.6171180559
  9
$TDUPDATE
 40
2457711.6223037969
  9
$TDINDWG
 40
0.2996579282
  9
$TDUSRTIMER
 40
0.2996579282
  9
$USRTIMER
 70
     1
  9
$ANGBASE
 50
0.0
  9
$ANGDIR
 70
     0
  9
$PDMODE
 70
     0
  9
$PDSIZE
 40
0.0
  9
$PLINEWID
 40
0.0
  9
$COORDS
 70
     1
  9
$SPLFRAME
 70
     0
  9
$SPLINETYPE
 70
     6
  9
$SPLINESEGS
 70
     8
  9
$ATTDIA
 70
     0
  9
$ATTREQ
 70
     1
  9
$HANDLING
 70
     1
  9
$HANDSEED
  5
3802
  9
$SURFTAB1
 70
     6
  9
$SURFTAB2
 70
     6
  9
$SURFTYPE
 70
     6
  9
$SURFU
 70
     6
  9
$SURFV
 70
     6
  9
$UCSNAME
  2

  9
$UCSORG
 10
0.0
 20
0.0
 30
0.0
  9
$UCSXDIR
 10
1.0
 20
0.0
 30
0.0
  9
$UCSYDIR
 10
0.0
 20
1.0
 30
0.0
  9
$PUCSNAME
  2

  9
$PUCSORG
 10
0.0
 20
0.0
 30
0.0
  9
$PUCSXDIR
 10
1.0
 20
0.0
 30
0.0
  9
$PUCSYDIR
 10
0.0
 20
1.0
 30
0.0
  9
$USERI1
 70
     0
  9
$USERI2
 70
     1
  9
$USERI3
 70
     0
  9
$USERI4
 70
     0
  9
$USERI5
 70
     0
  9
$USERR1
 40
0.0
  9
$USERR2
 40
0.0
  9
$USERR3
 40
0.0
  9
$USERR4
 40
0.0
  9
$USERR5
 40
0.0
  9
$WORLDVIEW
 70
     1
  9
$SHADEDGE
 70
     3
  9
$SHADEDIF
 70
    70
  9
$TILEMODE
 70
     1
  9
$MAXACTVP
 70
    16
  9
$PLIMCHECK
 70
     0
  9
$PEXTMIN
 10
1.0000000000000000E+020
 20
1.0000000000000000E+020
 30
1.0000000000000000E+020
  9
$PEXTMAX
 10
-1.0000000000000000E+020
 20
-1.0000000000000000E+020
 30
-1.0000000000000000E+020
  9
$PLIMMIN
 10
0.0
 20
0.0
  9
$PLIMMAX
 10
12.0
 20
9.0
  9
$UNITMODE
 70
     0
  9
$VISRETAIN
 70
     0
  9
$PLINEGEN
 70
     0
  9
$PSLTSCALE
 70
     0
  0
ENDSEC
  0
SECTION
  2
TABLES
  0
TABLE
  2
VPORT
 70
     1
  0
VPORT
  2
*ACTIVE
 70
     0
 10
0.0
 20
0.0
 11
1.0
 21
1.0
 12
181.63688627288221
 22
100.0
 13
0.0
 23
0.0
 14
10.0
 24
10.0
 15
10.0
 25
10.0
 16
0.0
 26
0.0
 36
1.0
 17
0.0
 27
0.0
 37
0.0
 40
200.14265354609179
 41
1.816239316239316
 42
50.0
 43
0.0
 44
0.0
 50
0.0
 51
0.0
 71
     0
 72
   100
 73
     1
 74
     0
 75
     0
 76
     0
 77
     0
 78
     0
  0
ENDTAB
  0
TABLE
  2
LTYPE
 70
     3
  0
LTYPE
  2
CONTINUOUS
 70
     0
  3
Solid Line
 72
    65
 73
     0
 40
0.0
  0
LTYPE
  2
CENTER
 70
     0
  3
____ _ ____ _ ____ _ ____ _ ____ _ ____ _ ____
 72
    65
 73
     4
 40
2.0
 49
1.25
 49
-0.25
 49
0.25
 49
-0.25
  0
LTYPE
  2
PHANTOM2
 70
     0
  3
___ _ _ ___ _ _ ___ _ _ ___ _ _
 72
    65
 73
     6
 40
1.25
 49
0.625
 49
-0.125
 49
0.125
 49
-0.125
 49
0.125
 49
-0.125
  0
ENDTAB
  0
TABLE
  2
LAYER
 70
     4
  0
LAYER
  2
0
 70
     0
 62
     7
  6
CONTINUOUS
  0
LAYER
  2
1
 70
     0
 62
     1
  6
CENTER
  0
LAYER
  2
3
 70
     0
 62
     3
  6
CONTINUOUS
  0
LAYER
  2
DEFPOINTS
 70
     0
 62
     7
  6
CONTINUOUS
  0
ENDTAB
  0
TABLE
  2
STYLE
 70
     2
  0
STYLE
  2
STANDARD
 70
     0
 40
0.0
 41
1.0
 50
0.0
 71
     0
 42
0.2
  3
TXT
  4
BIGFONT
  0
STYLE
  2
STANDARD1
 70
     0
 40
0.0
 41
1.0
 50
0.0
 71
     0
 42
3.0
  3
txt
  4

  0
ENDTAB
  0
TABLE
  2
VIEW
 70
     1
  0
VIEW
  2
ALL
 70
     0
 40
270.0
 10
220.99159700000001
 20
135.0
 41
0.0
 11
0.0
 21
0.0
 31
1.0
 12
0.0
 22
0.0
 32
0.0
 42
0.0
 43
0.0
 44
0.0
 50
0.0
 71
     0
  0
ENDTAB
  0
TABLE
  2
UCS
 70
     0
  0
ENDTAB
  0
TABLE
  2
APPID
 70
     6
  0
APPID
  2
ACAD
 70
     0
  0
APPID
  2
ACAD_EXEMPT_FROM_CAD_STANDARDS
 70
     0
  0
APPID
  2
ACAD_MLEADERVER
 70
     0
  0
APPID
  2
ACAD_NAV_VCDISPLAY
 70
     0
  0
APPID
  2
ACAD_DSTYLE_DIMJAG
 70
     0
  0
APPID
  2
ACAD_DSTYLE_DIMTALN
 70
     0
  0
ENDTAB
  0
TABLE
  2
DIMSTYLE
 70
     1
  0
DIMSTYLE
  2
STANDARD
 70
     0
  3

  4

  5

  6

  7

 40
1.0
 41
0.18
 42
0.0625
 43
0.38
 44
0.18
 45
0.0
 46
0.0
 47
0.0
 48
0.0
140
0.18
141
0.09
142
0.0
143
25.399999999999999
144
1.0
145
0.0
146
1.0
147
0.09
 71
     0
 72
     0
 73
     1
 74
     1
 75
     0
 76
     0
 77
     0
 78
     0
170
     0
171
     2
172
     0
173
     0
174
     0
175
     0
176
     0
177
     0
178
     0
  0
ENDTAB
  0
ENDSEC
  0
SECTION
  2
BLOCKS
  0
BLOCK
  8
0
  2
$MODEL_SPACE
 70
     0
 10
0.0
 20
0.0
 30
0.0
  3
$MODEL_SPACE
  1

  0
ENDBLK
  5
E8
  8
0
  0
BLOCK
 67
     1
  8
0
  2
$PAPER_SPACE
 70
     0
 10
0.0
 20
0.0
 30
0.0
  3
$PAPER_SPACE
  1

  0
ENDBLK
  5
E6
 67
     1
  8
0
  0
ENDSEC
  0
SECTION
  2
ENTITIES
  0
TEXT
  5
E87
  8
0
 62
     3
 10
0.0
 20
0.0
 30
0.0
 40
10.0
  1
KCLF05AX40
  7
STANDARD1
  0
ARC
  5
2321
  8
0
 10
116.7
 20
80.199999999999989
 30
0.0
 40
6.7500000000000044
 50
233.000955252767
 51
306.99904474723297
  0
LINE
  5
2323
  8
1
 10
116.7
 20
91.949999999999974
 30
0.0
 11
116.7
 21
25.0
 31
0.0
  0
LINE
  5
2324
  8
1
 10
104.9926305260319
 20
81.199999999999989
 30
0.0
 11
128.40736947396809
 21
81.199999999999989
 31
0.0
  0
LINE
  5
2325
  8
1
 10
104.95
 20
80.199999999999989
 30
0.0
 11
128.44999999999999
 21
80.199999999999989
 31
0.0
  0
LINE
  5
2327
  8
0
 10
112.3962225893989
 20
75.000000000000028
 30
0.0
 11
109.0384011428421
 21
75.0
 31
0.0
  0
LINE
  5
2328
  8
0
 10
109.0384011428421
 20
75.0
 30
0.0
 11
109.0069820259713
 21
73.199999999999989
 31
0.0
  0
LINE
  5
2329
  8
0
 10
124.39301797402869
 20
73.199999999999989
 30
0.0
 11
124.3615988571579
 21
75.0
 31
0.0
  0
LINE
  5
232B
  8
0
 10
124.3615988571579
 20
75.0
 30
0.0
 11
121.0127709524842
 21
75.0
 31
0.0
  0
LINE
  5
232C
  8
0
 10
123.0
 20
70.0
 30
0.0
 11
110.40000000000001
 21
70.0
 31
0.0
  0
ARC
  5
232D
  8
0
 10
110.40000000000001
 20
71.399999999999963
 30
0.0
 40
1.399999999999997
 50
179.99999914622629
 51
270.0
  0
ARC
  5
232E
  8
0
 10
123.0
 20
71.399999999999963
 30
0.0
 40
1.399999999999999
 50
270.0
 51
0.0000008537736463
  0
LINE
  5
232F
  8
0
 10
109.0
 20
73.199999999999989
 30
0.0
 11
109.0
 21
71.399999999999963
 31
0.0
  0
LINE
  5
2330
  8
0
 10
124.39999999999991
 20
71.399999999999963
 30
0.0
 11
124.39999999999991
 21
73.199999999999989
 31
0.0
  0
LINE
  5
2332
  8
0
 10
124.39999999999991
 20
73.199999999999989
 30
0.0
 11
109.0
 21
73.199999999999989
 31
0.0
  0
LINE
  5
2337
  8
0
 10
118.70950000000001
 20
30.0
 30
0.0
 11
119.2
 21
30.490500000000001
 31
0.0
  0
LINE
  5
2338
  8
0
 10
114.2
 20
30.490500000000001
 30
0.0
 11
114.6905
 21
30.0
 31
0.0
  0
LINE
  5
2339
  8
0
 10
118.70950000000001
 20
30.0
 30
0.0
 11
114.6905
 21
30.0
 31
0.0
  0
LINE
  5
233A
  8
0
 10
114.2
 20
70.0
 30
0.0
 11
114.2
 21
30.490500000000001
 31
0.0
  0
LINE
  5
233B
  8
0
 10
119.2
 20
30.490500000000001
 30
0.0
 11
119.2
 21
70.0
 31
0.0
  0
LINE
  5
233C
  8
0
 10
119.2
 20
30.490500000000001
 30
0.0
 11
114.2
 21
30.490500000000001
 31
0.0
  0
LINE
  5
233F
  8
3
 10
118.767
 20
30.057500000000012
 30
0.0
 11
118.767
 21
70.0
 31
0.0
  0
LINE
  5
2342
  8
3
 10
114.633
 20
30.057499999999951
 30
0.0
 11
114.633
 21
70.0
 31
0.0
  0
CIRCLE
  5
2343
  8
0
 10
116.7
 20
81.199999999999989
 30
0.0
 40
4.0
  0
ARC
  5
2345
  8
0
 10
118.8026334996902
 20
152.90758668508261
 30
0.0
 40
73.999999999988745
 50
278.23350222912097
 51
282.40551155976851
  0
ARC
  5
2346
  8
0
 10
128.59999999999991
 20
119.2000000000005
 30
0.0
 40
35.000000000000533
 50
265.73981774116612
 51
280.03709378307377
  0
ARC
  5
2347
  8
0
 10
116.88909977566119
 20
80.406971058313275
 30
0.0
 40
6.7999999999998471
 50
306.14553206847057
 51
317.46776189537923
  0
ARC
  5
2348
  8
0
 10
130.19999999999999
 20
68.899999999999963
 30
0.0
 40
10.80000000000002
 50
97.448190561037237
 51
140.22103887096191
  0
ARC
  5
2349
  8
0
 10
116.7
 20
80.199999999999989
 30
0.0
 40
6.75
 50
59.754660922563112
 51
233.000955252767
  0
ARC
  5
234A
  8
0
 10
116.6999999999891
 20
80.200000000014015
 30
0.0
 40
6.7500000000177076
 50
306.9990447472353
 51
308.47859513329649
  0
ARC
  5
234C
  8
0
 10
126.6995299596461
 20
97.578295964270694
 30
0.0
 40
13.29999999999982
 50
240.25074200246539
 51
266.9850664106383
  0
ARC
  5
234D
  8
0
 10
136.63991445747831
 20
6.0253458189299911
 30
0.0
 40
73.999999997076685
 50
95.614610555670197
 51
96.081602672096494
  0
LINE
  5
234E
  8
0
 10
165.40000000000001
 20
80.758051631137732
 30
0.0
 11
166.69999999999919
 21
80.385786437627075
 31
0.0
  0
POLYLINE
  5
234F
  8
0
 66
     1
 10
0.0
 20
0.0
 30
0.0
  0
VERTEX
  5
3604
  8
0
 10
165.40000000000001
 20
84.836137808588461
 30
0.0
  0
VERTEX
  5
3605
  8
0
 10
165.9317926706087
 20
84.680165414879824
 30
0.0
  0
VERTEX
  5
3606
  8
0
 10
166.43066374979611
 20
84.519159281662624
 30
0.0
  0
VERTEX
  5
3607
  8
0
 10
166.90644357134991
 20
84.351948466491365
 30
0.0
  0
VERTEX
  5
3608
  8
0
 10
167.34148805264999
 20
84.187129598237362
 30
0.0
  0
VERTEX
  5
3609
  8
0
 10
167.69501299114859
 20
84.044558146091504
 30
0.0
  0
VERTEX
  5
360A
  8
0
 10
168.01303021498839
 20
83.909538931178858
 30
0.0
  0
SEQEND
  5
360B
  8
0
  0
POLYLINE
  5
2350
  8
0
 66
     1
 10
0.0
 20
0.0
 30
0.0
  0
VERTEX
  5
360C
  8
0
 10
168.57871754502699
 20
81.209121052131252
 30
0.0
  0
VERTEX
  5
360D
  8
0
 10
168.49985560868669
 20
81.051187268279804
 30
0.0
  0
VERTEX
  5
360E
  8
0
 10
168.40968613349889
 20
80.913061750503175
 30
0.0
  0
VERTEX
  5
360F
  8
0
 10
168.19267148966449
 20
80.675454174518848
 30
0.0
  0
VERTEX
  5
3610
  8
0
 10
168.02742465842331
 20
80.548806200794331
 30
0.0
  0
VERTEX
  5
3611
  8
0
 10
167.84419160627809
 20
80.445371942413374
 30
0.0
  0
VERTEX
  5
3612
  8
0
 10
167.63686033574581
 20
80.364999594966918
 30
0.0
  0
VERTEX
  5
3613
  8
0
 10
167.41133603625161
 20
80.314962263179254
 30
0.0
  0
VERTEX
  5
3614
  8
0
 10
167.07306655235271
 20
80.305380349430465
 30
0.0
  0
VERTEX
  5
3615
  8
0
 10
166.88854140629761
 20
80.332697580103456
 30
0.0
  0
VERTEX
  5
3616
  8
0
 10
166.69999999999931
 20
80.385786437627019
 30
0.0
  0
SEQEND
  5
3617
  8
0
  0
LINE
  5
2351
  8
0
 10
168.878717545027
 20
81.909121052131241
 30
0.0
 11
168.57871754502699
 21
81.209121052131252
 31
0.0
  0
POLYLINE
  5
2352
  8
0
 66
     1
 10
0.0
 20
0.0
 30
0.0
  0
VERTEX
  5
3618
  8
0
 10
168.01303021498839
 20
83.909538931178858
 30
0.0
  0
VERTEX
  5
3619
  8
0
 10
168.31869525336401
 20
83.757469712560436
 30
0.0
  0
VERTEX
  5
361A
  8
0
 10
168.5674785253922
 20
83.554300833207606
 30
0.0
  0
VERTEX
  5
361B
  8
0
 10
168.75943247230001
 20
83.314757539220523
 30
0.0
  0
VERTEX
  5
361C
  8
0
 10
168.88333609625789
 20
83.081644414928206
 30
0.0
  0
VERTEX
  5
361D
  8
0
 10
168.9655344278226
 20
82.819701174329595
 30
0.0
  0
VERTEX
  5
361E
  8
0
 10
168.98239509906321
 20
82.729139194100995
 30
0.0
  0
VERTEX
  5
361F
  8
0
 10
168.99113540248931
 20
82.66283492083349
 30
0.0
  0
VERTEX
  5
3620
  8
0
 10
168.99770899763911
 20
82.582871939707388
 30
0.0
  0
VERTEX
  5
3621
  8
0
 10
168.9992730656376
 20
82.546693411243012
 30
0.0
  0
VERTEX
  5
3622
  8
0
 10
168.999992719522
 20
82.504673476315304
 30
0.0
  0
VERTEX
  5
3623
  8
0
 10
168.99964589029409
 20
82.467408532958814
 30
0.0
  0
VERTEX
  5
3624
  8
0
 10
168.9981326597549
 20
82.425176649529746
 30
0.0
  0
VERTEX
  5
3625
  8
0
 10
168.99127644869719
 20
82.338461912970985
 30
0.0
  0
VERTEX
  5
3626
  8
0
 10
168.9681588733342
 20
82.190508231049833
 30
0.0
  0
VERTEX
  5
3627
  8
0
 10
168.93568406919471
 20
82.065475830979608
 30
0.0
  0
VERTEX
  5
3628
  8
0
 10
168.87871754502709
 20
81.909121052130558
 30
0.0
  0
SEQEND
  5
3629
  8
0
  0
POLYLINE
  5
2353
  8
0
 66
     1
 10
0.0
 20
0.0
 30
0.0
  0
VERTEX
  5
362A
  8
0
 10
141.7000000000001
 20
86.326836974629714
 30
0.0
  0
VERTEX
  5
362B
  8
0
 10
140.87526496469729
 20
86.199578086408565
 30
0.0
  0
VERTEX
  5
362C
  8
0
 10
140.05158170163071
 20
86.036964811562086
 30
0.0
  0
VERTEX
  5
362D
  8
0
 10
139.2229260462949
 20
85.836585983620239
 30
0.0
  0
VERTEX
  5
362E
  8
0
 10
138.39999999999989
 20
85.599999999999966
 30
0.0
  0
SEQEND
  5
362F
  8
0
  0
POLYLINE
  5
2354
  8
0
 66
     1
 10
0.0
 20
0.0
 30
0.0
  0
VERTEX
  5
3630
  8
0
 10
141.7000000000001
 20
82.347198565580669
 30
0.0
  0
VERTEX
  5
3631
  8
0
 10
140.50044848784771
 20
82.107578981390674
 30
0.0
  0
VERTEX
  5
3632
  8
0
 10
139.2999999999933
 20
81.803030104293896
 30
0.0
  0
SEQEND
  5
3633
  8
0
  0
POLYLINE
  5
2356
  8
0
 66
     1
 10
0.0
 20
0.0
 30
0.0
  0
VERTEX
  5
3634
  8
0
 10
134.6999999999999
 20
80.635366999001604
 30
0.0
  0
VERTEX
  5
3635
  8
0
 10
135.8578743941637
 20
80.899824878532939
 30
0.0
  0
VERTEX
  5
3636
  8
0
 10
137.00929818024139
 20
81.182295739640665
 30
0.0
  0
VERTEX
  5
3637
  8
0
 10
138.15960831827419
 20
81.484155074542912
 30
0.0
  0
VERTEX
  5
3638
  8
0
 10
139.2999999999933
 20
81.803030104293896
 30
0.0
  0
SEQEND
  5
3639
  8
0
  0
POLYLINE
  5
2357
  8
0
 66
     1
 10
0.0
 20
0.0
 30
0.0
  0
VERTEX
  5
363A
  8
0
 10
134.6999999999999
 20
84.735670614387374
 30
0.0
  0
VERTEX
  5
363B
  8
0
 10
135.633032270802
 20
84.913910762519905
 30
0.0
  0
VERTEX
  5
363C
  8
0
 10
136.5597344082249
 20
85.117121187456604
 30
0.0
  0
VERTEX
  5
363D
  8
0
 10
137.48444795046311
 20
85.346402238492317
 30
0.0
  0
VERTEX
  5
363E
  8
0
 10
138.39999999999989
 20
85.599999999999966
 30
0.0
  0
SEQEND
  5
363F
  8
0
  0
POLYLINE
  5
2358
  8
0
 66
     1
 10
0.0
 20
0.0
 30
0.0
  0
VERTEX
  5
3640
  8
0
 10
160.10000000000031
 20
81.956201574527597
 30
0.0
  0
VERTEX
  5
3641
  8
0
 10
160.9464138559149
 20
81.798476911484556
 30
0.0
  0
VERTEX
  5
3642
  8
0
 10
161.7816692589229
 20
81.630503407807424
 30
0.0
  0
VERTEX
  5
3643
  8
0
 10
162.62384869846829
 20
81.448545032278901
 30
0.0
  0
VERTEX
  5
3644
  8
0
 10
163.4422402269808
 20
81.259583513233096
 30
0.0
  0
VERTEX
  5
3645
  8
0
 10
163.95052252573299
 20
81.136110901437959
 30
0.0
  0
VERTEX
  5
3646
  8
0
 10
164.44533759068639
 20
81.011393620308539
 30
0.0
  0
VERTEX
  5
3647
  8
0
 10
164.93095827681881
 20
80.884622454417936
 30
0.0
  0
VERTEX
  5
3648
  8
0
 10
165.40000000000001
 20
80.758051631137732
 30
0.0
  0
SEQEND
  5
3649
  8
0
  0
POLYLINE
  5
2359
  8
0
 66
     1
 10
0.0
 20
0.0
 30
0.0
  0
VERTEX
  5
364A
  8
0
 10
160.10000000000031
 20
85.949346789970775
 30
0.0
  0
VERTEX
  5
364B
  8
0
 10
160.94238130468361
 20
85.804812373921038
 30
0.0
  0
VERTEX
  5
364C
  8
0
 10
161.77399767355519
 20
85.650764356362274
 30
0.0
  0
VERTEX
  5
364D
  8
0
 10
162.61275597297609
 20
85.483796190491546
 30
0.0
  0
VERTEX
  5
364E
  8
0
 10
163.42819387758121
 20
85.310292695359678
 30
0.0
  0
VERTEX
  5
364F
  8
0
 10
164.07380231294971
 20
85.165004666625663
 30
0.0
  0
VERTEX
  5
3650
  8
0
 10
164.7000000000028
 20
85.017360921208407
 30
0.0
  0
SEQEND
  5
3651
  8
0
  0
LINE
  5
235B
  8
0
 10
164.70000000000289
 20
85.017360921208407
 30
0.0
 11
165.40000000000001
 21
84.836137808588461
 31
0.0
  0
POLYLINE
  5
235C
  8
0
 66
     1
 10
0.0
 20
0.0
 30
0.0
  0
VERTEX
  5
3652
  8
0
 10
143.1999999999976
 20
82.558751015088518
 30
0.0
  0
VERTEX
  5
3653
  8
0
 10
144.53468605204941
 20
82.685282799844884
 30
0.0
  0
VERTEX
  5
3654
  8
0
 10
145.8890744697953
 20
82.783094652041768
 30
0.0
  0
VERTEX
  5
3655
  8
0
 10
147.25708101342141
 20
82.850762252668673
 30
0.0
  0
VERTEX
  5
3656
  8
0
 10
148.67632328089911
 20
82.88773404124521
 30
0.0
  0
VERTEX
  5
3657
  8
0
 10
150.10317403076789
 20
82.891151873854227
 30
0.0
  0
VERTEX
  5
3658
  8
0
 10
151.53047197039149
 20
82.860717604940419
 30
0.0
  0
SEQEND
  5
3659
  8
0
  0
POLYLINE
  5
235D
  8
0
 66
     1
 10
0.0
 20
0.0
 30
0.0
  0
VERTEX
  5
365A
  8
0
 10
143.1999999999999
 20
86.469066272405769
 30
0.0
  0
VERTEX
  5
365B
  8
0
 10
144.53534874392949
 20
86.591194192287048
 30
0.0
  0
VERTEX
  5
365C
  8
0
 10
145.89018607007529
 20
86.686425442081543
 30
0.0
  0
VERTEX
  5
365D
  8
0
 10
147.25852204121301
 20
86.753414180767209
 30
0.0
  0
VERTEX
  5
365E
  8
0
 10
148.6772416788553
 20
86.791731322984845
 30
0.0
  0
VERTEX
  5
365F
  8
0
 10
150.10356103593571
 20
86.798631531465219
 30
0.0
  0
VERTEX
  5
3660
  8
0
 10
151.53047197039149
 20
86.773817866105276
 30
0.0
  0
SEQEND
  5
3661
  8
0
  0
POLYLINE
  5
235F
  8
0
 66
     1
 10
0.0
 20
0.0
 30
0.0
  0
VERTEX
  5
3662
  8
0
 10
141.70000000000019
 20
82.347198565580669
 30
0.0
  0
VERTEX
  5
3663
  8
0
 10
142.44436032732779
 20
82.464252194992127
 30
0.0
  0
VERTEX
  5
3664
  8
0
 10
143.1999999999976
 20
82.558751015088518
 30
0.0
  0
SEQEND
  5
3665
  8
0
  0
POLYLINE
  5
2360
  8
0
 66
     1
 10
0.0
 20
0.0
 30
0.0
  0
VERTEX
  5
3666
  8
0
 10
141.70000000000019
 20
86.326836974629714
 30
0.0
  0
VERTEX
  5
3667
  8
0
 10
142.44447575442041
 20
86.411685006926845
 30
0.0
  0
VERTEX
  5
3668
  8
0
 10
143.1999999999999
 20
86.469066272405769
 30
0.0
  0
SEQEND
  5
3669
  8
0
  0
POLYLINE
  5
2361
  8
0
 66
     1
 10
0.0
 20
0.0
 30
0.0
  0
VERTEX
  5
366A
  8
0
 10
156.4999999999996
 20
82.488149627176213
 30
0.0
  0
VERTEX
  5
366B
  8
0
 10
158.30471167315349
 20
82.249374885991585
 30
0.0
  0
VERTEX
  5
366C
  8
0
 10
160.10000000000031
 20
81.956201574527597
 30
0.0
  0
SEQEND
  5
366D
  8
0
  0
POLYLINE
  5
2362
  8
0
 66
     1
 10
0.0
 20
0.0
 30
0.0
  0
VERTEX
  5
366E
  8
0
 10
156.4999999999996
 20
86.437724660770243
 30
0.0
  0
VERTEX
  5
366F
  8
0
 10
158.30425219139579
 20
86.21897858075971
 30
0.0
  0
VERTEX
  5
3670
  8
0
 10
160.10000000000031
 20
85.949346789970775
 30
0.0
  0
SEQEND
  5
3671
  8
0
  0
ARC
  5
2364
  8
0
 10
149.5334643049963
 20
22.893960477392199
 30
0.0
 40
60.000000000083389
 50
83.332409544382145
 51
87.356150358825687
  0
ARC
  5
2365
  8
0
 10
149.70000000000149
 20
22.800000000019761
 30
0.0
 40
63.999999999980183
 50
83.900810818467917
 51
87.670719420868082
  0
LINE
  5
2367
  8
0
 10
151.5304719703916
 20
82.860717604940419
 30
0.0
 11
152.30111475739201
 21
82.830094077945375
 31
0.0
  0
LINE
  5
2368
  8
0
 10
151.5304719703916
 20
86.773817866105276
 30
0.0
 11
152.30111475739201
 21
86.747120357517858
 31
0.0
  0
LINE
  5
23AF
  8
1
 10
104.0
 20
136.94999999999999
 30
0.0
 11
174.0
 21
136.94999999999999
 31
0.0
  0
LINE
  5
23B0
  8
1
 10
116.7
 20
149.64999999999989
 30
0.0
 11
116.7
 21
124.25
 31
0.0
  0
ARC
  5
23B6
  8
0
 10
116.7
 20
136.94999999999999
 30
0.0
 40
7.7000000000000082
 50
57.581604052526032
 51
122.4183959474739
  0
ARC
  5
23B7
  8
0
 10
116.7
 20
136.94999999999999
 30
0.0
 40
7.6999999999999957
 50
151.23768780927779
 51
208.76231219072221
  0
ARC
  5
23B8
  8
0
 10
116.7
 20
136.94999999999999
 30
0.0
 40
7.7000000000000108
 50
237.58160405252599
 51
302.41839594747398
  0
LINE
  5
23C1
  8
0
 10
120.7
 20
134.25
 30
0.0
 11
120.7
 21
139.65000000000001
 31
0.0
  0
LINE
  5
23C2
  8
0
 10
112.7
 20
139.65000000000001
 30
0.0
 11
112.7
 21
134.25
 31
0.0
  0
POLYLINE
  5
23C6
  8
0
 66
     1
 10
0.0
 20
0.0
 30
0.0
  0
VERTEX
  5
3672
  8
0
 10
168.01303021498839
 20
132.7195438001545
 30
0.0
  0
VERTEX
  5
3673
  8
0
 10
168.2476137078506
 20
133.1599551270323
 30
0.0
  0
VERTEX
  5
3674
  8
0
 10
168.45019383259481
 20
133.6095650750562
 30
0.0
  0
VERTEX
  5
3675
  8
0
 10
168.6207927128637
 20
134.0648135316639
 30
0.0
  0
VERTEX
  5
3676
  8
0
 10
168.75943247230001
 20
134.52214038429329
 30
0.0
  0
VERTEX
  5
3677
  8
0
 10
168.84667893692011
 20
134.8832505075373
 30
0.0
  0
VERTEX
  5
3678
  8
0
 10
168.91535933421861
 20
135.24403130064491
 30
0.0
  0
VERTEX
  5
3679
  8
0
 10
168.9655344278226
 20
135.60017480905799
 30
0.0
  0
VERTEX
  5
367A
  8
0
 10
168.98239509906321
 20
135.76026054300269
 30
0.0
  0
VERTEX
  5
367B
  8
0
 10
168.99113540248931
 20
135.85984956112139
 30
0.0
  0
VERTEX
  5
367C
  8
0
 10
168.99770899763911
 20
135.9473002465958
 30
0.0
  0
VERTEX
  5
367D
  8
0
 10
168.9992730656376
 20
135.97038880940789
 30
0.0
  0
VERTEX
  5
367E
  8
0
 10
168.999992719522
 20
135.98138349617381
 30
0.0
  0
VERTEX
  5
367F
  8
0
 10
168.99999999999989
 20
135.98149600637859
 30
0.0
  0
SEQEND
  5
3680
  8
0
  0
LINE
  5
23C7
  8
0
 10
168.99999999999989
 20
135.9807151525178
 30
0.0
 11
168.99999999999989
 21
137.919363641101
 31
0.0
  0
POLYLINE
  5
23C8
  8
0
 66
     1
 10
0.0
 20
0.0
 30
0.0
  0
VERTEX
  5
3681
  8
0
 10
168.99999999999989
 20
137.91850399362099
 30
0.0
  0
VERTEX
  5
3682
  8
0
 10
168.99998776072351
 20
137.91869312050909
 30
0.0
  0
VERTEX
  5
3683
  8
0
 10
168.9994908206267
 20
137.92631041893139
 30
0.0
  0
VERTEX
  5
3684
  8
0
 10
168.99763360912519
 20
137.95378658978979
 30
0.0
  0
VERTEX
  5
3685
  8
0
 10
168.9935806845084
 20
138.00906806405339
 30
0.0
  0
VERTEX
  5
3686
  8
0
 10
168.9884927940989
 20
138.07191609444291
 30
0.0
  0
VERTEX
  5
3687
  8
0
 10
168.968343472692
 20
138.2743230665792
 30
0.0
  0
VERTEX
  5
3688
  8
0
 10
168.94148778869479
 20
138.48556921631649
 30
0.0
  0
VERTEX
  5
3689
  8
0
 10
168.9081562401721
 20
138.6994976133935
 30
0.0
  0
VERTEX
  5
368A
  8
0
 10
168.80359704579669
 20
139.20417233053379
 30
0.0
  0
VERTEX
  5
368B
  8
0
 10
168.66170973525581
 20
139.70981867920739
 30
0.0
  0
VERTEX
  5
368C
  8
0
 10
168.48205204277011
 20
140.2120439479726
 30
0.0
  0
VERTEX
  5
368D
  8
0
 10
168.26418170256031
 20
140.7064554253879
 30
0.0
  0
VERTEX
  5
368E
  8
0
 10
168.14334540588499
 20
140.9447512759275
 30
0.0
  0
VERTEX
  5
368F
  8
0
 10
168.01303021498839
 20
141.18045619984539
 30
0.0
  0
SEQEND
  5
3690
  8
0
  0
POLYLINE
  5
23C9
  8
0
 66
     1
 10
0.0
 20
0.0
 30
0.0
  0
VERTEX
  5
3691
  8
0
 10
164.70000000000289
 20
129.60183147590311
 30
0.0
  0
VERTEX
  5
3692
  8
0
 10
165.05473104430621
 20
129.8186863370245
 30
0.0
  0
VERTEX
  5
3693
  8
0
 10
165.40000000000001
 20
130.05000000000001
 30
0.0
  0
SEQEND
  5
3694
  8
0
  0
POLYLINE
  5
23CA
  8
0
 66
     1
 10
0.0
 20
0.0
 30
0.0
  0
VERTEX
  5
3695
  8
0
 10
165.40000000000001
 20
143.84999999999991
 30
0.0
  0
VERTEX
  5
3696
  8
0
 10
165.05534362593809
 20
144.08092142438491
 30
0.0
  0
VERTEX
  5
3697
  8
0
 10
164.70000000000289
 20
144.29816852409689
 30
0.0
  0
SEQEND
  5
3698
  8
0
  0
POLYLINE
  5
23CB
  8
0
 66
     1
 10
0.0
 20
0.0
 30
0.0
  0
VERTEX
  5
3699
  8
0
 10
168.01303021498839
 20
141.18045619984539
 30
0.0
  0
VERTEX
  5
369A
  8
0
 10
167.66942657025891
 20
141.7214959173626
 30
0.0
  0
VERTEX
  5
369B
  8
0
 10
167.28235138722201
 20
142.22957797067559
 30
0.0
  0
VERTEX
  5
369C
  8
0
 10
166.99297988102799
 20
142.55757184494939
 30
0.0
  0
VERTEX
  5
369D
  8
0
 10
166.6850033501328
 20
142.86815802237979
 30
0.0
  0
VERTEX
  5
369E
  8
0
 10
166.35977138296369
 20
143.16002572081149
 30
0.0
  0
VERTEX
  5
369F
  8
0
 10
165.89537868357601
 20
143.52259936575081
 30
0.0
  0
VERTEX
  5
36A0
  8
0
 10
165.40000000000001
 20
143.84999999999991
 30
0.0
  0
SEQEND
  5
36A1
  8
0
  0
POLYLINE
  5
23CC
  8
0
 66
     1
 10
0.0
 20
0.0
 30
0.0
  0
VERTEX
  5
36A2
  8
0
 10
165.40000000000001
 20
130.05000000000001
 30
0.0
  0
VERTEX
  5
36A3
  8
0
 10
165.9317926706087
 20
130.40380607425021
 30
0.0
  0
VERTEX
  5
36A4
  8
0
 10
166.43066374979611
 20
130.80071168357659
 30
0.0
  0
VERTEX
  5
36A5
  8
0
 10
166.75215287775509
 20
131.09652218035939
 30
0.0
  0
VERTEX
  5
36A6
  8
0
 10
167.05620811602751
 20
131.41087269919981
 30
0.0
  0
VERTEX
  5
36A7
  8
0
 10
167.34148805264999
 20
131.7424433307001
 30
0.0
  0
VERTEX
  5
36A8
  8
0
 10
167.69501299114859
 20
132.21539874360121
 30
0.0
  0
VERTEX
  5
36A9
  8
0
 10
168.01303021498839
 20
132.7195438001545
 30
0.0
  0
SEQEND
  5
36AA
  8
0
  0
POLYLINE
  5
23CE
  8
0
 66
     1
 10
0.0
 20
0.0
 30
0.0
  0
VERTEX
  5
36AB
  8
0
 10
134.6999999999999
 20
130.44999999999999
 30
0.0
  0
VERTEX
  5
36AC
  8
0
 10
135.63229657119541
 20
130.42311078524349
 30
0.0
  0
VERTEX
  5
36AD
  8
0
 10
136.55973440822501
 20
130.3684559038773
 30
0.0
  0
VERTEX
  5
36AE
  8
0
 10
137.4837483557356
 20
130.28617674110089
 30
0.0
  0
VERTEX
  5
36AF
  8
0
 10
138.39999999999989
 20
130.176943418088
 30
0.0
  0
SEQEND
  5
36B0
  8
0
  0
POLYLINE
  5
23CF
  8
0
 66
     1
 10
0.0
 20
0.0
 30
0.0
  0
VERTEX
  5
36B1
  8
0
 10
138.39999999999989
 20
143.723056581912
 30
0.0
  0
VERTEX
  5
36B2
  8
0
 10
137.4908575957991
 20
143.61456450223491
 30
0.0
  0
VERTEX
  5
36B3
  8
0
 10
136.57127642206581
 20
143.53240017179991
 30
0.0
  0
VERTEX
  5
36B4
  8
0
 10
135.63960070359849
 20
143.47721077268901
 30
0.0
  0
VERTEX
  5
36B5
  8
0
 10
134.6999999999999
 20
143.44999999999999
 30
0.0
  0
SEQEND
  5
36B6
  8
0
  0
LINE
  5
23D0
  8
0
 10
122.7
 20
139.65000000000001
 30
0.0
 11
109.95
 21
139.65000000000001
 31
0.0
  0
LINE
  5
23D1
  8
0
 10
109.95
 20
134.25
 30
0.0
 11
122.7
 21
134.25
 31
0.0
  0
POLYLINE
  5
23D2
  8
0
 66
     1
 10
0.0
 20
0.0
 30
0.0
  0
VERTEX
  5
36B7
  8
0
 10
122.7
 20
139.65000000000001
 30
0.0
  0
VERTEX
  5
36B8
  8
0
 10
122.76853831250099
 20
139.63788959449499
 30
0.0
  0
VERTEX
  5
36B9
  8
0
 10
122.829433114775
 20
139.60246989473211
 30
0.0
  0
VERTEX
  5
36BA
  8
0
 10
122.87390994015379
 20
139.54876908785491
 30
0.0
  0
VERTEX
  5
36BB
  8
0
 10
122.8968709012364
 20
139.4852398672864
 30
0.0
  0
VERTEX
  5
36BC
  8
0
 10
122.90000000000011
 20
139.45000000298029
 30
0.0
  0
SEQEND
  5
36BD
  8
0
  0
LINE
  5
23D3
  8
0
 10
122.90000000000001
 20
134.44999999999999
 30
0.0
 11
122.90000000000001
 21
139.4500000029802
 31
0.0
  0
POLYLINE
  5
23D4
  8
0
 66
     1
 10
0.0
 20
0.0
 30
0.0
  0
VERTEX
  5
36BE
  8
0
 10
122.90000000000001
 20
134.44999999999999
 30
0.0
  0
VERTEX
  5
36BF
  8
0
 10
122.8894451586313
 20
134.38588657027461
 30
0.0
  0
VERTEX
  5
36C0
  8
0
 10
122.85926236524369
 20
134.3290227334704
 30
0.0
  0
VERTEX
  5
36C1
  8
0
 10
122.81239182400989
 20
134.28456699877071
 30
0.0
  0
VERTEX
  5
36C2
  8
0
 10
122.75219488181681
 20
134.25693085613659
 30
0.0
  0
VERTEX
  5
36C3
  8
0
 10
122.7
 20
134.25
 30
0.0
  0
SEQEND
  5
36C4
  8
0
  0
POLYLINE
  5
23D6
  8
0
 66
     1
 10
0.0
 20
0.0
 30
0.0
  0
VERTEX
  5
36C5
  8
0
 10
141.7000000000001
 20
129.5499999999999
 30
0.0
  0
VERTEX
  5
36C6
  8
0
 10
142.44447575442041
 20
129.2954302038118
 30
0.0
  0
VERTEX
  5
36C7
  8
0
 10
143.1999999999999
 20
129.06150133517829
 30
0.0
  0
SEQEND
  5
36C8
  8
0
  0
POLYLINE
  5
23D7
  8
0
 66
     1
 10
0.0
 20
0.0
 30
0.0
  0
VERTEX
  5
36C9
  8
0
 10
143.1999999999999
 20
144.83849866482171
 30
0.0
  0
VERTEX
  5
36CA
  8
0
 10
142.4460306094783
 20
144.6050762382043
 30
0.0
  0
VERTEX
  5
36CB
  8
0
 10
141.69999999999999
 20
144.34999999999999
 30
0.0
  0
SEQEND
  5
36CC
  8
0
  0
POLYLINE
  5
23D8
  8
0
 66
     1
 10
0.0
 20
0.0
 30
0.0
  0
VERTEX
  5
36CD
  8
0
 10
138.39999999999989
 20
143.723056581912
 30
0.0
  0
VERTEX
  5
36CE
  8
0
 10
139.21359853464509
 20
143.84336379744761
 30
0.0
  0
VERTEX
  5
36CF
  8
0
 10
140.03488962999481
 20
143.9873230441128
 30
0.0
  0
VERTEX
  5
36D0
  8
0
 10
140.86584312471641
 20
144.15632594093429
 30
0.0
  0
VERTEX
  5
36D1
  8
0
 10
141.69999999999999
 20
144.35000000000011
 30
0.0
  0
SEQEND
  5
36D2
  8
0
  0
POLYLINE
  5
23DA
  8
0
 66
     1
 10
0.0
 20
0.0
 30
0.0
  0
VERTEX
  5
36D3
  8
0
 10
141.7000000000001
 20
129.55000000000001
 30
0.0
  0
VERTEX
  5
36D4
  8
0
 10
140.8762870927599
 20
129.74139885568329
 30
0.0
  0
VERTEX
  5
36D5
  8
0
 10
140.05158170163071
 20
129.90951441401771
 30
0.0
  0
VERTEX
  5
36D6
  8
0
 10
139.22398079265059
 20
130.0549581421933
 30
0.0
  0
VERTEX
  5
36D7
  8
0
 10
138.39999999999989
 20
130.176943418088
 30
0.0
  0
SEQEND
  5
36D8
  8
0
  0
POLYLINE
  5
23DB
  8
0
 66
     1
 10
0.0
 20
0.0
 30
0.0
  0
VERTEX
  5
36D9
  8
0
 10
143.1999999999999
 20
129.06150133517829
 30
0.0
  0
VERTEX
  5
36DA
  8
0
 10
144.19729224017681
 20
128.78928731680759
 30
0.0
  0
VERTEX
  5
36DB
  8
0
 10
145.20548753912499
 20
128.55517439642031
 30
0.0
  0
VERTEX
  5
36DC
  8
0
 10
146.23280113063109
 20
128.3580200810197
 30
0.0
  0
VERTEX
  5
36DD
  8
0
 10
147.267835577184
 20
128.20067443532369
 30
0.0
  0
VERTEX
  5
36DE
  8
0
 10
148.32378061759451
 20
128.0821493920478
 30
0.0
  0
VERTEX
  5
36DF
  8
0
 10
149.383939985338
 20
128.00522325456021
 30
0.0
  0
VERTEX
  5
36E0
  8
0
 10
150.45504138206681
 20
127.96998091866099
 30
0.0
  0
VERTEX
  5
36E1
  8
0
 10
151.53047197039149
 20
127.9773728869293
 30
0.0
  0
SEQEND
  5
36E2
  8
0
  0
LINE
  5
23DC
  8
0
 10
152.3011147573915
 20
145.94999999999999
 30
0.0
 11
151.53047197039149
 21
145.92262711307069
 31
0.0
  0
POLYLINE
  5
23DD
  8
0
 66
     1
 10
0.0
 20
0.0
 30
0.0
  0
VERTEX
  5
36E3
  8
0
 10
151.53047197039149
 20
145.92262711307069
 30
0.0
  0
VERTEX
  5
36E4
  8
0
 10
150.4928913264647
 20
145.93047629792451
 30
0.0
  0
VERTEX
  5
36E5
  8
0
 10
149.45556676396771
 20
145.8984623328098
 30
0.0
  0
VERTEX
  5
36E6
  8
0
 10
148.4101353073444
 20
145.82568801005581
 30
0.0
  0
VERTEX
  5
36E7
  8
0
 10
147.36864843560909
 20
145.71246288916839
 30
0.0
  0
VERTEX
  5
36E8
  8
0
 10
146.31802143538391
 20
145.55648893123151
 30
0.0
  0
VERTEX
  5
36E9
  8
0
 10
145.27519044411969
 20
145.35951256343839
 30
0.0
  0
VERTEX
  5
36EA
  8
0
 10
144.23365435781909
 20
145.11987635978971
 30
0.0
  0
VERTEX
  5
36EB
  8
0
 10
143.1999999999999
 20
144.83849866482171
 30
0.0
  0
SEQEND
  5
36EC
  8
0
  0
LINE
  5
23DF
  8
0
 10
151.5304719703916
 20
127.9773728869293
 30
0.0
 11
152.30111475739201
 21
127.95
 31
0.0
  0
LINE
  5
23E0
  8
0
 10
156.49999999999909
 20
127.95
 30
0.0
 11
152.30111475739201
 21
127.95
 31
0.0
  0
POLYLINE
  5
23E1
  8
0
 66
     1
 10
0.0
 20
0.0
 30
0.0
  0
VERTEX
  5
36ED
  8
0
 10
156.4999999999996
 20
127.95
 30
0.0
  0
VERTEX
  5
36EE
  8
0
 10
157.40319078724579
 20
127.99375225865781
 30
0.0
  0
VERTEX
  5
36EF
  8
0
 10
158.30425219139579
 20
128.05835992162471
 30
0.0
  0
VERTEX
  5
36F0
  8
0
 10
159.2038360446935
 20
128.14384836170399
 30
0.0
  0
VERTEX
  5
36F1
  8
0
 10
160.10000000000019
 20
128.25
 30
0.0
  0
SEQEND
  5
36F2
  8
0
  0
POLYLINE
  5
23E2
  8
0
 66
     1
 10
0.0
 20
0.0
 30
0.0
  0
VERTEX
  5
36F3
  8
0
 10
160.10000000000031
 20
128.25
 30
0.0
  0
VERTEX
  5
36F4
  8
0
 10
160.66235239477891
 20
128.29057404684349
 30
0.0
  0
VERTEX
  5
36F5
  8
0
 10
161.22121411060931
 20
128.3626796304755
 30
0.0
  0
VERTEX
  5
36F6
  8
0
 10
161.77399767355519
 20
128.4658563650307
 30
0.0
  0
VERTEX
  5
36F7
  8
0
 10
162.33532703224469
 20
128.60425314019531
 30
0.0
  0
VERTEX
  5
36F8
  8
0
 10
162.887593758728
 20
128.77476144382189
 30
0.0
  0
VERTEX
  5
36F9
  8
0
 10
163.42819387758121
 20
128.97647454266831
 30
0.0
  0
VERTEX
  5
36FA
  8
0
 10
164.07380231294971
 20
129.2659121179347
 30
0.0
  0
VERTEX
  5
36FB
  8
0
 10
164.7000000000028
 20
129.60183147590311
 30
0.0
  0
SEQEND
  5
36FC
  8
0
  0
POLYLINE
  5
23E4
  8
0
 66
     1
 10
0.0
 20
0.0
 30
0.0
  0
VERTEX
  5
36FD
  8
0
 10
164.7000000000028
 20
144.29816852409689
 30
0.0
  0
VERTEX
  5
36FE
  8
0
 10
164.20846701328941
 20
144.5665858843912
 30
0.0
  0
VERTEX
  5
36FF
  8
0
 10
163.7021501289027
 20
144.80734505351339
 30
0.0
  0
VERTEX
  5
3700
  8
0
 10
163.18326261396169
 20
145.0193489195951
 30
0.0
  0
VERTEX
  5
3701
  8
0
 10
162.63748753667971
 20
145.20679256377949
 30
0.0
  0
VERTEX
  5
3702
  8
0
 10
162.0808195170797
 20
145.36274147405609
 30
0.0
  0
VERTEX
  5
3703
  8
0
 10
161.515895583028
 20
145.48634679330371
 30
0.0
  0
VERTEX
  5
3704
  8
0
 10
160.8132535686909
 20
145.59315573702861
 30
0.0
  0
VERTEX
  5
3705
  8
0
 10
160.09999999999999
 20
145.65000000000001
 30
0.0
  0
SEQEND
  5
3706
  8
0
  0
POLYLINE
  5
23E5
  8
0
 66
     1
 10
0.0
 20
0.0
 30
0.0
  0
VERTEX
  5
3707
  8
0
 10
160.09999999999999
 20
145.65000000000001
 30
0.0
  0
VERTEX
  5
3708
  8
0
 10
159.207056876466
 20
145.75580772922331
 30
0.0
  0
VERTEX
  5
3709
  8
0
 10
158.30943941503611
 20
145.84120735677229
 30
0.0
  0
VERTEX
  5
370A
  8
0
 10
157.4064508790417
 20
145.90605177277709
 30
0.0
  0
VERTEX
  5
370B
  8
0
 10
156.50000000000099
 20
145.94999999999999
 30
0.0
  0
SEQEND
  5
370C
  8
0
  0
LINE
  5
23E6
  8
0
 10
156.50000000000099
 20
145.94999999999999
 30
0.0
 11
152.3011147573915
 21
145.94999999999999
 31
0.0
  0
LINE
  5
23E7
  8
0
 10
134.6999999999999
 20
143.44999999999999
 30
0.0
 11
109.95
 21
143.44999999999999
 31
0.0
  0
LINE
  5
23E9
  8
0
 10
109.95
 20
143.44999999999999
 30
0.0
 11
109.95
 21
139.65000000000001
 31
0.0
  0
LINE
  5
23EB
  8
0
 10
109.95
 20
134.25
 30
0.0
 11
109.95
 21
130.44999999999999
 31
0.0
  0
LINE
  5
23EC
  8
0
 10
109.95
 20
130.44999999999999
 30
0.0
 11
134.6999999999999
 21
130.44999999999999
 31
0.0
  0
LINE
  5
247F
  8
1
 10
59.000000000000007
 20
91.799999999999969
 30
0.0
 11
59.0
 21
24.999999999999972
 31
0.0
  0
LINE
  5
2480
  8
1
 10
45.000000000000007
 20
81.199999999999946
 30
0.0
 11
73.0
 21
81.199999999999989
 31
0.0
  0
LINE
  5
2481
  8
0
 10
65.394362470949702
 20
74.999999999999972
 30
0.0
 11
66.68429044146481
 21
73.700000000100431
 31
0.0
  0
LINE
  5
2482
  8
0
 10
65.394362470949673
 20
74.999999999999972
 30
0.0
 11
52.605635361718832
 21
74.999999999999943
 31
0.0
  0
LINE
  5
2483
  8
0
 10
51.315709558435387
 20
73.69999999999979
 30
0.0
 11
51.306982025971287
 21
73.19999999999996
 31
0.0
  0
LINE
  5
2484
  8
0
 10
66.69301797402872
 20
73.19999999999996
 30
0.0
 11
66.684290441564613
 21
73.699999999999847
 31
0.0
  0
LINE
  5
2485
  8
0
 10
51.315709558535211
 20
73.700000000100431
 30
0.0
 11
52.605635361718832
 21
74.999999999999972
 31
0.0
  0
LINE
  5
2487
  8
0
 10
65.299999999868405
 20
69.999999999999972
 30
0.0
 11
52.700000000000003
 21
69.999999999999972
 31
0.0
  0
ARC
  5
2488
  8
0
 10
52.700000000000003
 20
71.399999999999949
 30
0.0
 40
1.399999999999997
 50
179.99999914622629
 51
270.0
  0
ARC
  5
2489
  8
0
 10
65.300000000000011
 20
71.399999999999949
 30
0.0
 40
1.399999999999999
 50
270.0
 51
0.0000008537736463
  0
LINE
  5
248A
  8
0
 10
51.299999999999997
 20
73.19999999999996
 30
0.0
 11
51.299999999999997
 21
71.399999999999949
 31
0.0
  0
LINE
  5
248B
  8
0
 10
66.700000000000003
 20
71.399999999999949
 30
0.0
 11
66.700000000000003
 21
73.19999999999996
 31
0.0
  0
LINE
  5
248D
  8
0
 10
66.700000000000003
 20
73.19999999999996
 30
0.0
 11
51.299999999999997
 21
73.19999999999996
 31
0.0
  0
LINE
  5
248E
  8
0
 10
57.000000000000007
 20
77.377739858293495
 30
0.0
 11
57.000000000000007
 21
76.499999999999972
 31
0.0
  0
LINE
  5
248F
  8
0
 10
57.040408205773467
 20
85.693499999999986
 30
0.0
 11
57.040408205773467
 21
85.009165313446005
 31
0.0
  0
LINE
  5
2490
  8
0
 10
60.959591794226533
 20
85.009864769923993
 30
0.0
 11
60.959591794226533
 21
85.693499999999986
 31
0.0
  0
LINE
  5
2491
  8
0
 10
61.000000000000007
 20
76.499999999999972
 30
0.0
 11
61.000000000000007
 21
77.377317917905174
 31
0.0
  0
LINE
  5
2492
  8
0
 10
60.959591794226533
 20
85.693499999999986
 30
0.0
 11
57.040408205773467
 21
85.693499999999986
 31
0.0
  0
LINE
  5
2493
  8
0
 10
60.64558264757499
 20
85.999999999999957
 30
0.0
 11
57.354417352424989
 21
85.999999999999957
 31
0.0
  0
LINE
  5
2494
  8
0
 10
57.354417352425003
 20
85.999999999999972
 30
0.0
 11
57.040408205773467
 21
85.693499999999986
 31
0.0
  0
LINE
  5
2495
  8
0
 10
60.959591794226533
 20
85.693499999999986
 30
0.0
 11
60.645582647574997
 21
85.999999999999972
 31
0.0
  0
LINE
  5
2496
  8
0
 10
61.5
 20
76.499999999999972
 30
0.0
 11
56.500000000000007
 21
76.499999999999972
 31
0.0
  0
LINE
  5
2497
  8
0
 10
56.5
 20
76.499999999999943
 30
0.0
 11
56.5
 21
74.999999999999957
 31
0.0
  0
LINE
  5
2498
  8
0
 10
61.5
 20
74.999999999999957
 30
0.0
 11
61.5
 21
76.499999999999943
 31
0.0
  0
LINE
  5
2499
  8
0
 10
56.500000000000007
 20
69.999999999999972
 30
0.0
 11
56.500000000000007
 21
30.490499999999969
 31
0.0
  0
LINE
  5
249A
  8
0
 10
61.500000000000007
 20
30.490499999999969
 30
0.0
 11
61.500000000000007
 21
69.999999999999972
 31
0.0
  0
LINE
  5
249B
  8
0
 10
61.009500000000003
 20
29.999999999999972
 30
0.0
 11
56.990499999999997
 21
29.999999999999972
 31
0.0
  0
LINE
  5
249C
  8
0
 10
61.500000000000007
 20
30.490499999999969
 30
0.0
 11
56.500000000000007
 21
30.490499999999969
 31
0.0
  0
LINE
  5
249D
  8
0
 10
61.009500000000003
 20
29.999999999999972
 30
0.0
 11
61.500000000000007
 21
30.490499999999969
 31
0.0
  0
LINE
  5
249E
  8
0
 10
56.500000000000007
 20
30.490499999999969
 30
0.0
 11
56.990499999999997
 21
29.999999999999972
 31
0.0
  0
LINE
  5
249F
  8
3
 10
57.379000000001433
 20
85.999999999999957
 30
0.0
 11
57.379000000001433
 21
84.896358013851227
 31
0.0
  0
LINE
  5
24A0
  8
3
 10
57.379000000001433
 20
77.503261002780846
 30
0.0
 11
57.379000000001433
 21
76.499999999999972
 31
0.0
  0
LINE
  5
24A2
  8
3
 10
56.933
 20
30.05749999999998
 30
0.0
 11
56.933
 21
69.999999999999972
 31
0.0
  0
LINE
  5
24A3
  8
3
 10
60.620999999998631
 20
85.999999999999972
 30
0.0
 11
60.620999999998617
 21
84.896738997219103
 31
0.0
  0
LINE
  5
24A4
  8
3
 10
60.620999999998617
 20
77.503641986148693
 30
0.0
 11
60.620999999998617
 21
76.499999999999972
 31
0.0
  0
LINE
  5
24A6
  8
3
 10
61.067
 20
30.057499999999919
 30
0.0
 11
61.067
 21
69.999999999999972
 31
0.0
  0
POLYLINE
  5
24A7
  8
0
 66
     1
 10
0.0
 20
0.0
 30
0.0
  0
VERTEX
  5
370D
  8
0
 10
60.697009281059088
 20
84.929500000000019
 30
0.0
  0
VERTEX
  5
370E
  8
0
 10
60.815731490019019
 20
84.964289372625586
 30
0.0
  0
VERTEX
  5
370F
  8
0
 10
61.051299086509019
 20
85.03891792884761
 30
0.0
  0
VERTEX
  5
3710
  8
0
 10
61.157322618835103
 20
85.074823265541482
 30
0.0
  0
VERTEX
  5
3711
  8
0
 10
61.252589721793839
 20
85.108255883769601
 30
0.0
  0
VERTEX
  5
3712
  8
0
 10
61.373557338435539
 20
85.152247213976523
 30
0.0
  0
VERTEX
  5
3713
  8
0
 10
61.458481989157349
 20
85.184125360202543
 30
0.0
  0
VERTEX
  5
3714
  8
0
 10
61.497338192363287
 20
85.198976611722216
 30
0.0
  0
VERTEX
  5
3715
  8
0
 10
61.499999999780101
 20
85.199999999915377
 30
0.0
  0
SEQEND
  5
3716
  8
0
  0
POLYLINE
  5
24A8
  8
0
 66
     1
 10
0.0
 20
0.0
 30
0.0
  0
VERTEX
  5
3717
  8
0
 10
57.302990718941118
 20
84.929499999999962
 30
0.0
  0
VERTEX
  5
3718
  8
0
 10
57.47847891817193
 20
84.852982667023767
 30
0.0
  0
VERTEX
  5
3719
  8
0
 10
57.674167330778552
 20
84.775909322296428
 30
0.0
  0
VERTEX
  5
371A
  8
0
 10
57.88727390789127
 20
84.702497552612897
 30
0.0
  0
VERTEX
  5
371B
  8
0
 10
58.118134593722097
 20
84.636319052856777
 30
0.0
  0
VERTEX
  5
371C
  8
0
 10
58.364174705158469
 20
84.581561459432237
 30
0.0
  0
VERTEX
  5
371D
  8
0
 10
58.62047128444835
 20
84.542659389756608
 30
0.0
  0
VERTEX
  5
371E
  8
0
 10
58.856711737369217
 20
84.524450014443886
 30
0.0
  0
VERTEX
  5
371F
  8
0
 10
59.09621939350032
 20
84.52275451565373
 30
0.0
  0
VERTEX
  5
3720
  8
0
 10
59.333203201015728
 20
84.537716902789526
 30
0.0
  0
VERTEX
  5
3721
  8
0
 10
59.637190425458428
 20
84.581742929282285
 30
0.0
  0
VERTEX
  5
3722
  8
0
 10
59.925459311374411
 20
84.647579540345561
 30
0.0
  0
VERTEX
  5
3723
  8
0
 10
60.215551814754242
 20
84.736525865352704
 30
0.0
  0
VERTEX
  5
3724
  8
0
 10
60.47705706682644
 20
84.83469769426037
 30
0.0
  0
VERTEX
  5
3725
  8
0
 10
60.697009281058897
 20
84.929499999999962
 30
0.0
  0
SEQEND
  5
3726
  8
0
  0
POLYLINE
  5
24A9
  8
0
 66
     1
 10
0.0
 20
0.0
 30
0.0
  0
VERTEX
  5
3727
  8
0
 10
57.302990718941317
 20
77.470500000000101
 30
0.0
  0
VERTEX
  5
3728
  8
0
 10
57.05395269670781
 20
77.395323248963052
 30
0.0
  0
VERTEX
  5
3729
  8
0
 10
56.939641008452902
 20
77.358068631579044
 30
0.0
  0
VERTEX
  5
372A
  8
0
 10
56.834677709151237
 20
77.322411422257773
 30
0.0
  0
VERTEX
  5
372B
  8
0
 10
56.689049260055562
 20
77.270731741229582
 30
0.0
  0
VERTEX
  5
372C
  8
0
 10
56.57839864382683
 20
77.229817308892223
 30
0.0
  0
VERTEX
  5
372D
  8
0
 10
56.515164196351932
 20
77.205819905500647
 30
0.0
  0
VERTEX
  5
372E
  8
0
 10
56.501666611642889
 20
77.200640854000568
 30
0.0
  0
VERTEX
  5
372F
  8
0
 10
56.5
 20
77.19999999999996
 30
0.0
  0
SEQEND
  5
3730
  8
0
  0
POLYLINE
  5
24AA
  8
0
 66
     1
 10
0.0
 20
0.0
 30
0.0
  0
VERTEX
  5
3731
  8
0
 10
60.697009281058889
 20
77.470499999999987
 30
0.0
  0
VERTEX
  5
3732
  8
0
 10
60.521521081828077
 20
77.547017332976168
 30
0.0
  0
VERTEX
  5
3733
  8
0
 10
60.325832669221462
 20
77.624090677703492
 30
0.0
  0
VERTEX
  5
3734
  8
0
 10
60.112726092108737
 20
77.697502447387052
 30
0.0
  0
VERTEX
  5
3735
  8
0
 10
59.881865406277917
 20
77.763680947143143
 30
0.0
  0
VERTEX
  5
3736
  8
0
 10
59.635825294841538
 20
77.818438540567712
 30
0.0
  0
VERTEX
  5
3737
  8
0
 10
59.37952871555165
 20
77.857340610243313
 30
0.0
  0
VERTEX
  5
3738
  8
0
 10
59.143288262630783
 20
77.875549985556063
 30
0.0
  0
VERTEX
  5
3739
  8
0
 10
58.90378060649968
 20
77.877245484346219
 30
0.0
  0
VERTEX
  5
373A
  8
0
 10
58.666796798984272
 20
77.862283097210394
 30
0.0
  0
VERTEX
  5
373B
  8
0
 10
58.362809574541579
 20
77.818257070717664
 30
0.0
  0
VERTEX
  5
373C
  8
0
 10
58.074540688625603
 20
77.75242045965436
 30
0.0
  0
VERTEX
  5
373D
  8
0
 10
57.784448185245779
 20
77.663474134647203
 30
0.0
  0
VERTEX
  5
373E
  8
0
 10
57.522942933173567
 20
77.56530230573955
 30
0.0
  0
VERTEX
  5
373F
  8
0
 10
57.302990718941118
 20
77.470499999999987
 30
0.0
  0
SEQEND
  5
3740
  8
0
  0
LINE
  5
24AB
  8
0
 10
61.700000000000003
 20
85.19999999999996
 30
0.0
 11
61.500000000000107
 21
85.19999999999996
 31
0.0
  0
LINE
  5
24AC
  8
0
 10
56.5
 20
85.19999999999996
 30
0.0
 11
56.299999999999997
 21
85.19999999999996
 31
0.0
  0
LINE
  5
24AD
  8
0
 10
56.299999999999997
 20
77.19999999999996
 30
0.0
 11
56.5
 21
77.19999999999996
 31
0.0
  0
LINE
  5
24AE
  8
0
 10
61.500000000000007
 20
77.19999999999996
 30
0.0
 11
61.700000000000003
 21
77.19999999999996
 31
0.0
  0
POLYLINE
  5
24AF
  8
0
 66
     1
 10
0.0
 20
0.0
 30
0.0
  0
VERTEX
  5
3741
  8
0
 10
56.5
 20
85.19999999999996
 30
0.0
  0
VERTEX
  5
3742
  8
0
 10
56.501814455286301
 20
85.199302310944319
 30
0.0
  0
VERTEX
  5
3743
  8
0
 10
56.532966653226381
 20
85.187379614293974
 30
0.0
  0
VERTEX
  5
3744
  8
0
 10
56.603251300881361
 20
85.160872492542026
 30
0.0
  0
VERTEX
  5
3745
  8
0
 10
56.706738755513072
 20
85.122857319157703
 30
0.0
  0
VERTEX
  5
3746
  8
0
 10
56.842086259269202
 20
85.075027336875195
 30
0.0
  0
VERTEX
  5
3747
  8
0
 10
57.053248614638591
 20
85.004901058660195
 30
0.0
  0
VERTEX
  5
3748
  8
0
 10
57.302990718941118
 20
84.929499999999962
 30
0.0
  0
SEQEND
  5
3749
  8
0
  0
POLYLINE
  5
24B0
  8
0
 66
     1
 10
0.0
 20
0.0
 30
0.0
  0
VERTEX
  5
374A
  8
0
 10
61.499999999973248
 20
77.200000000010249
 30
0.0
  0
VERTEX
  5
374B
  8
0
 10
61.499969212463071
 20
77.200011841308992
 30
0.0
  0
VERTEX
  5
374C
  8
0
 10
61.474960548462818
 20
77.209596497621959
 30
0.0
  0
VERTEX
  5
374D
  8
0
 10
61.414534367706352
 20
77.232471739608542
 30
0.0
  0
VERTEX
  5
374E
  8
0
 10
61.319106496831047
 20
77.267763762411363
 30
0.0
  0
VERTEX
  5
374F
  8
0
 10
61.240426509474503
 20
77.296073007791989
 30
0.0
  0
VERTEX
  5
3750
  8
0
 10
61.149797670655829
 20
77.327770826416042
 30
0.0
  0
VERTEX
  5
3751
  8
0
 10
60.93376968744419
 20
77.399224262250783
 30
0.0
  0
VERTEX
  5
3752
  8
0
 10
60.697009281058889
 20
77.470499999999987
 30
0.0
  0
SEQEND
  5
3753
  8
0
  0
LINE
  5
24B1
  8
0
 10
67.999999999999972
 20
82.488149627176284
 30
0.0
 11
68.0
 21
86.747120357517844
 31
0.0
  0
LINE
  5
24B2
  8
0
 10
50.0
 20
82.488149627176199
 30
0.0
 11
50.0
 21
86.747120357517858
 31
0.0
  0
LINE
  5
24B3
  8
0
 10
50.0
 20
86.747120357517858
 30
0.0
 11
50.017684058440992
 21
86.766495826020574
 31
0.0
  0
LINE
  5
24B4
  8
0
 10
67.982315941559051
 20
86.766495826020616
 30
0.0
 11
68.0
 21
86.747120357517844
 31
0.0
  0
LINE
  5
24B5
  8
0
 10
52.500000000000007
 20
86.799999999999969
 30
0.0
 11
50.040402194172422
 21
86.799999999999969
 31
0.0
  0
LINE
  5
24B6
  8
0
 10
61.70000000000001
 20
86.799999999999969
 30
0.0
 11
56.299999999999997
 21
86.799999999999969
 31
0.0
  0
LINE
  5
24B7
  8
0
 10
67.959596424031901
 20
86.799999999999969
 30
0.0
 11
65.5
 21
86.799999999999969
 31
0.0
  0
POLYLINE
  5
24B8
  8
3
 66
     1
 10
0.0
 20
0.0
 30
0.0
  0
VERTEX
  5
3754
  8
3
 10
50.040402193384978
 20
86.799999999814176
 30
0.0
  0
VERTEX
  5
3755
  8
3
 10
50.051537667190139
 20
86.799533220119017
 30
0.0
  0
VERTEX
  5
3756
  8
3
 10
50.12371866991262
 20
86.787132323358236
 30
0.0
  0
VERTEX
  5
3757
  8
3
 10
50.23753711083156
 20
86.757523403296403
 30
0.0
  0
VERTEX
  5
3758
  8
3
 10
50.392392007458383
 20
86.710927665395417
 30
0.0
  0
VERTEX
  5
3759
  8
3
 10
50.590487436561652
 20
86.646856307841716
 30
0.0
  0
VERTEX
  5
375A
  8
3
 10
50.830123640210317
 20
86.566127884012275
 30
0.0
  0
VERTEX
  5
375B
  8
3
 10
51.111501335178318
 20
86.469066272405726
 30
0.0
  0
SEQEND
  5
375C
  8
3
  0
POLYLINE
  5
24B9
  8
0
 66
     1
 10
0.0
 20
0.0
 30
0.0
  0
VERTEX
  5
375D
  8
0
 10
67.959596425296297
 20
86.799999999724236
 30
0.0
  0
VERTEX
  5
375E
  8
0
 10
67.980019081339009
 20
86.795546036512292
 30
0.0
  0
VERTEX
  5
375F
  8
0
 10
67.982315941558923
 20
86.790421735436766
 30
0.0
  0
SEQEND
  5
3760
  8
0
  0
LINE
  5
24BA
  8
0
 10
50.0
 20
82.830094077945375
 30
0.0
 11
50.0273728869293
 21
82.86071760494039
 31
0.0
  0
POLYLINE
  5
24BB
  8
0
 66
     1
 10
0.0
 20
0.0
 30
0.0
  0
VERTEX
  5
3761
  8
0
 10
50.300000000000018
 20
81.956201574527626
 30
0.0
  0
VERTEX
  5
3762
  8
0
 10
50.194243444738852
 20
82.108927659256125
 30
0.0
  0
VERTEX
  5
3763
  8
0
 10
50.108846318947627
 20
82.248580998053924
 30
0.0
  0
VERTEX
  5
3764
  8
0
 10
50.043976022008422
 20
82.375123943280784
 30
0.0
  0
VERTEX
  5
3765
  8
0
 10
50.00000000000005
 20
82.488149627176057
 30
0.0
  0
SEQEND
  5
3766
  8
0
  0
POLYLINE
  5
24BC
  8
0
 66
     1
 10
0.0
 20
0.0
 30
0.0
  0
VERTEX
  5
3767
  8
0
 10
52.10000000000003
 20
80.758051631137704
 30
0.0
  0
VERTEX
  5
3768
  8
0
 10
51.790493252943861
 20
80.884728583803678
 30
0.0
  0
VERTEX
  5
3769
  8
0
 10
51.507647241138663
 20
81.011703156127993
 30
0.0
  0
VERTEX
  5
376A
  8
0
 10
51.252700708981983
 20
81.138025165316776
 30
0.0
  0
VERTEX
  5
376B
  8
0
 10
51.020267010672057
 20
81.266586675085065
 30
0.0
  0
VERTEX
  5
376C
  8
0
 10
50.818542885411738
 20
81.393139850055974
 30
0.0
  0
VERTEX
  5
376D
  8
0
 10
50.648566155249611
 20
81.516773388566804
 30
0.0
  0
VERTEX
  5
376E
  8
0
 10
50.515869775855869
 20
81.632096861918754
 30
0.0
  0
VERTEX
  5
376F
  8
0
 10
50.413354084503418
 20
81.74367985703222
 30
0.0
  0
VERTEX
  5
3770
  8
0
 10
50.340798739735
 20
81.852332541609002
 30
0.0
  0
VERTEX
  5
3771
  8
0
 10
50.300000000000018
 20
81.956201574527626
 30
0.0
  0
SEQEND
  5
3772
  8
0
  0
POLYLINE
  5
24BD
  8
0
 66
     1
 10
0.0
 20
0.0
 30
0.0
  0
VERTEX
  5
3773
  8
0
 10
52.5
 20
80.59169894342034
 30
0.0
  0
VERTEX
  5
3774
  8
0
 10
52.323312606705272
 20
80.661801788484439
 30
0.0
  0
VERTEX
  5
3775
  8
0
 10
52.10000000000003
 20
80.758051631137704
 30
0.0
  0
SEQEND
  5
3776
  8
0
  0
POLYLINE
  5
24BE
  8
0
 66
     1
 10
0.0
 20
0.0
 30
0.0
  0
VERTEX
  5
3777
  8
0
 10
65.900000000000006
 20
80.758051631137704
 30
0.0
  0
VERTEX
  5
3778
  8
0
 10
65.680002233222666
 20
80.663164290595262
 30
0.0
  0
VERTEX
  5
3779
  8
0
 10
65.5
 20
80.591700165864921
 30
0.0
  0
SEQEND
  5
377A
  8
0
  0
POLYLINE
  5
24BF
  8
0
 66
     1
 10
0.0
 20
0.0
 30
0.0
  0
VERTEX
  5
377B
  8
0
 10
67.69999999999996
 20
81.956201574527554
 30
0.0
  0
VERTEX
  5
377C
  8
0
 10
67.659150965181567
 20
81.85229423489838
 30
0.0
  0
VERTEX
  5
377D
  8
0
 10
67.58648322666383
 20
81.743520828000257
 30
0.0
  0
VERTEX
  5
377E
  8
0
 10
67.482483416298294
 20
81.630503407807396
 30
0.0
  0
VERTEX
  5
377F
  8
0
 10
67.342966828626771
 20
81.510119795502945
 30
0.0
  0
VERTEX
  5
3780
  8
0
 10
67.171097208291243
 20
81.386192141997356
 30
0.0
  0
VERTEX
  5
3781
  8
0
 10
66.967803637733198
 20
81.259583513233082
 30
0.0
  0
VERTEX
  5
3782
  8
0
 10
66.743626330591724
 20
81.136110901437959
 30
0.0
  0
VERTEX
  5
3783
  8
0
 10
66.49172014350026
 20
81.011393620308525
 30
0.0
  0
VERTEX
  5
3784
  8
0
 10
66.209276762994691
 20
80.884622454417936
 30
0.0
  0
VERTEX
  5
3785
  8
0
 10
65.899999999999991
 20
80.758051631137704
 30
0.0
  0
SEQEND
  5
3786
  8
0
  0
POLYLINE
  5
24C0
  8
0
 66
     1
 10
0.0
 20
0.0
 30
0.0
  0
VERTEX
  5
3787
  8
0
 10
68.0
 20
82.488149627176213
 30
0.0
  0
VERTEX
  5
3788
  8
0
 10
67.956227019352994
 20
82.375570877437752
 30
0.0
  0
VERTEX
  5
3789
  8
0
 10
67.891601776246603
 20
82.249374885991557
 30
0.0
  0
VERTEX
  5
378A
  8
0
 10
67.806112452214848
 20
82.109472042558224
 30
0.0
  0
VERTEX
  5
378B
  8
0
 10
67.69999999999996
 20
81.956201574527554
 30
0.0
  0
SEQEND
  5
378C
  8
0
  0
LINE
  5
24C1
  8
0
 10
67.972627113070729
 20
82.86071760494039
 30
0.0
 11
68.0
 21
82.830094077945347
 31
0.0
  0
POLYLINE
  5
24C2
  8
3
 66
     1
 10
0.0
 20
0.0
 30
0.0
  0
VERTEX
  5
378D
  8
3
 10
50.047749204982743
 20
82.893960477435172
 30
0.0
  0
VERTEX
  5
378E
  8
3
 10
50.051504194774111
 20
82.893910774053069
 30
0.0
  0
VERTEX
  5
378F
  8
3
 10
50.123643419459498
 20
82.883582036619273
 30
0.0
  0
VERTEX
  5
3790
  8
3
 10
50.237440337759942
 20
82.854921403967552
 30
0.0
  0
VERTEX
  5
3791
  8
3
 10
50.392281433934109
 20
82.808127457747275
 30
0.0
  0
VERTEX
  5
3792
  8
3
 10
50.590410842697644
 20
82.742688282624357
 30
0.0
  0
VERTEX
  5
3793
  8
3
 10
50.830086419725781
 20
82.659448731234534
 30
0.0
  0
VERTEX
  5
3794
  8
3
 10
51.111501335178978
 20
82.558751015088475
 30
0.0
  0
SEQEND
  5
3795
  8
3
  0
POLYLINE
  5
24C3
  8
3
 66
     1
 10
0.0
 20
0.0
 30
0.0
  0
VERTEX
  5
3796
  8
3
 10
67.952248007981069
 20
82.893960477337785
 30
0.0
  0
VERTEX
  5
3797
  8
3
 10
67.980013995811476
 20
82.886888508307806
 30
0.0
  0
VERTEX
  5
3798
  8
3
 10
67.982315941556038
 20
82.880438376169053
 30
0.0
  0
SEQEND
  5
3799
  8
3
  0
POLYLINE
  5
24C4
  8
3
 66
     1
 10
0.0
 20
0.0
 30
0.0
  0
VERTEX
  5
379A
  8
3
 10
66.400000000000063
 20
82.347198565580626
 30
0.0
  0
VERTEX
  5
379B
  8
3
 10
66.65453219552117
 20
82.464252194992099
 30
0.0
  0
VERTEX
  5
379C
  8
3
 10
66.888498664821014
 20
82.558751015088475
 30
0.0
  0
SEQEND
  5
379D
  8
3
  0
POLYLINE
  5
24C5
  8
3
 66
     1
 10
0.0
 20
0.0
 30
0.0
  0
VERTEX
  5
379E
  8
3
 10
66.888498664821014
 20
82.558751015088475
 30
0.0
  0
VERTEX
  5
379F
  8
3
 10
67.160147689602553
 20
82.655996873494473
 30
0.0
  0
VERTEX
  5
37A0
  8
3
 10
67.394613387683307
 20
82.737589676161832
 30
0.0
  0
VERTEX
  5
37A1
  8
3
 10
67.590670320562083
 20
82.802682150807328
 30
0.0
  0
VERTEX
  5
37A2
  8
3
 10
67.749159017394845
 20
82.851122006640139
 30
0.0
  0
VERTEX
  5
37A3
  8
3
 10
67.867140604152269
 20
82.881607140428741
 30
0.0
  0
VERTEX
  5
37A4
  8
3
 10
67.944735882952358
 20
82.893772230922224
 30
0.0
  0
VERTEX
  5
37A5
  8
3
 10
67.952248007981069
 20
82.893960477337785
 30
0.0
  0
SEQEND
  5
37A6
  8
3
  0
POLYLINE
  5
24C6
  8
3
 66
     1
 10
0.0
 20
0.0
 30
0.0
  0
VERTEX
  5
37A7
  8
3
 10
66.888498664821682
 20
86.469066272405726
 30
0.0
  0
VERTEX
  5
37A8
  8
3
 10
67.160295850828206
 20
86.562854661188311
 30
0.0
  0
VERTEX
  5
37A9
  8
3
 10
67.394825603579733
 20
86.641987420028187
 30
0.0
  0
VERTEX
  5
37AA
  8
3
 10
67.590891985502594
 20
86.70566667188055
 30
0.0
  0
VERTEX
  5
37AB
  8
3
 10
67.749325564676283
 20
86.753769054062673
 30
0.0
  0
VERTEX
  5
37AC
  8
3
 10
67.86724735977387
 20
86.785058412192228
 30
0.0
  0
VERTEX
  5
37AD
  8
3
 10
67.944776745439825
 20
86.799219573891122
 30
0.0
  0
VERTEX
  5
37AE
  8
3
 10
67.959596425296297
 20
86.799999999724236
 30
0.0
  0
SEQEND
  5
37AF
  8
3
  0
LINE
  5
24C7
  8
0
 10
67.982315941559023
 20
82.880438376160626
 30
0.0
 11
67.982315941559023
 21
86.790421735436539
 31
0.0
  0
LINE
  5
24C8
  8
0
 10
67.982315941556038
 20
82.880438376169053
 30
0.0
 11
67.972627113070729
 21
82.86071760494039
 31
0.0
  0
POLYLINE
  5
24C9
  8
3
 66
     1
 10
0.0
 20
0.0
 30
0.0
  0
VERTEX
  5
37B0
  8
3
 10
51.111501335178978
 20
82.558751015088475
 30
0.0
  0
VERTEX
  5
37B1
  8
3
 10
51.345059934606319
 20
82.464428975753108
 30
0.0
  0
VERTEX
  5
37B2
  8
3
 10
51.599999999999987
 20
82.347198565580612
 30
0.0
  0
SEQEND
  5
37B3
  8
3
  0
LINE
  5
24CA
  8
0
 10
50.027372886929292
 20
82.86071760494039
 30
0.0
 11
50.017684058442221
 21
82.880438473679575
 31
0.0
  0
LINE
  5
24CB
  8
0
 10
50.017684058440992
 20
86.79042179257425
 30
0.0
 11
50.017684058440999
 21
82.880438473682048
 31
0.0
  0
POLYLINE
  5
24CC
  8
0
 66
     1
 10
0.0
 20
0.0
 30
0.0
  0
VERTEX
  5
37B4
  8
0
 10
50.017684058441027
 20
86.790421792574335
 30
0.0
  0
VERTEX
  5
37B5
  8
0
 10
50.019492683455077
 20
86.795065796903117
 30
0.0
  0
VERTEX
  5
37B6
  8
0
 10
50.040402193384978
 20
86.799999999814176
 30
0.0
  0
SEQEND
  5
37B7
  8
0
  0
POLYLINE
  5
24CD
  8
3
 66
     1
 10
0.0
 20
0.0
 30
0.0
  0
VERTEX
  5
37B8
  8
3
 10
50.017684058442221
 20
82.880438473679575
 30
0.0
  0
VERTEX
  5
37B9
  8
3
 10
50.019487945437319
 20
82.886253579277906
 30
0.0
  0
VERTEX
  5
37BA
  8
3
 10
50.047749204982743
 20
82.893960477435172
 30
0.0
  0
SEQEND
  5
37BB
  8
3
  0
POLYLINE
  5
24CE
  8
3
 66
     1
 10
0.0
 20
0.0
 30
0.0
  0
VERTEX
  5
37BC
  8
3
 10
66.400000000000063
 20
86.326836974629686
 30
0.0
  0
VERTEX
  5
37BD
  8
3
 10
66.654569796188184
 20
86.411685006926845
 30
0.0
  0
VERTEX
  5
37BE
  8
3
 10
66.888498664821668
 20
86.469066272405726
 30
0.0
  0
SEQEND
  5
37BF
  8
3
  0
POLYLINE
  5
24D2
  8
3
 66
     1
 10
0.0
 20
0.0
 30
0.0
  0
VERTEX
  5
37C0
  8
3
 10
51.111501335178318
 20
86.469066272405726
 30
0.0
  0
VERTEX
  5
37C1
  8
3
 10
51.344923761795748
 20
86.411832706008809
 30
0.0
  0
VERTEX
  5
37C2
  8
3
 10
51.599999999999987
 20
86.326836974629643
 30
0.0
  0
SEQEND
  5
37C3
  8
3
  0
POLYLINE
  5
24D3
  8
3
 66
     1
 10
0.0
 20
0.0
 30
0.0
  0
VERTEX
  5
37C4
  8
3
 10
65.5
 20
80.635366999001604
 30
0.0
  0
VERTEX
  5
37C5
  8
3
 10
65.537570751732773
 20
80.899604880002627
 30
0.0
  0
VERTEX
  5
37C6
  8
3
 10
65.618094349665171
 20
81.182295739640637
 30
0.0
  0
VERTEX
  5
37C7
  8
3
 10
65.741609545042877
 20
81.483914482701636
 30
0.0
  0
VERTEX
  5
37C8
  8
3
 10
65.907438830446154
 20
81.803030104293896
 30
0.0
  0
SEQEND
  5
37C9
  8
3
  0
POLYLINE
  5
24D4
  8
3
 66
     1
 10
0.0
 20
0.0
 30
0.0
  0
VERTEX
  5
37CA
  8
3
 10
66.400000000000048
 20
82.347198565580626
 30
0.0
  0
VERTEX
  5
37CB
  8
3
 10
66.25832869983698
 20
82.235367607786714
 30
0.0
  0
VERTEX
  5
37CC
  8
3
 10
66.129093551077716
 20
82.107578981390645
 30
0.0
  0
VERTEX
  5
37CD
  8
3
 10
66.012051833662724
 20
81.963405639945535
 30
0.0
  0
VERTEX
  5
37CE
  8
3
 10
65.907438830446154
 20
81.803030104293896
 30
0.0
  0
SEQEND
  5
37CF
  8
3
  0
POLYLINE
  5
24D6
  8
3
 66
     1
 10
0.0
 20
0.0
 30
0.0
  0
VERTEX
  5
37D0
  8
3
 10
66.400000000000048
 20
86.326836974629686
 30
0.0
  0
VERTEX
  5
37D1
  8
3
 10
66.208601144316674
 20
86.199772437696367
 30
0.0
  0
VERTEX
  5
37D2
  8
3
 10
66.040485585982339
 20
86.036964811562044
 30
0.0
  0
VERTEX
  5
37D3
  8
3
 10
65.895041857806675
 20
85.836881177867326
 30
0.0
  0
VERTEX
  5
37D4
  8
3
 10
65.773056581911987
 20
85.599999999999923
 30
0.0
  0
SEQEND
  5
37D5
  8
3
  0
POLYLINE
  5
24D7
  8
3
 66
     1
 10
0.0
 20
0.0
 30
0.0
  0
VERTEX
  5
37D6
  8
3
 10
52.092561169553854
 20
81.803030104293896
 30
0.0
  0
VERTEX
  5
37D7
  8
3
 10
52.257284252939563
 20
81.486284839895106
 30
0.0
  0
VERTEX
  5
37D8
  8
3
 10
52.380646640797501
 20
81.185893719163275
 30
0.0
  0
VERTEX
  5
37D9
  8
3
 10
52.461969934805509
 20
80.901725047371855
 30
0.0
  0
VERTEX
  5
37DA
  8
3
 10
52.500000000000007
 20
80.635366999001533
 30
0.0
  0
SEQEND
  5
37DB
  8
3
  0
POLYLINE
  5
24D8
  8
3
 66
     1
 10
0.0
 20
0.0
 30
0.0
  0
VERTEX
  5
37DC
  8
3
 10
52.226943418087998
 20
85.599999999999923
 30
0.0
  0
VERTEX
  5
37DD
  8
3
 10
52.106636202552387
 20
85.834132966330287
 30
0.0
  0
VERTEX
  5
37DE
  8
3
 10
51.962676955887162
 20
86.033296038985526
 30
0.0
  0
VERTEX
  5
37DF
  8
3
 10
51.793674059065673
 20
86.197934954793624
 30
0.0
  0
VERTEX
  5
37E0
  8
3
 10
51.59999999999998
 20
86.326836974629643
 30
0.0
  0
SEQEND
  5
37E1
  8
3
  0
POLYLINE
  5
24DA
  8
3
 66
     1
 10
0.0
 20
0.0
 30
0.0
  0
VERTEX
  5
37E2
  8
3
 10
52.092561169553861
 20
81.803030104293867
 30
0.0
  0
VERTEX
  5
37E3
  8
3
 10
51.988528672078637
 20
81.962607540598896
 30
0.0
  0
VERTEX
  5
37E4
  8
3
 10
51.871940381058181
 20
82.10643650491761
 30
0.0
  0
VERTEX
  5
37E5
  8
3
 10
51.742383252159911
 20
82.234737624406307
 30
0.0
  0
VERTEX
  5
37E6
  8
3
 10
51.59999999999998
 20
82.347198565580612
 30
0.0
  0
SEQEND
  5
37E7
  8
3
  0
POLYLINE
  5
24DB
  8
3
 66
     1
 10
0.0
 20
0.0
 30
0.0
  0
VERTEX
  5
37E8
  8
3
 10
65.5
 20
84.735670614387374
 30
0.0
  0
VERTEX
  5
37E9
  8
3
 10
65.526889214756523
 20
84.913751955999118
 30
0.0
  0
VERTEX
  5
37EA
  8
3
 10
65.581544096122656
 20
85.117121187456576
 30
0.0
  0
VERTEX
  5
37EB
  8
3
 10
65.6638232588991
 20
85.346211214223473
 30
0.0
  0
VERTEX
  5
37EC
  8
3
 10
65.773056581912002
 20
85.599999999999923
 30
0.0
  0
SEQEND
  5
37ED
  8
3
  0
POLYLINE
  5
24E0
  8
3
 66
     1
 10
0.0
 20
0.0
 30
0.0
  0
VERTEX
  5
37EE
  8
3
 10
52.226943418087998
 20
85.599999999999923
 30
0.0
  0
VERTEX
  5
37EF
  8
3
 10
52.33543549776514
 20
85.348077584703915
 30
0.0
  0
VERTEX
  5
37F0
  8
3
 10
52.417599828200082
 20
85.119818776845946
 30
0.0
  0
VERTEX
  5
37F1
  8
3
 10
52.472789227311061
 20
84.915250884191977
 30
0.0
  0
VERTEX
  5
37F2
  8
3
 10
52.500000000000007
 20
84.735670614387374
 30
0.0
  0
SEQEND
  5
37F3
  8
3
  0
LINE
  5
24E1
  8
0
 10
61.000000000000007
 20
76.859271323431557
 30
0.0
 11
61.500000000000007
 21
76.859271323431557
 31
0.0
  0
LINE
  5
24E2
  8
0
 10
56.499999997019778
 20
76.859271323431514
 30
0.0
 11
57.000000000000007
 21
76.859271323431514
 31
0.0
  0
POLYLINE
  5
24E3
  8
0
 66
     1
 10
0.0
 20
0.0
 30
0.0
  0
VERTEX
  5
37F4
  8
0
 10
56.499999997019778
 20
76.859271323431514
 30
0.0
  0
VERTEX
  5
37F5
  8
0
 10
56.446429365862862
 20
76.852562420116271
 30
0.0
  0
VERTEX
  5
37F6
  8
0
 10
56.399361053336428
 20
76.834270435752302
 30
0.0
  0
VERTEX
  5
37F7
  8
0
 10
56.350043911599492
 20
76.79667948748525
 30
0.0
  0
VERTEX
  5
37F8
  8
0
 10
56.31102672641741
 20
76.733778106650306
 30
0.0
  0
VERTEX
  5
37F9
  8
0
 10
56.299999999999997
 20
76.671100308193132
 30
0.0
  0
SEQEND
  5
37FA
  8
0
  0
POLYLINE
  5
24E5
  8
0
 66
     1
 10
0.0
 20
0.0
 30
0.0
  0
VERTEX
  5
37FB
  8
0
 10
61.70000000000001
 20
76.671100308193132
 30
0.0
  0
VERTEX
  5
37FC
  8
0
 10
61.67941750520653
 20
76.755428014539007
 30
0.0
  0
VERTEX
  5
37FD
  8
0
 10
61.637336399363463
 20
76.808839047756038
 30
0.0
  0
VERTEX
  5
37FE
  8
0
 10
61.58827778650145
 20
76.840386681010187
 30
0.0
  0
VERTEX
  5
37FF
  8
0
 10
61.538256890279882
 20
76.855882573518187
 30
0.0
  0
VERTEX
  5
3800
  8
0
 10
61.500000000000007
 20
76.859271323431514
 30
0.0
  0
SEQEND
  5
3801
  8
0
  0
LINE
  5
24E7
  8
0
 10
56.299999999999997
 20
86.94999999999996
 30
0.0
 11
52.500000000000007
 21
86.94999999999996
 31
0.0
  0
LINE
  5
24E8
  8
0
 10
52.500000000000007
 20
86.94999999999996
 30
0.0
 11
52.500000000000007
 21
74.893539636244981
 31
0.0
  0
LINE
  5
24E9
  8
0
 10
56.299999999999997
 20
74.999999999999972
 30
0.0
 11
56.299999999999997
 21
86.94999999999996
 31
0.0
  0
LINE
  5
24EA
  8
0
 10
65.5
 20
86.94999999999996
 30
0.0
 11
61.70000000000001
 21
86.94999999999996
 31
0.0
  0
LINE
  5
24EB
  8
0
 10
65.5
 20
74.893537630864756
 30
0.0
 11
65.5
 21
86.94999999999996
 31
0.0
  0
LINE
  5
24EC
  8
0
 10
61.70000000000001
 20
86.94999999999996
 30
0.0
 11
61.70000000000001
 21
74.999999999999972
 31
0.0
  0
ARC
  5
2868
  8
3
 10
116.7
 20
136.94999999901961
 30
0.0
 40
1.620999999998602
 50
104.2859425515322
 51
255.7140574484678
  0
CIRCLE
  5
2869
  8
0
 10
116.7
 20
136.94999999901961
 30
0.0
 40
2.0000000000000142
  0
LINE
  5
2E53
  8
0
 10
124.40000000000001
 20
71.399999999999949
 30
0.0
 11
109.0
 21
71.399999999999949
 31
0.0
  0
LINE
  5
2E54
  8
3
 10
66.700000000000017
 20
71.399999999999949
 30
0.0
 11
51.299999999999997
 21
71.399999999999949
 31
0.0
  0
LINE
  5
33F4
  8
0
 10
116.3
 20
138.90959179324619
 30
0.0
 11
116.3
 21
134.99040820479311
 31
0.0
  0
LINE
  5
33F5
  8
0
 10
117.09999999999999
 20
138.90959179324619
 30
0.0
 11
117.09999999999999
 21
134.99040820479311
 31
0.0
  0
ARC
  5
33F6
  8
3
 10
116.7
 20
136.94999999901961
 30
0.0
 40
1.620999999998602
 50
284.28594255153132
 51
75.714057448468722
  0
ENDSEC
  0
EOF
