  0
SECTION
  2
HEADER
  9
$ACADVER
  1
AC1009
  9
$INSBASE
 10
0.0
 20
0.0
 30
0.0
  9
$EXTMIN
 10
0.0
 20
-2.960436562073669
 30
0.0
  9
$EXTMAX
 10
146.4000018356746864
 20
118.7500001371000025
 30
0.0
  9
$LIMMIN
 10
0.0
 20
0.0
  9
$LIMMAX
 10
375.0
 20
270.0
  9
$ORTHOMODE
 70
     0
  9
$REGENMODE
 70
     1
  9
$FILLMODE
 70
     1
  9
$QTEXTMODE
 70
     0
  9
$MIRRTEXT
 70
     0
  9
$DRAGMODE
 70
     2
  9
$LTSCALE
 40
5.0
  9
$OSMODE
 70
    37
  9
$ATTMODE
 70
     1
  9
$TEXTSIZE
 40
0.2
  9
$TRACEWID
 40
0.05
  9
$TEXTSTYLE
  7
STANDARD
  9
$CLAYER
  8
0
  9
$CELTYPE
  6
BYLAYER
  9
$CECOLOR
 62
   256
  9
$DIMSCALE
 40
1.0
  9
$DIMASZ
 40
3.0
  9
$DIMEXO
 40
2.0
  9
$DIMDLI
 40
10.0
  9
$DIMRND
 40
0.0
  9
$DIMDLE
 40
0.0
  9
$DIMEXE
 40
2.0
  9
$DIMTP
 40
0.0
  9
$DIMTM
 40
0.0
  9
$DIMTXT
 40
3.2000000000000002
  9
$DIMCEN
 40
0.0
  9
$DIMTSZ
 40
0.0
  9
$DIMTOL
 70
     0
  9
$DIMLIM
 70
     0
  9
$DIMTIH
 70
     0
  9
$DIMTOH
 70
     0
  9
$DIMSE1
 70
     0
  9
$DIMSE2
 70
     0
  9
$DIMTAD
 70
     1
  9
$DIMZIN
 70
     8
  9
$DIMBLK
  1

  9
$DIMASO
 70
     0
  9
$DIMSHO
 70
     0
  9
$DIMPOST
  1

  9
$DIMAPOST
  1

  9
$DIMALT
 70
     0
  9
$DIMALTD
 70
     2
  9
$DIMALTF
 40
25.3999999999999986
  9
$DIMLFAC
 40
1.0
  9
$DIMTOFL
 70
     1
  9
$DIMTVP
 40
1.6000000000000001
  9
$DIMTIX
 70
     0
  9
$DIMSOXD
 70
     0
  9
$DIMSAH
 70
     0
  9
$DIMBLK1
  1

  9
$DIMBLK2
  1

  9
$DIMSTYLE
  2
STANDARD
  9
$DIMCLRD
 70
   256
  9
$DIMCLRE
 70
   256
  9
$DIMCLRT
 70
   256
  9
$DIMTFAC
 40
1.0
  9
$DIMGAP
 40
0.5
  9
$LUNITS
 70
     2
  9
$LUPREC
 70
     1
  9
$SKETCHINC
 40
0.1
  9
$FILLETRAD
 40
0.0
  9
$AUNITS
 70
     0
  9
$AUPREC
 70
     1
  9
$MENU
  1
E:\r13\win\SUPPORT\ACAD
  9
$ELEVATION
 40
0.0
  9
$PELEVATION
 40
0.0
  9
$THICKNESS
 40
0.0
  9
$LIMCHECK
 70
     0
  9
$BLIPMODE
 70
     0
  9
$CHAMFERA
 40
0.0
  9
$CHAMFERB
 40
0.0
  9
$SKPOLY
 70
     0
  9
$TDCREATE
 40
2449840.6171180559322238
  9
$TDUPDATE
 40
2460566.5205671298317611
  9
$TDINDWG
 40
0.3150654167
  9
$TDUSRTIMER
 40
0.3150654167
  9
$USRTIMER
 70
     1
  9
$ANGBASE
 50
0.0
  9
$ANGDIR
 70
     0
  9
$PDMODE
 70
     0
  9
$PDSIZE
 40
0.0
  9
$PLINEWID
 40
0.0
  9
$COORDS
 70
     1
  9
$SPLFRAME
 70
     0
  9
$SPLINETYPE
 70
     6
  9
$SPLINESEGS
 70
     8
  9
$ATTDIA
 70
     1
  9
$ATTREQ
 70
     1
  9
$HANDLING
 70
     1
  9
$HANDSEED
  5
4B3B
  9
$SURFTAB1
 70
     6
  9
$SURFTAB2
 70
     6
  9
$SURFTYPE
 70
     6
  9
$SURFU
 70
     6
  9
$SURFV
 70
     6
  9
$UCSNAME
  2

  9
$UCSORG
 10
0.0
 20
0.0
 30
0.0
  9
$UCSXDIR
 10
1.0
 20
0.0
 30
0.0
  9
$UCSYDIR
 10
0.0
 20
1.0
 30
0.0
  9
$PUCSNAME
  2

  9
$PUCSORG
 10
0.0
 20
0.0
 30
0.0
  9
$PUCSXDIR
 10
1.0
 20
0.0
 30
0.0
  9
$PUCSYDIR
 10
0.0
 20
1.0
 30
0.0
  9
$USERI1
 70
     0
  9
$USERI2
 70
     1
  9
$USERI3
 70
     0
  9
$USERI4
 70
     0
  9
$USERI5
 70
     0
  9
$USERR1
 40
0.0
  9
$USERR2
 40
0.0
  9
$USERR3
 40
0.0
  9
$USERR4
 40
0.0
  9
$USERR5
 40
0.0
  9
$WORLDVIEW
 70
     1
  9
$SHADEDGE
 70
     3
  9
$SHADEDIF
 70
    70
  9
$TILEMODE
 70
     1
  9
$MAXACTVP
 70
    16
  9
$PLIMCHECK
 70
     0
  9
$PEXTMIN
 10
1.0000000000000000E+20
 20
1.0000000000000000E+20
 30
1.0000000000000000E+20
  9
$PEXTMAX
 10
-1.0000000000000000E+20
 20
-1.0000000000000000E+20
 30
-1.0000000000000000E+20
  9
$PLIMMIN
 10
0.0
 20
0.0
  9
$PLIMMAX
 10
12.0
 20
9.0
  9
$UNITMODE
 70
     0
  9
$VISRETAIN
 70
     0
  9
$PLINEGEN
 70
     0
  9
$PSLTSCALE
 70
     0
  0
ENDSEC
  0
SECTION
  2
TABLES
  0
TABLE
  2
VPORT
 70
     1
  0
VPORT
  2
*ACTIVE
 70
     0
 10
0.0
 20
0.0
 11
1.0
 21
1.0
 12
92.343994260454096
 22
57.9008458383485092
 13
0.0
 23
0.0
 14
10.0
 24
10.0
 15
10.0
 25
10.0
 16
0.0
 26
0.0
 36
1.0
 17
0.0
 27
0.0
 37
0.0
 40
122.7165652853449984
 41
2.3485221674876842
 42
50.0
 43
0.0
 44
0.0
 50
0.0
 51
0.0
 71
     0
 72
   100
 73
     1
 74
     0
 75
     0
 76
     0
 77
     0
 78
     0
  0
ENDTAB
  0
TABLE
  2
LTYPE
 70
     4
  0
LTYPE
  2
CONTINUOUS
 70
     0
  3
Solid Line
 72
    65
 73
     0
 40
0.0
  0
LTYPE
  2
CENTER
 70
     0
  3
____ _ ____ _ ____ _ ____ _ ____ _ ____ _ ____
 72
    65
 73
     4
 40
2.0
 49
1.25
 49
-0.25
 49
0.25
 49
-0.25
  0
LTYPE
  2
PHANTOM2
 70
     0
  3
___ _ _ ___ _ _ ___ _ _ ___ _ _
 72
    65
 73
     6
 40
1.25
 49
0.625
 49
-0.125
 49
0.125
 49
-0.125
 49
0.125
 49
-0.125
  0
LTYPE
  2
HIDDEN
 70
     0
  3
Hidden __ __ __ __ __ __ __ __ __ __ __ __ __ _
 72
    65
 73
     2
 40
0.375
 49
0.25
 49
-0.125
  0
ENDTAB
  0
TABLE
  2
LAYER
 70
     5
  0
LAYER
  2
0
 70
     0
 62
     7
  6
CONTINUOUS
  0
LAYER
  2
1
 70
     0
 62
     1
  6
CENTER
  0
LAYER
  2
3
 70
     0
 62
     3
  6
CONTINUOUS
  0
LAYER
  2
DEFPOINTS
 70
     0
 62
     7
  6
CONTINUOUS
  0
LAYER
  2
2
 70
     0
 62
     2
  6
HIDDEN
  0
ENDTAB
  0
TABLE
  2
STYLE
 70
     2
  0
STYLE
  2
STANDARD
 70
     0
 40
0.0
 41
1.0
 50
0.0
 71
     0
 42
0.2
  3
TXT
  4
BIGFONT
  0
STYLE
  2
STANDARD1
 70
     0
 40
0.0
 41
1.0
 50
0.0
 71
     0
 42
3.0
  3
txt
  4

  0
ENDTAB
  0
TABLE
  2
VIEW
 70
     1
  0
VIEW
  2
ALL
 70
     0
 40
270.0
 10
220.9915970000000129
 20
135.0
 41
0.0
 11
0.0
 21
0.0
 31
1.0
 12
0.0
 22
0.0
 32
0.0
 42
0.0
 43
0.0
 44
0.0
 50
0.0
 71
     0
  0
ENDTAB
  0
TABLE
  2
UCS
 70
     0
  0
ENDTAB
  0
TABLE
  2
APPID
 70
     6
  0
APPID
  2
ACAD
 70
     0
  0
APPID
  2
ACAD_EXEMPT_FROM_CAD_STANDARDS
 70
     0
  0
APPID
  2
ACAD_MLEADERVER
 70
     0
  0
APPID
  2
ACAD_NAV_VCDISPLAY
 70
     0
  0
APPID
  2
ACAD_DSTYLE_DIMJAG
 70
     0
  0
APPID
  2
ACAD_DSTYLE_DIMTALN
 70
     0
  0
ENDTAB
  0
TABLE
  2
DIMSTYLE
 70
     1
  0
DIMSTYLE
  2
STANDARD
 70
     0
  3

  4

  5

  6

  7

 40
1.0
 41
0.18
 42
0.0625
 43
0.38
 44
0.18
 45
0.0
 46
0.0
 47
0.0
 48
0.0
140
0.18
141
0.09
142
0.0
143
25.3999999999999986
144
1.0
145
0.0
146
1.0
147
0.09
 71
     0
 72
     0
 73
     1
 74
     1
 75
     0
 76
     0
 77
     0
 78
     0
170
     0
171
     2
172
     0
173
     0
174
     0
175
     0
176
     0
177
     0
178
     0
  0
ENDTAB
  0
ENDSEC
  0
SECTION
  2
BLOCKS
  0
BLOCK
  8
0
  2
$MODEL_SPACE
 70
     0
 10
0.0
 20
0.0
 30
0.0
  3
$MODEL_SPACE
  1

  0
ENDBLK
  5
E8
  8
0
  0
BLOCK
 67
     1
  8
0
  2
$PAPER_SPACE
 70
     0
 10
0.0
 20
0.0
 30
0.0
  3
$PAPER_SPACE
  1

  0
ENDBLK
  5
E6
 67
     1
  8
0
  0
ENDSEC
  0
SECTION
  2
ENTITIES
  0
TEXT
  5
AFF
  8
0
 62
     3
 10
0.0
 20
0.0
 30
0.0
 40
10.0
  1
KCLF03X30
  7
STANDARD1
  0
LINE
  5
3EAD
  8
0
 10
55.0999999999515921
 20
65.8000001258999703
 30
0.0
 11
59.2999999999515808
 21
65.8000001258999703
 31
0.0
  0
LINE
  5
3EE4
  8
1
 10
57.1983730107402621
 20
76.5000001258999731
 30
0.0
 11
57.1999999999500233
 21
27.0000002517999711
 31
0.0
  0
LINE
  5
3EE8
  8
1
 10
107.2000000000000028
 20
27.0000001258999909
 30
0.0
 11
107.2000000000000028
 21
76.5000001258999589
 31
0.0
  0
ARC
  5
3EF1
  8
0
 10
57.1999999999500233
 20
61.5486726032926512
 30
0.0
 40
4.5081909569669483
 50
70.5655804571045593
 51
109.4344195428953981
  0
LINE
  5
3F24
  8
0
 10
106.8999999998636952
 20
108.5303062802301071
 30
0.0
 11
106.8999999998636952
 21
111.469693971569896
 31
0.0
  0
LINE
  5
3F25
  8
0
 10
107.4999999998637037
 20
108.5303062802301071
 30
0.0
 11
107.4999999998637037
 21
111.469693971569896
 31
0.0
  0
LINE
  5
3F84
  8
0
 10
105.7000000000000028
 20
60.0000001258999873
 30
0.0
 11
105.7000000000000028
 21
30.3065001258999906
 31
0.0
  0
LINE
  5
3F87
  8
0
 10
108.7000000000000028
 20
30.3065001258999906
 30
0.0
 11
108.7000000000000028
 21
60.0000001258999873
 31
0.0
  0
LINE
  5
3F8B
  8
0
 10
108.3935000000000031
 20
30.0000001258999909
 30
0.0
 11
106.0065000000000026
 21
30.0000001258999909
 31
0.0
  0
LINE
  5
3F8C
  8
0
 10
108.7000000000000028
 20
30.3065001258999906
 30
0.0
 11
105.7000000000000028
 21
30.3065001258999906
 31
0.0
  0
LINE
  5
3F8D
  8
0
 10
108.3935000000000031
 20
30.0000001258999909
 30
0.0
 11
108.7000000000000028
 21
30.3065001258999906
 31
0.0
  0
LINE
  5
3F8E
  8
0
 10
105.7000000000000028
 20
30.3065001258999906
 30
0.0
 11
106.0065000000000026
 21
30.0000001258999909
 31
0.0
  0
LINE
  5
3F91
  8
3
 10
105.9704999999216994
 20
30.0360001259783083
 30
0.0
 11
105.9704999999216994
 21
60.0000001258999873
 31
0.0
  0
LINE
  5
3F92
  8
3
 10
108.4294999998290052
 20
30.0360001257289611
 30
0.0
 11
108.4294999998290052
 21
60.0000001258999873
 31
0.0
  0
LINE
  5
44D4
  8
0
 10
55.6999999999265967
 20
60.0000001258999802
 30
0.0
 11
55.6999999999265967
 21
30.30650012589998
 31
0.0
  0
LINE
  5
44D5
  8
0
 10
58.6999999999266109
 20
30.30650012589998
 30
0.0
 11
58.6999999999266109
 21
60.0000001258999802
 31
0.0
  0
LINE
  5
44D6
  8
0
 10
58.3934999999265685
 20
30.0000001258999802
 30
0.0
 11
56.006499999926632
 21
30.0000001258999802
 31
0.0
  0
LINE
  5
44D7
  8
0
 10
58.6999999999266109
 20
30.30650012589998
 30
0.0
 11
55.6999999999265967
 21
30.30650012589998
 31
0.0
  0
LINE
  5
44D8
  8
0
 10
58.3934999999265685
 20
30.0000001258999802
 30
0.0
 11
58.6999999999266109
 21
30.30650012589998
 31
0.0
  0
LINE
  5
44D9
  8
0
 10
55.6999999999265967
 20
30.30650012589998
 30
0.0
 11
56.006499999926632
 21
30.0000001258999802
 31
0.0
  0
LINE
  5
44DA
  8
3
 10
55.9704999998483004
 20
30.0360001259783296
 30
0.0
 11
55.9704999998483004
 21
60.0000001258999802
 31
0.0
  0
LINE
  5
44DB
  8
3
 10
58.429499999755528
 20
30.0360001257289611
 30
0.0
 11
58.4294999997555919
 21
60.0000001258999802
 31
0.0
  0
LINE
  5
4634
  8
0
 10
55.699999999951558
 20
63.4000001258995525
 30
0.0
 11
55.699999999951558
 21
65.8000001258999703
 31
0.0
  0
LINE
  5
4635
  8
0
 10
55.8523407900464974
 20
72.2004699071938205
 30
0.0
 11
58.5453407895724069
 21
72.2004699071938205
 31
0.0
  0
LINE
  5
4636
  8
0
 10
58.6999999999515509
 20
65.8000001258999703
 30
0.0
 11
58.6999999999515509
 21
63.4000001258995525
 31
0.0
  0
LINE
  5
4637
  8
0
 10
55.6988407897891591
 20
72.0469699069364822
 30
0.0
 11
55.8523407900464974
 21
72.2004699071938205
 31
0.0
  0
LINE
  5
463A
  8
3
 10
58.3934999999265685
 20
65.7999997384999631
 30
0.0
 11
58.3934999999265187
 21
65.8960101165914125
 31
0.0
  0
ARC
  5
463B
  8
0
 10
55.2874524574334103
 20
63.442924069092939
 30
0.0
 40
0.1906620695522777
 50
86.2266160897643772
 51
169.4720725309028921
  0
ARC
  5
463C
  8
0
 10
59.1187708381158288
 20
63.450932841889248
 30
0.0
 40
0.1832041234422628
 50
8.4205460552167803
 51
95.8807653241142646
  0
LINE
  5
463D
  8
0
 10
59.0999999999515424
 20
63.6331728113823587
 30
0.0
 11
58.6999999999515509
 21
63.6331728113823587
 31
0.0
  0
LINE
  5
463E
  8
0
 10
55.699999999951558
 20
63.6331728113823587
 30
0.0
 11
55.2999999999515808
 21
63.6331728113823587
 31
0.0
  0
LINE
  5
464F
  8
0
 10
55.6988407897891591
 20
72.0469699069364822
 30
0.0
 11
55.6988407899324827
 21
72.0000001258999447
 31
0.0
  0
LINE
  5
4651
  8
0
 10
58.6988407898172468
 20
72.046969906952171
 30
0.0
 11
58.5453407895583169
 21
72.2004699072079177
 31
0.0
  0
LINE
  5
4652
  8
0
 10
58.6988407898172468
 20
72.046969906952171
 30
0.0
 11
58.698840789674442
 21
72.0000001258999873
 31
0.0
  0
LINE
  5
4653
  8
3
 10
58.4283407897388329
 20
71.9145039288302996
 30
0.0
 11
58.4283407897358771
 21
72.2004699069505875
 31
0.0
  0
LINE
  5
4654
  8
0
 10
55.6988407897891591
 20
72.0469699069364822
 30
0.0
 11
58.6988407898329285
 21
72.0469699069364822
 31
0.0
  0
LINE
  5
4657
  8
3
 10
56.0064999997801394
 20
65.7999997384875996
 30
0.0
 11
56.0064999997791801
 21
65.8960101165790348
 31
0.0
  0
LINE
  5
4658
  8
3
 10
55.9693407896193378
 20
71.9145037210061844
 30
0.0
 11
55.969340789619288
 21
72.2004699069382241
 31
0.0
  0
LINE
  5
4876
  8
0
 10
112.5499999999999972
 20
60.6000001258999532
 30
0.0
 11
112.5499999999999972
 21
62.8000001259001621
 31
0.0
  0
LINE
  5
4877
  8
0
 10
101.8499999999999943
 20
62.8000001259001621
 30
0.0
 11
101.8499999999999943
 21
60.6000001258999532
 31
0.0
  0
LINE
  5
4878
  8
0
 10
101.8499999999986017
 20
60.6000001258999532
 30
0.0
 11
102.449999999998596
 21
60.0000001258999802
 31
0.0
  0
LINE
  5
4879
  8
0
 10
111.9500000000013955
 20
60.0000001258999802
 30
0.0
 11
112.5500000000013046
 21
60.6000001258999532
 31
0.0
  0
LINE
  5
487A
  8
0
 10
102.449999999998596
 20
63.4000001258991617
 30
0.0
 11
101.8499999999995964
 21
62.8000001259001621
 31
0.0
  0
LINE
  5
487B
  8
0
 10
112.5500000000003951
 20
62.8000001259001621
 30
0.0
 11
111.9500000000013955
 21
63.4000001258991617
 31
0.0
  0
LINE
  5
487C
  8
0
 10
112.5499999999997982
 20
62.8000001259002687
 30
0.0
 11
108.991647286717793
 21
62.8000001259002687
 31
0.0
  0
LINE
  5
487D
  8
0
 10
105.4083527132823974
 20
62.800000125900219
 30
0.0
 11
101.8499999999998948
 21
62.8000001259001621
 31
0.0
  0
LINE
  5
487E
  8
0
 10
101.8499999999999943
 20
60.6000001258999532
 30
0.0
 11
112.5499999999999972
 21
60.6000001258999532
 31
0.0
  0
LINE
  5
487F
  8
0
 10
102.449999999998596
 20
60.0000001258999802
 30
0.0
 11
111.950000000001296
 21
60.0000001258999802
 31
0.0
  0
LINE
  5
4880
  8
0
 10
104.1850373136642958
 20
63.400000125899588
 30
0.0
 11
102.4499999999989939
 21
63.400000125899389
 31
0.0
  0
LINE
  5
4881
  8
0
 10
111.9500000000009976
 20
63.400000125899389
 30
0.0
 11
110.2883956089377051
 21
63.4000001258995667
 31
0.0
  0
CIRCLE
  5
4882
  8
0
 10
107.2000000000000028
 20
69.0000001258999731
 30
0.0
 40
3.0000000000427458
  0
ARC
  5
4883
  8
0
 10
125.6315225124352963
 20
-10.0915116142613801
 30
0.0
 40
79.7000000001292506
 50
82.0897321241978943
 51
83.6112823396196774
  0
LINE
  5
4884
  8
0
 10
133.1999999999999034
 20
69.2503568038867456
 30
0.0
 11
134.4999999999998863
 21
69.1135394056904033
 31
0.0
  0
ARC
  5
4885
  8
0
 10
129.7999999999996987
 20
30.7000001258992903
 30
0.0
 40
42.3000000000007006
 50
80.7491910297115538
 51
85.3896920845549801
  0
ARC
  5
4886
  8
0
 10
129.8000000000000114
 20
30.7000001259043493
 30
0.0
 40
38.6999999999956401
 50
84.9597641405644595
 51
90.8883422500393436
  0
ARC
  5
4887
  8
0
 10
129.8000000000000114
 20
30.7000001258995709
 30
0.0
 40
42.3000000000004022
 50
85.3896920845549801
 51
90.8127333472064322
  0
ARC
  5
4888
  8
0
 10
129.7999999999998124
 20
30.7000001259063886
 30
0.0
 40
38.6999999999936009
 50
90.8883422500376952
 51
95.1132898591220766
  0
ARC
  5
4889
  8
0
 10
129.7999999999996987
 20
30.7000001258991198
 30
0.0
 40
42.3000000000008711
 50
90.8127333472064322
 51
94.6771016110746473
  0
ARC
  5
488A
  8
0
 10
142.0000000000005116
 20
68.9310311319634366
 30
0.0
 40
0.9999999999989171
 50
258.4630409612634026
 51
323.1301023541898871
  0
LINE
  5
488B
  8
0
 10
142.7050847883350002
 20
70.9833563242839887
 30
0.0
 11
142.8000000000000114
 21
70.9475462709555131
 31
0.0
  0
ARC
  5
488C
  8
0
 10
125.6275810048536954
 20
-10.1143128146911199
 30
0.0
 40
79.7231266849835976
 50
78.2959033303234122
 51
82.0891815719912046
  0
ARC
  5
488D
  8
0
 10
129.7990725084563053
 20
30.6961389344281201
 30
0.0
 40
42.3039600745117497
 50
72.2371366137183344
 51
80.7487918698480343
  0
ARC
  5
488E
  8
0
 10
113.6143229177362031
 20
121.0798951965693959
 30
0.0
 40
49.6999999999904389
 50
277.6145784739355236
 51
283.4803703897890159
  0
LINE
  5
488F
  8
0
 10
122.0
 20
68.0000001258999305
 30
0.0
 11
120.1999999999996049
 21
67.6750162250785934
 31
0.0
  0
ARC
  5
4890
  8
0
 10
129.8997509750957136
 20
49.8399631610325784
 30
0.0
 40
19.8038634623115115
 50
102.5397435605685956
 51
113.5093981044690992
  0
LINE
  5
4891
  8
0
 10
125.5999999999999943
 20
69.1714180878103662
 30
0.0
 11
126.350849806793704
 21
69.2459903576310012
 31
0.0
  0
LINE
  5
4892
  8
0
 10
125.2000000000002018
 20
72.7491380480976204
 30
0.0
 11
126.350849806793704
 21
72.8591434158756783
 31
0.0
  0
ARC
  5
4893
  8
0
 10
112.1644747954847929
 20
117.3290224550625993
 30
0.0
 40
50.2999999999968779
 50
275.0589938723127261
 51
279.192501256591413
  0
ARC
  5
4894
  8
0
 10
118.5
 20
57.000000125900101
 30
0.0
 40
10.3999999999998796
 50
100.5266185500537972
 51
122.5789703928044929
  0
ARC
  5
4895
  8
0
 10
117.6960669944173929
 20
91.2394764228442909
 30
0.0
 40
20.0000000000006004
 50
245.8075178616429923
 51
257.3025169558637799
  0
ARC
  5
4896
  8
0
 10
116.2999999999999972
 20
91.3000001258994871
 30
0.0
 40
19.7999999999995104
 50
261.285257981381676
 51
275.7973395408441206
  0
ARC
  5
4897
  8
0
 10
116.6130702488102031
 20
60.5507777848638327
 30
0.0
 40
6.4000000000000021
 50
125.4623053106659967
 51
143.026829130637708
  0
ARC
  5
4898
  8
0
 10
107.2000000000000028
 20
68.0000001258999873
 30
0.0
 40
5.5000000000000089
 50
65.2801488170775741
 51
293.5781784782021759
  0
ARC
  5
4899
  8
0
 10
107.3647897445246997
 20
68.1762464291768993
 30
0.0
 40
5.6000000000000068
 50
291.3110188876880216
 51
317.5978810614338954
  0
ARC
  5
489A
  8
0
 10
113.6143229177340999
 20
121.0798951965805941
 30
0.0
 40
49.7000000000019213
 50
275.4098357876877117
 51
277.614578473937172
  0
LINE
  5
489B
  8
0
 10
142.9397934234883962
 20
68.5892880688778064
 30
0.0
 11
143.3397934234884019
 21
69.6892880688777723
 31
0.0
  0
ARC
  5
489C
  8
0
 10
142.4000000000735042
 20
70.0310311320125152
 30
0.0
 40
0.9999999999265298
 50
359.9999999972382057
 51
66.4218215245535788
  0
ARC
  5
489D
  8
0
 10
142.4000000003742912
 20
70.0310311318984304
 30
0.0
 40
0.9999999996257145
 50
340.0168934743247746
 51
0.0000000037747332
  0
ARC
  5
489E
  8
0
 10
142.0000000000104876
 20
68.9310311319589459
 30
0.0
 40
0.9999999999882255
 50
323.1301023540514734
 51
340.0168934781968915
  0
LINE
  5
489F
  8
0
 10
62.5499999999499892
 20
60.6000001258999532
 30
0.0
 11
62.5499999999499892
 21
62.5000001258999802
 31
0.0
  0
LINE
  5
48A0
  8
0
 10
51.8499999999499721
 20
62.5000001258999802
 30
0.0
 11
51.8499999999499721
 21
60.6000001258999532
 31
0.0
  0
LINE
  5
48A1
  8
0
 10
51.8499999999486079
 20
60.6000001258999532
 30
0.0
 11
52.4499999999486306
 21
60.0000001258999802
 31
0.0
  0
LINE
  5
48A2
  8
0
 10
61.9499999999513591
 20
60.0000001258999802
 30
0.0
 11
62.5499999999513534
 21
60.6000001258999532
 31
0.0
  0
LINE
  5
48A6
  8
0
 10
55.6988407899324827
 20
72.0000001277271906
 30
0.0
 11
55.0999999999500005
 21
72.0000001258999873
 31
0.0
  0
LINE
  5
48A7
  8
0
 10
59.2999999999500105
 20
72.0000001258999873
 30
0.0
 11
58.6983722772461931
 21
72.0000001258999873
 31
0.0
  0
LINE
  5
48A8
  8
0
 10
51.4499999999500019
 20
62.5000001258999802
 30
0.0
 11
51.8499999999500005
 21
62.5000001258999802
 31
0.0
  0
LINE
  5
48A9
  8
0
 10
55.0999999999499721
 20
73.5000001258999731
 30
0.0
 11
51.4499999999500019
 21
73.5000001258999731
 31
0.0
  0
LINE
  5
48AA
  8
0
 10
62.5499999999499892
 20
62.5000001258999802
 30
0.0
 11
62.9499999999499877
 21
62.5000001258999802
 31
0.0
  0
LINE
  5
48AB
  8
0
 10
62.9499999999499877
 20
73.5000001258999731
 30
0.0
 11
59.2999999999500105
 21
73.5000001258999731
 31
0.0
  0
LINE
  5
48AC
  8
0
 10
64.1788682138217439
 20
73.0000001258999873
 30
0.0
 11
62.9499999999500801
 21
73.0000001258999873
 31
0.0
  0
LINE
  5
48AD
  8
0
 10
59.2999999999500815
 20
73.0000001258999873
 30
0.0
 11
55.0999999999500929
 21
73.0000001258999873
 31
0.0
  0
LINE
  5
48AE
  8
0
 10
51.4499999999500801
 20
73.0000001258999873
 30
0.0
 11
50.2212420333258009
 21
73.0000001258999873
 31
0.0
  0
POLYLINE
  5
48AF
  8
0
 66
     1
 10
0.0
 20
0.0
 30
0.0
 70
   128
  0
VERTEX
  5
4B02
  8
0
 10
52.1768038062899393
 20
62.8000001258998708
 30
0.0
  0
VERTEX
  5
4B03
  8
0
 10
51.9886388078307888
 20
62.6276297682164724
 30
0.0
  0
VERTEX
  5
4B04
  8
0
 10
51.8761307060559318
 20
62.5240946333847134
 30
0.0
  0
VERTEX
  5
4B05
  8
0
 10
51.8575282308630676
 20
62.5069422517436735
 30
0.0
  0
SEQEND
  5
4B06
  8
0
  0
LINE
  5
48B0
  8
0
 10
62.2231961936097733
 20
62.800000125900219
 30
0.0
 11
52.1768038062894277
 21
62.8000001258998211
 31
0.0
  0
POLYLINE
  5
48B1
  8
0
 66
     1
 10
0.0
 20
0.0
 30
0.0
 70
   128
  0
VERTEX
  5
4B07
  8
0
 10
62.5424717690369505
 20
62.5069422517436735
 30
0.0
  0
VERTEX
  5
4B08
  8
0
 10
62.5478284357392624
 20
62.5020031460252312
 30
0.0
  0
VERTEX
  5
4B09
  8
0
 10
62.4821404636817306
 20
62.5625348424675209
 30
0.0
  0
VERTEX
  5
4B0A
  8
0
 10
62.3762792469743204
 20
62.6598434930417625
 30
0.0
  0
VERTEX
  5
4B0B
  8
0
 10
62.2231961936093114
 20
62.80000012590056
 30
0.0
  0
SEQEND
  5
4B0C
  8
0
  0
LINE
  5
48B2
  8
0
 10
51.8499999999499721
 20
60.6000001258999532
 30
0.0
 11
62.5499999999499892
 21
60.6000001258999532
 31
0.0
  0
LINE
  5
48B3
  8
0
 10
52.4499999999486306
 20
60.0000001258999802
 30
0.0
 11
61.9499999999513591
 21
60.0000001258999802
 31
0.0
  0
ARC
  5
48B4
  8
0
 10
53.564836534655818
 20
44.2172149273273902
 30
0.0
 40
20.50090480247394
 50
65.0175669411489139
 51
68.9943813691666605
  0
ARC
  5
48B5
  8
0
 10
60.9095155181358123
 20
44.0420016753596428
 30
0.0
 40
20.6911275602054303
 50
111.0239061859532939
 51
114.9641455037255042
  0
POLYLINE
  5
48B6
  8
0
 66
     1
 10
0.0
 20
0.0
 30
0.0
 70
   128
  0
VERTEX
  5
4B0D
  8
0
 10
53.4864194194295806
 20
63.3557378240716318
 30
0.0
  0
VERTEX
  5
4B0E
  8
0
 10
53.6461936363230407
 20
63.3980211091688801
 30
0.0
  0
VERTEX
  5
4B0F
  8
0
 10
53.6797017171377604
 20
63.4000001259071198
 30
0.0
  0
SEQEND
  5
4B10
  8
0
  0
LINE
  5
48B7
  8
0
 10
60.7202982827675086
 20
63.4000001258995596
 30
0.0
 11
53.6797017171324669
 21
63.4000001258995596
 31
0.0
  0
POLYLINE
  5
48B8
  8
0
 66
     1
 10
0.0
 20
0.0
 30
0.0
 70
   128
  0
VERTEX
  5
4B11
  8
0
 10
60.7202982827667768
 20
63.4000001258999575
 30
0.0
  0
VERTEX
  5
4B12
  8
0
 10
60.832233468896618
 20
63.3824889524233797
 30
0.0
  0
VERTEX
  5
4B13
  8
0
 10
60.9135805804704376
 20
63.3557378240716318
 30
0.0
  0
SEQEND
  5
4B14
  8
0
  0
LINE
  5
48BA
  8
0
 10
55.0999999999499721
 20
63.4000001258991617
 30
0.0
 11
55.0999999999499721
 21
73.5000001258999731
 31
0.0
  0
LINE
  5
48BB
  8
0
 10
51.4499999999500019
 20
73.5000001258999731
 30
0.0
 11
51.4499999999500019
 21
62.5000001258999802
 31
0.0
  0
LINE
  5
48BC
  8
0
 10
62.9499999999499877
 20
62.5000001258999802
 30
0.0
 11
62.9499999999499877
 21
73.5000001258999731
 31
0.0
  0
LINE
  5
48BD
  8
0
 10
59.2999999999500105
 20
73.5000001258999731
 30
0.0
 11
59.2999999999500105
 21
63.4000001258991617
 31
0.0
  0
POLYLINE
  5
48BE
  8
0
 66
     1
 10
0.0
 20
0.0
 30
0.0
 70
   128
  0
VERTEX
  5
4B15
  8
0
 10
59.0999999999499721
 20
72.4295462420218428
 30
0.0
  0
VERTEX
  5
4B16
  8
0
 10
59.1632460010702275
 20
72.4332576284919014
 30
0.0
  0
VERTEX
  5
4B17
  8
0
 10
59.2193247724837022
 20
72.4438630701911848
 30
0.0
  0
VERTEX
  5
4B18
  8
0
 10
59.2636701236073691
 20
72.4604949704526007
 30
0.0
  0
VERTEX
  5
4B19
  8
0
 10
59.2921448178715877
 20
72.4823832399790149
 30
0.0
  0
VERTEX
  5
4B1A
  8
0
 10
59.2999999999500105
 20
72.5030133999135842
 30
0.0
  0
SEQEND
  5
4B1B
  8
0
  0
POLYLINE
  5
48C0
  8
0
 66
     1
 10
0.0
 20
0.0
 30
0.0
 70
   128
  0
VERTEX
  5
4B1C
  8
0
 10
55.0999999999499721
 20
72.5030133999135842
 30
0.0
  0
VERTEX
  5
4B1D
  8
0
 10
55.1124955323601
 20
72.4771778584143362
 30
0.0
  0
VERTEX
  5
4B1E
  8
0
 10
55.1491945310426388
 20
72.4544846466647527
 30
0.0
  0
VERTEX
  5
4B1F
  8
0
 10
55.2044558817441668
 20
72.4383427778291775
 30
0.0
  0
VERTEX
  5
4B20
  8
0
 10
55.2685337068323577
 20
72.4304463704013415
 30
0.0
  0
VERTEX
  5
4B21
  8
0
 10
55.2999999999499607
 20
72.4295462420218428
 30
0.0
  0
SEQEND
  5
4B22
  8
0
  0
LINE
  5
48C2
  8
0
 10
59.0999999999499721
 20
72.4295462420218428
 30
0.0
 11
55.2999999999499821
 21
72.4295462420218428
 31
0.0
  0
ARC
  5
48C4
  8
0
 10
49.448332550414051
 20
71.8273418751917916
 30
0.0
 40
2.0184888815780249
 50
7.4021520157147016
 51
27.17284672339661
  0
ARC
  5
48C5
  8
0
 10
64.958812398999072
 20
71.8251198975581246
 30
0.0
 40
2.0258603966896618
 50
152.8635294200404928
 51
172.5616846229397936
  0
LINE
  5
48C6
  8
0
 10
51.0999999999500005
 20
72.8591434158756783
 30
0.0
 11
51.2440466648182209
 21
72.7491380480976204
 31
0.0
  0
ARC
  5
48C7
  8
0
 10
48.6970947011422197
 20
68.0207712802372271
 30
0.0
 40
2.753030868213119
 50
0.5472372592953377
 51
24.7056321063652113
  0
LINE
  5
48C8
  8
0
 10
51.1981326627806368
 20
69.1714180878103662
 30
0.0
 11
51.0999999999500005
 21
69.2459903576310012
 31
0.0
  0
LINE
  5
48C9
  8
0
 10
63.1559533350817404
 20
72.7491380480976204
 30
0.0
 11
63.2999999999499892
 21
72.8591434158756783
 31
0.0
  0
LINE
  5
48CA
  8
0
 10
63.2018673371192889
 20
69.1714180878103662
 30
0.0
 11
63.2999999999499607
 21
69.2459903576310012
 31
0.0
  0
ARC
  5
48CB
  8
0
 10
65.6970290124343705
 20
68.0220938961810475
 30
0.0
 40
2.7471399460940189
 50
155.2682038413690861
 51
179.4850912498104947
  0
POLYLINE
  5
48CC
  8
0
 66
     1
 10
0.0
 20
0.0
 30
0.0
 70
   128
  0
VERTEX
  5
4B23
  8
0
 10
64.0999999999500858
 20
72.9957445926900164
 30
0.0
  0
VERTEX
  5
4B24
  8
0
 10
64.2302866830368941
 20
72.9981912831237736
 30
0.0
  0
VERTEX
  5
4B25
  8
0
 10
64.3239183352000055
 20
72.9772147001114035
 30
0.0
  0
VERTEX
  5
4B26
  8
0
 10
64.3807050596546731
 20
72.9322521787640738
 30
0.0
  0
VERTEX
  5
4B27
  8
0
 10
64.3999999999499266
 20
72.8631356829241668
 30
0.0
  0
SEQEND
  5
4B28
  8
0
  0
ARC
  5
48CD
  8
0
 10
64.7927050082313087
 20
66.5280554557236314
 30
0.0
 40
6.5046785470867716
 50
96.1132116592250725
 51
103.2665620613861961
  0
ARC
  5
48CE
  8
0
 10
49.6099069023119128
 20
66.5433520187795011
 30
0.0
 40
6.489190890339378
 50
76.7248903948048593
 51
83.8953358845826074
  0
POLYLINE
  5
48CF
  8
0
 66
     1
 10
0.0
 20
0.0
 30
0.0
 70
   128
  0
VERTEX
  5
4B29
  8
0
 10
49.9999999999500133
 20
72.8631356829242236
 30
0.0
  0
VERTEX
  5
4B2A
  8
0
 10
50.0189284101039107
 20
72.9316993862976233
 30
0.0
  0
VERTEX
  5
4B2B
  8
0
 10
50.0749153883157021
 20
72.9767008232674925
 30
0.0
  0
VERTEX
  5
4B2C
  8
0
 10
50.1686233569130593
 20
72.9981005487891252
 30
0.0
  0
VERTEX
  5
4B2D
  8
0
 10
50.2999999999500673
 20
72.9957445926900164
 30
0.0
  0
SEQEND
  5
4B2E
  8
0
  0
ARC
  5
48D0
  8
0
 10
64.7974879058556894
 20
63.4422538435890004
 30
0.0
 40
5.9938157756773043
 50
96.6825311663880029
 51
104.4679750386488024
  0
POLYLINE
  5
48D1
  8
0
 66
     1
 10
0.0
 20
0.0
 30
0.0
 70
   128
  0
VERTEX
  5
4B2F
  8
0
 10
64.099999999950029
 20
69.3953486835754916
 30
0.0
  0
VERTEX
  5
4B30
  8
0
 10
64.230275767348374
 20
69.3980239897850311
 30
0.0
  0
VERTEX
  5
4B31
  8
0
 10
64.3239084864661379
 20
69.3750985173772392
 30
0.0
  0
VERTEX
  5
4B32
  8
0
 10
64.3807054989655114
 20
69.3259377569040112
 30
0.0
  0
VERTEX
  5
4B33
  8
0
 10
64.3999999999499835
 20
69.2503568038867456
 30
0.0
  0
SEQEND
  5
4B34
  8
0
  0
LINE
  5
48D2
  8
0
 10
64.3999999999499266
 20
69.2503568038867456
 30
0.0
 11
64.3206892733178108
 21
69.1135394056904033
 31
0.0
  0
LINE
  5
48D3
  8
0
 10
50.0793107265821789
 20
69.1135394056904033
 30
0.0
 11
49.9999999999500275
 21
69.2503568038867456
 31
0.0
  0
POLYLINE
  5
48D4
  8
0
 66
     1
 10
0.0
 20
0.0
 30
0.0
 70
   128
  0
VERTEX
  5
4B35
  8
0
 10
49.9999999999500133
 20
69.2503568038867456
 30
0.0
  0
VERTEX
  5
4B36
  8
0
 10
50.0189075401904972
 20
69.3252994073457671
 30
0.0
  0
VERTEX
  5
4B37
  8
0
 10
50.0748598246673566
 20
69.3745050511520276
 30
0.0
  0
VERTEX
  5
4B38
  8
0
 10
50.1685729986677131
 20
69.3979191861897533
 30
0.0
  0
VERTEX
  5
4B39
  8
0
 10
50.2999999999500531
 20
69.3953486835754916
 30
0.0
  0
SEQEND
  5
4B3A
  8
0
  0
ARC
  5
48D5
  8
0
 10
49.6052042086010587
 20
63.4566734725707278
 30
0.0
 40
5.9791809182761977
 50
75.5224822542414529
 51
83.3270115407217276
  0
LINE
  5
48D6
  8
0
 10
49.9999999999500133
 20
72.8631356829242236
 30
0.0
 11
49.9999999999500133
 21
69.2503568038867456
 31
0.0
  0
LINE
  5
48D7
  8
0
 10
64.3999999999499266
 20
72.8631356829241668
 30
0.0
 11
64.3999999999499835
 21
69.2503568038867456
 31
0.0
  0
ARC
  5
48D8
  8
0
 10
61.7444178090661069
 20
73.0298460834995353
 30
0.0
 40
4.7977920729957884
 50
284.9481979072713216
 51
299.4044968698786988
  0
ARC
  5
48D9
  8
0
 10
52.7329485871790311
 20
73.2221957155738323
 30
0.0
 40
5.0034201211321969
 50
240.9051325658550979
 51
254.7609697125533899
  0
ARC
  5
48DA
  8
0
 10
62.4012733936752397
 20
70.4974970026617456
 30
0.0
 40
2.366325410681938
 50
315.8793402037886722
 51
324.2072424974070941
  0
ARC
  5
48DB
  8
0
 10
51.8529222238181831
 20
70.3753402134753969
 30
0.0
 40
2.176657764016813
 50
215.4291963222445077
 51
224.484220976553388
  0
LINE
  5
48DC
  8
0
 10
59.0999999999499721
 20
72.4295462420218428
 30
0.0
 11
59.0999999999499721
 21
72.0000001258999873
 31
0.0
  0
LINE
  5
48DF
  8
0
 10
55.2999999999499821
 20
72.0000001258999873
 30
0.0
 11
55.2999999999499821
 21
72.4295462420218428
 31
0.0
  0
LINE
  5
48E0
  8
0
 10
104.1999999998637065
 20
112.1000001258998964
 30
0.0
 11
104.1999999998637065
 21
107.9000001258998935
 31
0.0
  0
LINE
  5
48E1
  8
0
 10
110.1999999998637065
 20
107.9000001258998935
 30
0.0
 11
110.1999999998637065
 21
112.1000001258998964
 31
0.0
  0
LINE
  5
48E2
  8
0
 10
101.6999999998637065
 20
115.7500001259000015
 30
0.0
 11
101.6999999998637065
 21
112.1000001258998964
 31
0.0
  0
LINE
  5
48E3
  8
0
 10
101.6999999998637065
 20
107.9000001258998935
 30
0.0
 11
101.6999999998637065
 21
104.2500001259000015
 31
0.0
  0
ARC
  5
48E4
  8
0
 10
107.1999999998637065
 20
110.0000001259000015
 30
0.0
 40
5.3499999999999952
 50
156.8883980983655988
 51
203.1116019016378971
  0
ARC
  5
48E5
  8
0
 10
107.1999999998637065
 20
110.0000001259000015
 30
0.0
 40
4.7500000000013358
 50
153.7617174556789905
 51
206.2382825443210095
  0
ARC
  5
48E6
  8
0
 10
131.4754249032594089
 20
78.2381490310577306
 30
0.0
 40
39.000000000006203
 50
82.4495364584987129
 51
87.4655614031574373
  0
ARC
  5
48E7
  8
0
 10
134.4990904463037964
 20
107.1224555402958032
 30
0.0
 40
10.0007099285859091
 50
34.8609951446940229
 51
77.8731914958358402
  0
ARC
  5
48E8
  8
0
 10
134.4991388541808135
 20
112.8774719424984028
 30
0.0
 40
10.0006286141331202
 50
282.1266249364009013
 51
325.1391884230692995
  0
ARC
  5
48E9
  8
0
 10
131.4754249032592952
 20
141.7618512207592119
 30
0.0
 40
39.0000000000231708
 50
272.5344385968425058
 51
277.5504635414980044
  0
ARC
  5
48EA
  8
0
 10
133.213749737283905
 20
129.799996624849598
 30
0.0
 40
26.9999999999734897
 50
261.4508711926495721
 51
269.9708221497173213
  0
ARC
  5
48EB
  8
0
 10
132.3536128091081139
 20
119.8049313214986
 30
0.0
 40
17.0000000000093507
 50
249.3227304178201109
 51
259.3093282033202058
  0
LINE
  5
48EC
  8
0
 10
125.1999999998639055
 20
104.0440467907682063
 30
0.0
 11
126.3508498066573935
 21
103.9000001258998935
 31
0.0
  0
LINE
  5
48ED
  8
0
 10
126.3508498066573935
 20
116.1000001258998964
 30
0.0
 11
125.1999999998639055
 21
115.9559534610316973
 31
0.0
  0
ARC
  5
48EE
  8
0
 10
132.3536128091049875
 20
100.1950689303098017
 30
0.0
 40
17.0000000000003091
 50
100.6906717966764973
 51
110.6772695821815944
  0
ARC
  5
48EF
  8
0
 10
133.2137497372864914
 20
90.2000036269342758
 30
0.0
 40
26.9999999999895692
 50
90.0291778502892157
 51
98.5491288073520337
  0
ARC
  5
48F0
  8
0
 10
110.6999999998637065
 20
108.1000001258998964
 30
0.0
 40
0.1999999999999886
 50
269.9999999999919282
 51
0.0
  0
LINE
  5
48F1
  8
0
 10
110.8999999998636952
 20
108.1000001258998964
 30
0.0
 11
110.8999999998636952
 21
111.9000001258998935
 31
0.0
  0
ARC
  5
48F2
  8
0
 10
110.6999999998636071
 20
111.9000001258997941
 30
0.0
 40
0.2000000000001023
 50
0.0000000000227982
 51
89.9999999999837144
  0
LINE
  5
48F3
  8
0
 10
110.6999999998637065
 20
107.9000001258998935
 30
0.0
 11
101.6999999998637065
 21
107.9000001258998935
 31
0.0
  0
LINE
  5
48F4
  8
0
 10
110.6999999998637065
 20
112.1000001258998964
 30
0.0
 11
101.6999999998637065
 21
112.1000001258998964
 31
0.0
  0
ARC
  5
48F5
  8
0
 10
121.1807224681448929
 20
67.2629999306980153
 30
0.0
 40
36.9999999999954667
 50
83.7637034781105569
 51
91.5188605429876958
  0
ARC
  5
48F6
  8
0
 10
121.1807224681450066
 20
152.7370003211001972
 30
0.0
 40
36.999999999993733
 50
268.4811394570123184
 51
276.2362965218911199
  0
LINE
  5
48F7
  8
0
 10
120.1999999998632944
 20
104.2500001259000015
 30
0.0
 11
101.6999999998637065
 21
104.2500001259000015
 31
0.0
  0
LINE
  5
48F8
  8
0
 10
101.6999999998637065
 20
115.7500001259000015
 30
0.0
 11
120.1999999998632944
 21
115.7500001259000015
 31
0.0
  0
ARC
  5
48F9
  8
0
 10
136.9000592981294915
 20
110.0277647262853975
 30
0.0
 40
6.4999999999304343
 50
335.1871229293109877
 51
359.7552616523317965
  0
ARC
  5
48FA
  8
0
 10
136.9000592980935096
 20
109.9722355255065054
 30
0.0
 40
6.4999999999664499
 50
0.2447383475899842
 51
24.8128770706198409
  0
LINE
  5
48FB
  8
0
 10
142.7050847881986897
 20
107.1612648078860985
 30
0.0
 11
142.7999999998637009
 21
107.3000001258998992
 31
0.0
  0
ARC
  5
48FC
  8
0
 10
134.4995130819046949
 20
107.1230908652857039
 30
0.0
 40
9.9999999988166124
 50
33.8962598376819528
 51
34.8593923690090222
  0
ARC
  5
48FD
  8
3
 10
107.1999999998637065
 20
110.0000001259000015
 30
0.0
 40
1.2294999999653551
 50
104.122840654544504
 51
255.8771593454553965
  0
LINE
  5
48FE
  8
1
 10
98.1999999476636845
 20
110.0000001259000015
 30
0.0
 11
146.4000018356746864
 21
110.0000001259000015
 31
0.0
  0
LINE
  5
48FF
  8
1
 10
107.1999999998637065
 20
118.7500001371000025
 30
0.0
 11
107.1999999998637065
 21
101.2500001146999011
 31
0.0
  0
CIRCLE
  5
4900
  8
0
 10
107.1999999998637065
 20
110.0000001259000015
 30
0.0
 40
1.5
  0
LINE
  5
4902
  8
1
 10
115.7000000000000028
 20
68.0000001258999589
 30
0.0
 11
98.7000000000000171
 21
68.0000001258999589
 31
0.0
  0
LINE
  5
4903
  8
1
 10
115.7000000000000028
 20
69.0000001258999731
 30
0.0
 11
98.7000000000000171
 21
69.0000001258999731
 31
0.0
  0
LINE
  5
490B
  8
1
 10
46.9983730108925997
 20
69.0000001258999731
 30
0.0
 11
67.3983730108926125
 21
69.0000001258999731
 31
0.0
  0
ARC
  5
490D
  8
3
 10
107.1999999998637065
 20
110.0000001259000015
 30
0.0
 40
1.2294999999653551
 50
284.1228406545470193
 51
75.8771593454535918
  0
ARC
  5
4916
  8
0
 10
57.1983726440744391
 20
76.2513255062864346
 30
0.0
 40
4.5081888147496061
 50
250.5655757947253903
 51
289.4344340928790871
  0
ENDSEC
  0
EOF
