  0
SECTION
  2
HEADER
  9
$ACADVER
  1
AC1009
  9
$INSBASE
 10
0.0
 20
0.0
 30
0.0
  9
$EXTMIN
 10
0.0
 20
-2.960436562073669
 30
0.0
  9
$EXTMAX
 10
251.1500000000000057
 20
192.0500000000000966
 30
0.0
  9
$LIMMIN
 10
0.0
 20
0.0
  9
$LIMMAX
 10
375.0
 20
270.0
  9
$ORTHOMODE
 70
     1
  9
$REGENMODE
 70
     1
  9
$FILLMODE
 70
     1
  9
$QTEXTMODE
 70
     0
  9
$MIRRTEXT
 70
     0
  9
$DRAGMODE
 70
     2
  9
$LTSCALE
 40
5.0
  9
$OSMODE
 70
    37
  9
$ATTMODE
 70
     1
  9
$TEXTSIZE
 40
0.2
  9
$TRACEWID
 40
0.05
  9
$TEXTSTYLE
  7
STANDARD
  9
$CLAYER
  8
0
  9
$CELTYPE
  6
BYLAYER
  9
$CECOLOR
 62
   256
  9
$DIMSCALE
 40
1.0
  9
$DIMASZ
 40
3.0
  9
$DIMEXO
 40
2.0
  9
$DIMDLI
 40
10.0
  9
$DIMRND
 40
0.0
  9
$DIMDLE
 40
0.0
  9
$DIMEXE
 40
2.0
  9
$DIMTP
 40
0.0
  9
$DIMTM
 40
0.0
  9
$DIMTXT
 40
3.2000000000000002
  9
$DIMCEN
 40
0.0
  9
$DIMTSZ
 40
0.0
  9
$DIMTOL
 70
     0
  9
$DIMLIM
 70
     0
  9
$DIMTIH
 70
     0
  9
$DIMTOH
 70
     0
  9
$DIMSE1
 70
     0
  9
$DIMSE2
 70
     0
  9
$DIMTAD
 70
     1
  9
$DIMZIN
 70
     8
  9
$DIMBLK
  1

  9
$DIMASO
 70
     0
  9
$DIMSHO
 70
     0
  9
$DIMPOST
  1

  9
$DIMAPOST
  1

  9
$DIMALT
 70
     0
  9
$DIMALTD
 70
     2
  9
$DIMALTF
 40
25.3999999999999986
  9
$DIMLFAC
 40
1.0
  9
$DIMTOFL
 70
     1
  9
$DIMTVP
 40
1.6000000000000001
  9
$DIMTIX
 70
     0
  9
$DIMSOXD
 70
     0
  9
$DIMSAH
 70
     0
  9
$DIMBLK1
  1

  9
$DIMBLK2
  1

  9
$DIMSTYLE
  2
STANDARD
  9
$DIMCLRD
 70
   256
  9
$DIMCLRE
 70
   256
  9
$DIMCLRT
 70
   256
  9
$DIMTFAC
 40
1.0
  9
$DIMGAP
 40
0.5
  9
$LUNITS
 70
     2
  9
$LUPREC
 70
     1
  9
$SKETCHINC
 40
0.1
  9
$FILLETRAD
 40
0.0
  9
$AUNITS
 70
     0
  9
$AUPREC
 70
     1
  9
$MENU
  1
E:\r13\win\SUPPORT\ACAD
  9
$ELEVATION
 40
0.0
  9
$PELEVATION
 40
0.0
  9
$THICKNESS
 40
0.0
  9
$LIMCHECK
 70
     0
  9
$BLIPMODE
 70
     0
  9
$CHAMFERA
 40
0.0
  9
$CHAMFERB
 40
0.0
  9
$SKPOLY
 70
     0
  9
$TDCREATE
 40
2449840.6171180559322238
  9
$TDUPDATE
 40
2460566.5210069450549781
  9
$TDINDWG
 40
0.201708669
  9
$TDUSRTIMER
 40
0.201708669
  9
$USRTIMER
 70
     1
  9
$ANGBASE
 50
0.0
  9
$ANGDIR
 70
     0
  9
$PDMODE
 70
     0
  9
$PDSIZE
 40
0.0
  9
$PLINEWID
 40
0.0
  9
$COORDS
 70
     1
  9
$SPLFRAME
 70
     0
  9
$SPLINETYPE
 70
     6
  9
$SPLINESEGS
 70
     8
  9
$ATTDIA
 70
     1
  9
$ATTREQ
 70
     1
  9
$HANDLING
 70
     1
  9
$HANDSEED
  5
358B
  9
$SURFTAB1
 70
     6
  9
$SURFTAB2
 70
     6
  9
$SURFTYPE
 70
     6
  9
$SURFU
 70
     6
  9
$SURFV
 70
     6
  9
$UCSNAME
  2

  9
$UCSORG
 10
0.0
 20
0.0
 30
0.0
  9
$UCSXDIR
 10
1.0
 20
0.0
 30
0.0
  9
$UCSYDIR
 10
0.0
 20
1.0
 30
0.0
  9
$PUCSNAME
  2

  9
$PUCSORG
 10
0.0
 20
0.0
 30
0.0
  9
$PUCSXDIR
 10
1.0
 20
0.0
 30
0.0
  9
$PUCSYDIR
 10
0.0
 20
1.0
 30
0.0
  9
$USERI1
 70
     0
  9
$USERI2
 70
     1
  9
$USERI3
 70
     0
  9
$USERI4
 70
     0
  9
$USERI5
 70
     0
  9
$USERR1
 40
0.0
  9
$USERR2
 40
0.0
  9
$USERR3
 40
0.0
  9
$USERR4
 40
0.0
  9
$USERR5
 40
0.0
  9
$WORLDVIEW
 70
     1
  9
$SHADEDGE
 70
     3
  9
$SHADEDIF
 70
    70
  9
$TILEMODE
 70
     1
  9
$MAXACTVP
 70
    16
  9
$PLIMCHECK
 70
     0
  9
$PEXTMIN
 10
1.0000000000000000E+20
 20
1.0000000000000000E+20
 30
1.0000000000000000E+20
  9
$PEXTMAX
 10
-1.0000000000000000E+20
 20
-1.0000000000000000E+20
 30
-1.0000000000000000E+20
  9
$PLIMMIN
 10
0.0
 20
0.0
  9
$PLIMMAX
 10
12.0
 20
9.0
  9
$UNITMODE
 70
     0
  9
$VISRETAIN
 70
     0
  9
$PLINEGEN
 70
     0
  9
$PSLTSCALE
 70
     0
  0
ENDSEC
  0
SECTION
  2
TABLES
  0
TABLE
  2
VPORT
 70
     1
  0
VPORT
  2
*ACTIVE
 70
     0
 10
0.0
 20
0.0
 11
1.0
 21
1.0
 12
165.461027472165199
 22
94.5384499562718332
 13
0.0
 23
0.0
 14
10.0
 24
10.0
 15
10.0
 25
10.0
 16
0.0
 26
0.0
 36
1.0
 17
0.0
 27
0.0
 37
0.0
 40
196.5576915456485096
 41
2.3485221674876842
 42
50.0
 43
0.0
 44
0.0
 50
0.0
 51
0.0
 71
     0
 72
   100
 73
     1
 74
     0
 75
     0
 76
     0
 77
     0
 78
     0
  0
ENDTAB
  0
TABLE
  2
LTYPE
 70
     4
  0
LTYPE
  2
CONTINUOUS
 70
     0
  3
Solid Line
 72
    65
 73
     0
 40
0.0
  0
LTYPE
  2
CENTER
 70
     0
  3
____ _ ____ _ ____ _ ____ _ ____ _ ____ _ ____
 72
    65
 73
     4
 40
2.0
 49
1.25
 49
-0.25
 49
0.25
 49
-0.25
  0
LTYPE
  2
PHANTOM2
 70
     0
  3
___ _ _ ___ _ _ ___ _ _ ___ _ _
 72
    65
 73
     6
 40
1.25
 49
0.625
 49
-0.125
 49
0.125
 49
-0.125
 49
0.125
 49
-0.125
  0
LTYPE
  2
HIDDEN
 70
     0
  3
Hidden __ __ __ __ __ __ __ __ __ __ __ __ __ _
 72
    65
 73
     2
 40
0.375
 49
0.25
 49
-0.125
  0
ENDTAB
  0
TABLE
  2
LAYER
 70
     5
  0
LAYER
  2
0
 70
     0
 62
     7
  6
CONTINUOUS
  0
LAYER
  2
1
 70
     0
 62
     1
  6
CENTER
  0
LAYER
  2
3
 70
     0
 62
     3
  6
CONTINUOUS
  0
LAYER
  2
DEFPOINTS
 70
     0
 62
     7
  6
CONTINUOUS
  0
LAYER
  2
2
 70
     0
 62
     2
  6
HIDDEN
  0
ENDTAB
  0
TABLE
  2
STYLE
 70
     2
  0
STYLE
  2
STANDARD
 70
     0
 40
0.0
 41
1.0
 50
0.0
 71
     0
 42
0.2
  3
TXT
  4
BIGFONT
  0
STYLE
  2
STANDARD1
 70
     0
 40
0.0
 41
1.0
 50
0.0
 71
     0
 42
3.0
  3
txt
  4

  0
ENDTAB
  0
TABLE
  2
VIEW
 70
     1
  0
VIEW
  2
ALL
 70
     0
 40
270.0
 10
220.9915970000000129
 20
135.0
 41
0.0
 11
0.0
 21
0.0
 31
1.0
 12
0.0
 22
0.0
 32
0.0
 42
0.0
 43
0.0
 44
0.0
 50
0.0
 71
     0
  0
ENDTAB
  0
TABLE
  2
UCS
 70
     0
  0
ENDTAB
  0
TABLE
  2
APPID
 70
     6
  0
APPID
  2
ACAD
 70
     0
  0
APPID
  2
ACAD_EXEMPT_FROM_CAD_STANDARDS
 70
     0
  0
APPID
  2
ACAD_MLEADERVER
 70
     0
  0
APPID
  2
ACAD_NAV_VCDISPLAY
 70
     0
  0
APPID
  2
ACAD_DSTYLE_DIMJAG
 70
     0
  0
APPID
  2
ACAD_DSTYLE_DIMTALN
 70
     0
  0
ENDTAB
  0
TABLE
  2
DIMSTYLE
 70
     2
  0
DIMSTYLE
  2
STANDARD
 70
     0
  3

  4

  5

  6

  7

 40
1.0
 41
0.18
 42
0.0625
 43
0.38
 44
0.18
 45
0.0
 46
0.0
 47
0.0
 48
0.0
140
0.18
141
0.09
142
0.0
143
25.3999999999999986
144
1.0
145
0.0
146
1.0
147
0.09
 71
     0
 72
     0
 73
     1
 74
     1
 75
     0
 76
     0
 77
     0
 78
     0
170
     0
171
     2
172
     0
173
     0
174
     0
175
     0
176
     0
177
     0
178
     0
  0
DIMSTYLE
  2
ISO-25
 70
     0
  3

  4

  5

  6

  7

 40
1.0
 41
2.5
 42
0.625
 43
3.75
 44
1.25
 45
0.0
 46
0.0
 47
0.0
 48
0.0
140
2.5
141
2.5
142
0.0
143
0.03937007874016
144
1.0
145
0.0
146
1.0
147
0.625
 71
     0
 72
     0
 73
     0
 74
     0
 75
     0
 76
     0
 77
     1
 78
     8
170
     0
171
     3
172
     1
173
     0
174
     0
175
     0
176
     0
177
     0
178
     0
  0
ENDTAB
  0
ENDSEC
  0
SECTION
  2
BLOCKS
  0
BLOCK
  8
0
  2
$MODEL_SPACE
 70
     0
 10
0.0
 20
0.0
 30
0.0
  3
$MODEL_SPACE
  1

  0
ENDBLK
  5
E8
  8
0
  0
BLOCK
 67
     1
  8
0
  2
$PAPER_SPACE
 70
     0
 10
0.0
 20
0.0
 30
0.0
  3
$PAPER_SPACE
  1

  0
ENDBLK
  5
E6
 67
     1
  8
0
  0
ENDSEC
  0
SECTION
  2
ENTITIES
  0
TEXT
  5
142B
  8
0
 62
     3
 10
0.0
 20
0.0
 30
0.0
 40
10.0
  1
KCL10X40
  7
STANDARD1
  0
LINE
  5
18E7
  8
1
 10
150.1500000000000057
 20
108.5
 30
0.0
 11
150.1500000000000057
 21
30.0
 31
0.0
  0
LINE
  5
18E8
  8
1
 10
133.2163057781239104
 20
93.2999999999999972
 30
0.0
 11
167.083694221876101
 21
93.2999999999999972
 31
0.0
  0
LINE
  5
18E9
  8
1
 10
133.1500000000000057
 20
91.7999999999999829
 30
0.0
 11
167.149999999999892
 21
91.7999999999999829
 31
0.0
  0
LINE
  5
190C
  8
0
 10
145.1500000000000057
 20
75.0
 30
0.0
 11
145.1500000000000057
 21
35.920000000000023
 31
0.0
  0
LINE
  5
190D
  8
0
 10
155.1500000000000057
 20
35.920000000000023
 30
0.0
 11
155.1500000000000057
 21
75.0
 31
0.0
  0
LINE
  5
190E
  8
0
 10
154.2299999999999898
 20
35.0
 30
0.0
 11
155.1500000000000057
 21
35.920000000000023
 31
0.0
  0
LINE
  5
190F
  8
0
 10
145.1500000000000057
 20
35.920000000000023
 30
0.0
 11
146.0699999999999932
 21
35.0
 31
0.0
  0
LINE
  5
1910
  8
0
 10
154.2299999999999898
 20
35.0
 30
0.0
 11
146.0699999999999932
 21
35.0
 31
0.0
  0
LINE
  5
1911
  8
0
 10
155.1500000000000057
 20
35.920000000000023
 30
0.0
 11
145.1500000000000057
 21
35.920000000000023
 31
0.0
  0
LINE
  5
1913
  8
3
 10
154.3380000000001075
 20
35.1080000000001178
 30
0.0
 11
154.3380000000001075
 21
75.0
 31
0.0
  0
LINE
  5
1915
  8
3
 10
145.9619999999999038
 20
35.1080000000001675
 30
0.0
 11
145.9619999999999038
 21
75.0
 31
0.0
  0
LINE
  5
19B1
  8
1
 10
66.5999999998650196
 20
106.4899999999999949
 30
0.0
 11
66.5999999998650196
 21
30.0
 31
0.0
  0
LINE
  5
19B2
  8
1
 10
45.0
 20
93.2999999999999545
 30
0.0
 11
88.1999999999999744
 21
93.3000000000000256
 31
0.0
  0
LINE
  5
19CE
  8
0
 10
61.5999999998650125
 20
75.0
 30
0.0
 11
61.5999999998650125
 21
35.920000000000023
 31
0.0
  0
LINE
  5
19CF
  8
0
 10
71.5999999998650196
 20
35.920000000000023
 30
0.0
 11
71.5999999998650196
 21
75.0
 31
0.0
  0
LINE
  5
19D0
  8
0
 10
70.6799999998650321
 20
35.0
 30
0.0
 11
71.599999999865048
 21
35.920000000000023
 31
0.0
  0
LINE
  5
19D1
  8
0
 10
61.5999999998650125
 20
35.920000000000023
 30
0.0
 11
62.5199999998650213
 21
35.0
 31
0.0
  0
LINE
  5
19D2
  8
0
 10
70.6799999998650321
 20
35.0
 30
0.0
 11
62.5199999998650213
 21
35.0
 31
0.0
  0
LINE
  5
19D3
  8
0
 10
71.599999999865048
 20
35.920000000000023
 30
0.0
 11
61.5999999998650125
 21
35.920000000000023
 31
0.0
  0
LINE
  5
1C2C
  8
3
 10
70.7879999998650931
 20
35.1080000000000609
 30
0.0
 11
70.7879999998650931
 21
74.9999999999999432
 31
0.0
  0
LINE
  5
1C2D
  8
3
 10
62.4119999998648893
 20
35.1080000000001178
 30
0.0
 11
62.4119999998649178
 21
74.9999999999999432
 31
0.0
  0
LINE
  5
2C98
  8
0
 10
162.6500000000000057
 20
76.2000000000000028
 30
0.0
 11
162.6500000000000057
 21
81.8000000000000114
 31
0.0
  0
LINE
  5
2C99
  8
0
 10
137.649999999999892
 20
81.7999999999999829
 30
0.0
 11
137.649999999999892
 21
76.2000000000000028
 31
0.0
  0
LINE
  5
2C9A
  8
0
 10
137.649999999999892
 20
76.2000000000000028
 30
0.0
 11
138.8499999999999943
 21
75.0
 31
0.0
  0
LINE
  5
2C9B
  8
0
 10
161.4499999999999886
 20
75.0
 30
0.0
 11
162.6500000000000057
 21
76.2000000000000028
 31
0.0
  0
LINE
  5
2C9C
  8
0
 10
162.649999999999892
 20
81.8000000000000114
 30
0.0
 11
161.4499999999999886
 21
83.0
 31
0.0
  0
LINE
  5
2C9D
  8
0
 10
138.8499999999999943
 20
83.0
 30
0.0
 11
137.649999999999892
 21
81.7999999999999829
 31
0.0
  0
LINE
  5
2CA8
  8
0
 10
162.6500000000000057
 20
81.8000000000000114
 30
0.0
 11
157.3520830320123025
 21
81.7999999999999829
 31
0.0
  0
LINE
  5
2CA9
  8
0
 10
143.5167504192891954
 20
81.7999999999999829
 30
0.0
 11
137.649999999999892
 21
81.7999999999999829
 31
0.0
  0
LINE
  5
2CAA
  8
0
 10
137.649999999999892
 20
76.2000000000000028
 30
0.0
 11
162.6500000000000057
 21
76.2000000000000028
 31
0.0
  0
LINE
  5
2CAC
  8
0
 10
138.8499999999999943
 20
75.0
 30
0.0
 11
161.4499999999999886
 21
75.0
 31
0.0
  0
LINE
  5
2CAD
  8
0
 10
161.4499999999999886
 20
83.0
 30
0.0
 11
158.9685950404048924
 21
83.0
 31
0.0
  0
LINE
  5
2CAF
  8
0
 10
141.9915687782514908
 20
83.0
 30
0.0
 11
138.8499999999999943
 21
83.0
 31
0.0
  0
CIRCLE
  5
2CB8
  8
0
 10
150.149999999999892
 20
93.2999999999999972
 30
0.0
 40
5.4999999999999707
  0
LINE
  5
2CB9
  8
0
 10
246.1500000000000057
 20
86.2456264653802833
 30
0.0
 11
246.1500000000000057
 21
87.0745584801761083
 31
0.0
  0
ARC
  5
2CBA
  8
0
 10
242.1502380001784047
 20
86.2452121602483572
 30
0.0
 40
3.9997620212789289
 50
239.7450321124424875
 51
0.0059348369741403
  0
ARC
  5
2CBC
  8
0
 10
242.1500000000033026
 20
87.0745584801776005
 30
0.0
 40
3.9999999999967222
 50
359.999999999979309
 51
47.6055162546009498
  0
ARC
  5
2CBD
  8
0
 10
214.4860906501878901
 20
56.7543340277725505
 30
0.0
 40
45.0439749234068501
 50
47.6213991104030328
 51
69.6825988950160422
  0
ARC
  5
2CBE
  8
0
 10
208.6425841796186091
 20
28.7842215130523584
 30
0.0
 40
62.5173659596318032
 50
59.7523805698092403
 51
69.9009777584205807
  0
ARC
  5
2CC0
  8
0
 10
214.5199999999998965
 20
56.8100000000000023
 30
0.0
 40
44.9799999999999827
 50
69.6984848622356452
 51
70.5761661061481078
  0
ARC
  5
2CC1
  8
0
 10
208.6500000000000057
 20
28.7999999999998906
 30
0.0
 40
62.5000000000000995
 50
69.9023913788152811
 51
70.5337173132950284
  0
ARC
  5
2CC3
  8
0
 10
214.5199999999998965
 20
56.8100000000000023
 30
0.0
 40
44.9799999999999613
 50
70.5761661061481078
 51
103.9847104878789992
  0
ARC
  5
2CC4
  8
0
 10
208.6500000000000057
 20
28.7999999999998906
 30
0.0
 40
62.5000000000000782
 50
70.5337173132950284
 51
94.5885657357849254
  0
ARC
  5
2CC5
  8
0
 10
181.289999999999992
 20
171.8899999999997874
 30
0.0
 40
74.8799999999997965
 50
270.0
 51
284.5006718642711121
  0
ARC
  5
2CC6
  8
0
 10
183.8599999999999
 20
153.8699999999998056
 30
0.0
 40
65.0999999999997954
 50
267.7375049431411753
 51
279.0236081160373942
  0
ARC
  5
2CC8
  8
0
 10
214.5199999999998965
 20
56.8100000000000023
 30
0.0
 40
44.9799999999999827
 50
103.9847104878789992
 51
108.7800651717465996
  0
ARC
  5
2CC9
  8
0
 10
208.6500000000000057
 20
28.7999999999998906
 30
0.0
 40
62.5000000000000782
 50
94.5885657357849254
 51
103.4899015454239048
  0
ARC
  5
2CCB
  8
0
 10
171.5999999999999943
 20
73.8000000000000966
 30
0.0
 40
15.9899999999999007
 50
86.647953290490932
 51
118.3266634737133955
  0
ARC
  5
2CCC
  8
0
 10
169.261422250507195
 20
123.482069685594297
 30
0.0
 40
25.0000000000005116
 50
238.9005622838647867
 51
256.0455571336796083
  0
ARC
  5
2CCD
  8
0
 10
150.1500000000000057
 20
91.7999999999999687
 30
0.0
 40
11.9999999999999805
 50
58.9005622838648719
 51
270.0
  0
ARC
  5
2CCE
  8
0
 10
150.4236292330404865
 20
92.7971199518518404
 30
0.0
 40
12.9999999999999893
 50
268.793926302167506
 51
323.6948120829623008
  0
ARC
  5
2CCF
  8
0
 10
168.9717799231061974
 20
79.1799941830316811
 30
0.0
 40
10.0100000000000193
 50
119.6964423578154992
 51
143.7429287487994998
  0
ARC
  5
2CD0
  8
0
 10
183.8599999999999
 20
153.8699999999998056
 30
0.0
 40
65.0999999999998096
 50
259.9816302489953159
 51
267.7375049431411753
  0
ARC
  5
2CD1
  8
0
 10
181.289999999999992
 20
171.8899999999997874
 30
0.0
 40
74.8799999999998391
 50
256.0455571336796083
 51
270.0
  0
LINE
  5
2CD2
  8
0
 10
144.6500000000000057
 20
178.0
 30
0.0
 11
144.6500000000000057
 21
168.9999999999998863
 31
0.0
  0
LINE
  5
2CD3
  8
0
 10
155.6500000000000057
 20
168.9999999999998863
 30
0.0
 11
155.6500000000000057
 21
178.0
 31
0.0
  0
LINE
  5
2CD5
  8
0
 10
138.1500000000000057
 20
168.9999999999998863
 30
0.0
 11
138.1500000000000057
 21
161.5
 31
0.0
  0
ARC
  5
2CD6
  8
0
 10
150.1500000000000057
 20
173.5
 30
0.0
 40
12.4999999999999893
 50
158.8998039759065932
 51
201.1001960240942878
  0
ARC
  5
2CD7
  8
0
 10
150.1500000000000057
 20
173.5
 30
0.0
 40
11.3000000000000007
 50
156.5324207029862862
 51
203.4675792970145949
  0
ARC
  5
2CD8
  8
0
 10
150.1311724668759098
 20
172.3175004304617062
 30
0.0
 40
11.3386027473280695
 50
252.5619932533105043
 51
287.438006746689382
  0
ARC
  5
2CD9
  8
0
 10
150.1688275331258922
 20
174.6824995698368923
 30
0.0
 40
11.3386027470361199
 50
72.5619932539216848
 51
107.4380067460816974
  0
ARC
  5
2CED
  8
0
 10
159.6500000000000057
 20
170.0
 30
0.0
 40
1.000000000000028
 50
269.9999999999968168
 51
0.0
  0
LINE
  5
2CEE
  8
0
 10
160.6500000000000057
 20
170.0
 30
0.0
 11
160.6500000000000057
 21
177.0
 31
0.0
  0
ARC
  5
2CEF
  8
0
 10
159.6499999999998067
 20
176.9999999999996021
 30
0.0
 40
1.000000000000397
 50
0.0000000000244267
 51
89.9999999999837144
  0
LINE
  5
2CF1
  8
0
 10
138.1500000000000057
 20
168.9999999999998863
 30
0.0
 11
159.6500000000000057
 21
168.9999999999998863
 31
0.0
  0
LINE
  5
2CF2
  8
0
 10
159.6500000000000057
 20
178.0
 30
0.0
 11
138.1500000000000909
 21
178.0
 31
0.0
  0
ARC
  5
2CF5
  8
0
 10
229.5455937494841123
 20
173.5064047684097943
 30
0.0
 40
16.6165543126670308
 50
272.0026844409418914
 51
337.0504639903202815
  0
LINE
  5
2CF6
  8
0
 10
229.478254847645502
 20
156.899999999999892
 30
0.0
 11
230.126281181368995
 21
156.899999999999892
 31
0.0
  0
LINE
  5
2CF7
  8
0
 10
203.6500000000000057
 20
160.4999999999998863
 30
0.0
 11
229.478254847645502
 21
156.899999999999892
 31
0.0
  0
LINE
  5
2CF8
  8
0
 10
200.0393047951162089
 20
160.6614801075529044
 30
0.0
 11
203.6500000000000057
 21
160.4999999999998863
 31
0.0
  0
LINE
  5
2CFA
  8
0
 10
203.6500000000000909
 20
186.5
 30
0.0
 11
200.0393047951162089
 21
186.3385198924470103
 31
0.0
  0
LINE
  5
2CFB
  8
0
 10
229.478254847645502
 20
190.0999999999999943
 30
0.0
 11
203.6500000000000909
 21
186.5
 31
0.0
  0
LINE
  5
2CFC
  8
0
 10
230.126281181368995
 20
190.0999999999999943
 30
0.0
 11
229.478254847645502
 21
190.0999999999999943
 31
0.0
  0
ARC
  5
2CFD
  8
0
 10
229.5459784657253977
 20
173.4941544413808003
 30
0.0
 40
16.6159820040374093
 50
22.9482776151794816
 51
87.9985739535614755
  0
LINE
  5
2CFE
  8
0
 10
181.289999999999992
 20
161.5
 30
0.0
 11
200.0393047951162941
 21
160.6614801075529044
 31
0.0
  0
LINE
  5
2CFF
  8
0
 10
200.0393047951162089
 20
186.3385198924470103
 30
0.0
 11
181.2899999999999068
 21
185.5
 31
0.0
  0
LINE
  5
2D00
  8
0
 10
181.289999999999992
 20
161.5
 30
0.0
 11
138.1500000000000057
 21
161.5
 31
0.0
  0
LINE
  5
2D01
  8
0
 10
138.1500000000000909
 20
185.5
 30
0.0
 11
181.2899999999999068
 21
185.5
 31
0.0
  0
LINE
  5
2D02
  8
0
 10
246.1500000000000057
 20
172.9237188186305048
 30
0.0
 11
246.1500000000000057
 21
174.0762811813688131
 31
0.0
  0
ARC
  5
2D03
  8
0
 10
229.5500000000145064
 20
173.4999999999967883
 30
0.0
 40
16.6099999999854404
 50
337.0648818854069191
 51
358.0117334541682226
  0
ARC
  5
2D04
  8
0
 10
229.5500000000216971
 20
173.5000000000048033
 30
0.0
 40
16.6099999999782106
 50
1.988266545826878
 51
22.9351181145967011
  0
LINE
  5
2D09
  8
0
 10
79.0999999998650196
 20
76.2000000000000028
 30
0.0
 11
79.0999999998650196
 21
79.7229334823428673
 31
0.0
  0
LINE
  5
2D0A
  8
0
 10
54.0999999998650125
 20
79.7229334823428673
 30
0.0
 11
54.0999999998650125
 21
76.2000000000000028
 31
0.0
  0
LINE
  5
2D0B
  8
0
 10
54.0999999998650125
 20
76.2000000000000028
 30
0.0
 11
55.2999999998650011
 21
75.0
 31
0.0
  0
LINE
  5
2D0C
  8
0
 10
77.8999999998649741
 20
75.0
 30
0.0
 11
79.0999999998650196
 21
76.2000000000000028
 31
0.0
  0
LINE
  5
2D17
  8
0
 10
62.0999999998650125
 20
103.7999999999999972
 30
0.0
 11
54.5999999998650125
 21
103.7999999999999972
 31
0.0
  0
LINE
  5
2D18
  8
0
 10
78.5999999998650196
 20
103.7999999999999972
 30
0.0
 11
71.0999999998650196
 21
103.7999999999999972
 31
0.0
  0
LINE
  5
2D19
  8
0
 10
54.4850626116717507
 20
88.769999999999996
 30
0.0
 11
54.5999999998651191
 21
88.769999999999996
 31
0.0
  0
LINE
  5
2D1A
  8
0
 10
78.5999999998651333
 20
88.769999999999996
 30
0.0
 11
78.7149373880582033
 21
88.769999999999996
 31
0.0
  0
LINE
  5
2D1B
  8
0
 10
81.1150849419499309
 20
101.7900000000000063
 30
0.0
 11
78.599999999865247
 21
101.7900000000000063
 31
0.0
  0
LINE
  5
2D1C
  8
0
 10
71.099999999865247
 20
101.7900000000000063
 30
0.0
 11
62.0999999998652399
 21
101.7900000000000063
 31
0.0
  0
LINE
  5
2D1D
  8
0
 10
54.5999999998652399
 20
101.7900000000000063
 30
0.0
 11
52.0849150577800373
 21
101.7900000000000063
 31
0.0
  0
POLYLINE
  5
2D1E
  8
0
 66
     1
 10
0.0
 20
0.0
 30
0.0
 70
   128
  0
VERTEX
  5
2F34
  8
0
 10
56.3833469275520969
 20
81.7999999999999829
 30
0.0
  0
VERTEX
  5
2F35
  8
0
 10
55.5247253149172408
 20
81.0181247586707372
 30
0.0
  0
VERTEX
  5
2F36
  8
0
 10
54.823603211046688
 20
80.3723324474713934
 30
0.0
  0
VERTEX
  5
2F37
  8
0
 10
54.3490839516746789
 20
79.9320486020107381
 30
0.0
  0
VERTEX
  5
2F38
  8
0
 10
54.1151775623531535
 20
79.7141570569425966
 30
0.0
  0
VERTEX
  5
2F39
  8
0
 10
54.1245885874886312
 20
79.7229334823428673
 30
0.0
  0
SEQEND
  5
2F3A
  8
0
  0
LINE
  5
2D1F
  8
0
 10
76.8166530721778713
 20
81.7999999999999829
 30
0.0
 11
56.3833469275520969
 21
81.7999999999999829
 31
0.0
  0
ARC
  5
2D20
  8
0
 10
-62.9067084936426966
 20
-72.412396567150509
 30
0.0
 40
208.0963263064417959
 50
46.9771189057030085
 51
47.8220083137189675
  0
LINE
  5
2D21
  8
0
 10
54.0999999998650125
 20
76.2000000000000028
 30
0.0
 11
79.0999999998650196
 21
76.2000000000000028
 31
0.0
  0
LINE
  5
2D23
  8
0
 10
55.2999999998650011
 20
75.0
 30
0.0
 11
77.899999999865031
 21
75.0
 31
0.0
  0
ARC
  5
2D24
  8
0
 10
61.0092890640349808
 20
45.2165543784307218
 30
0.0
 40
39.8524936538762518
 50
66.6312797029155348
 51
71.1325257321694977
  0
ARC
  5
2D25
  8
0
 10
72.1830980533019897
 20
45.2362650852588928
 30
0.0
 40
39.8313801738163704
 50
108.8662806622239003
 51
113.3699139026921046
  0
POLYLINE
  5
2D26
  8
0
 66
     1
 10
0.0
 20
0.0
 30
0.0
 70
   128
  0
VERTEX
  5
2F3B
  8
0
 10
59.3031999312772697
 20
82.9277372098304681
 30
0.0
  0
VERTEX
  5
2F3C
  8
0
 10
59.5974051850806106
 20
82.9966128005551553
 30
0.0
  0
VERTEX
  5
2F3D
  8
0
 10
59.6602593707059867
 20
83.0
 30
0.0
  0
SEQEND
  5
2F3E
  8
0
  0
LINE
  5
2D27
  8
0
 10
73.5397406290239815
 20
83.0
 30
0.0
 11
59.6602593707059867
 21
83.0
 31
0.0
  0
POLYLINE
  5
2D28
  8
0
 66
     1
 10
0.0
 20
0.0
 30
0.0
 70
   128
  0
VERTEX
  5
2F3F
  8
0
 10
73.5397406290239815
 20
83.0
 30
0.0
  0
VERTEX
  5
2F40
  8
0
 10
73.7577571102252136
 20
82.9686431580597059
 30
0.0
  0
VERTEX
  5
2F41
  8
0
 10
73.8968000684527055
 20
82.927737209830525
 30
0.0
  0
SEQEND
  5
2F42
  8
0
  0
LINE
  5
2D34
  8
0
 10
54.5999999998650125
 20
103.7999999999999972
 30
0.0
 11
54.5999999998650125
 21
80.1345572875256664
 31
0.0
  0
LINE
  5
2D35
  8
0
 10
62.0999999998650125
 20
83.0
 30
0.0
 11
62.0999999998650125
 21
103.7999999999999972
 31
0.0
  0
LINE
  5
2D36
  8
0
 10
78.5999999998650196
 20
80.133414755344532
 30
0.0
 11
78.5999999998650196
 21
103.7999999999999972
 31
0.0
  0
LINE
  5
2D37
  8
0
 10
71.0999999998650196
 20
103.7999999999999972
 30
0.0
 11
71.0999999998650196
 21
83.0
 31
0.0
  0
POLYLINE
  5
2D3C
  8
0
 10
53.7614801074179098
 20
99.3953245424202407
 30
0.0
 66
     1
 70
     8
  0
VERTEX
  8
0
  5
2F73
 10
53.7615
 20
99.3953
 30
0.00000
  70
    32
  0
VERTEX
  8
0
  5
2F74
 10
53.7679
 20
99.3584
 30
0.00000
  70
    32
  0
VERTEX
  8
0
  5
2F75
 10
53.7743
 20
99.3217
 30
0.00000
  70
    32
  0
VERTEX
  8
0
  5
2F76
 10
53.7807
 20
99.2854
 30
0.00000
  70
    32
  0
VERTEX
  8
0
  5
2F77
 10
53.7871
 20
99.2493
 30
0.00000
  70
    32
  0
VERTEX
  8
0
  5
2F78
 10
53.7936
 20
99.2135
 30
0.00000
  70
    32
  0
VERTEX
  8
0
  5
2F79
 10
53.8000
 20
99.1780
 30
0.00000
  70
    32
  0
VERTEX
  8
0
  5
2F7A
 10
53.8064
 20
99.1428
 30
0.00000
  70
    32
  0
VERTEX
  8
0
  5
2F7B
 10
53.8129
 20
99.1078
 30
0.00000
  70
    32
  0
VERTEX
  8
0
  5
2F7C
 10
53.8193
 20
99.0732
 30
0.00000
  70
    32
  0
VERTEX
  8
0
  5
2F7D
 10
53.8257
 20
99.0388
 30
0.00000
  70
    32
  0
VERTEX
  8
0
  5
2F7E
 10
53.8322
 20
99.0047
 30
0.00000
  70
    32
  0
VERTEX
  8
0
  5
2F7F
 10
53.8386
 20
98.9709
 30
0.00000
  70
    32
  0
VERTEX
  8
0
  5
2F80
 10
53.8451
 20
98.9374
 30
0.00000
  70
    32
  0
VERTEX
  8
0
  5
2F81
 10
53.8515
 20
98.9042
 30
0.00000
  70
    32
  0
VERTEX
  8
0
  5
2F82
 10
53.8580
 20
98.8712
 30
0.00000
  70
    32
  0
VERTEX
  8
0
  5
2F83
 10
53.8645
 20
98.8386
 30
0.00000
  70
    32
  0
VERTEX
  8
0
  5
2F84
 10
53.8709
 20
98.8062
 30
0.00000
  70
    32
  0
VERTEX
  8
0
  5
2F85
 10
53.8774
 20
98.7741
 30
0.00000
  70
    32
  0
VERTEX
  8
0
  5
2F86
 10
53.8838
 20
98.7423
 30
0.00000
  70
    32
  0
VERTEX
  8
0
  5
2F87
 10
53.8903
 20
98.7108
 30
0.00000
  70
    32
  0
VERTEX
  8
0
  5
2F88
 10
53.8968
 20
98.6795
 30
0.00000
  70
    32
  0
VERTEX
  8
0
  5
2F89
 10
53.9033
 20
98.6486
 30
0.00000
  70
    32
  0
VERTEX
  8
0
  5
2F8A
 10
53.9097
 20
98.6179
 30
0.00000
  70
    32
  0
VERTEX
  8
0
  5
2F8B
 10
53.9162
 20
98.5875
 30
0.00000
  70
    32
  0
VERTEX
  8
0
  5
2F8C
 10
53.9227
 20
98.5575
 30
0.00000
  70
    32
  0
VERTEX
  8
0
  5
2F8D
 10
53.9292
 20
98.5277
 30
0.00000
  70
    32
  0
VERTEX
  8
0
  5
2F8E
 10
53.9357
 20
98.4981
 30
0.00000
  70
    32
  0
VERTEX
  8
0
  5
2F8F
 10
53.9422
 20
98.4689
 30
0.00000
  70
    32
  0
VERTEX
  8
0
  5
2F90
 10
53.9487
 20
98.4400
 30
0.00000
  70
    32
  0
VERTEX
  8
0
  5
2F91
 10
53.9552
 20
98.4113
 30
0.00000
  70
    32
  0
VERTEX
  8
0
  5
2F92
 10
53.9617
 20
98.3830
 30
0.00000
  70
    32
  0
VERTEX
  8
0
  5
2F93
 10
53.9682
 20
98.3549
 30
0.00000
  70
    32
  0
VERTEX
  8
0
  5
2F94
 10
53.9747
 20
98.3271
 30
0.00000
  70
    32
  0
VERTEX
  8
0
  5
2F95
 10
53.9812
 20
98.2996
 30
0.00000
  70
    32
  0
VERTEX
  8
0
  5
2F96
 10
53.9877
 20
98.2724
 30
0.00000
  70
    32
  0
VERTEX
  8
0
  5
2F97
 10
53.9942
 20
98.2454
 30
0.00000
  70
    32
  0
VERTEX
  8
0
  5
2F98
 10
54.0007
 20
98.2188
 30
0.00000
  70
    32
  0
VERTEX
  8
0
  5
2F99
 10
54.0072
 20
98.1925
 30
0.00000
  70
    32
  0
VERTEX
  8
0
  5
2F9A
 10
54.0137
 20
98.1664
 30
0.00000
  70
    32
  0
VERTEX
  8
0
  5
2F9B
 10
54.0203
 20
98.1406
 30
0.00000
  70
    32
  0
VERTEX
  8
0
  5
2F9C
 10
54.0268
 20
98.1151
 30
0.00000
  70
    32
  0
VERTEX
  8
0
  5
2F9D
 10
54.0333
 20
98.0899
 30
0.00000
  70
    32
  0
VERTEX
  8
0
  5
2F9E
 10
54.0398
 20
98.0650
 30
0.00000
  70
    32
  0
VERTEX
  8
0
  5
2F9F
 10
54.0464
 20
98.0404
 30
0.00000
  70
    32
  0
VERTEX
  8
0
  5
2FA0
 10
54.0529
 20
98.0161
 30
0.00000
  70
    32
  0
VERTEX
  8
0
  5
2FA1
 10
54.0594
 20
97.9920
 30
0.00000
  70
    32
  0
VERTEX
  8
0
  5
2FA2
 10
54.0660
 20
97.9683
 30
0.00000
  70
    32
  0
VERTEX
  8
0
  5
2FA3
 10
54.0725
 20
97.9448
 30
0.00000
  70
    32
  0
VERTEX
  8
0
  5
2FA4
 10
54.0790
 20
97.9216
 30
0.00000
  70
    32
  0
VERTEX
  8
0
  5
2FA5
 10
54.0856
 20
97.8987
 30
0.00000
  70
    32
  0
VERTEX
  8
0
  5
2FA6
 10
54.0921
 20
97.8761
 30
0.00000
  70
    32
  0
VERTEX
  8
0
  5
2FA7
 10
54.0987
 20
97.8538
 30
0.00000
  70
    32
  0
VERTEX
  8
0
  5
2FA8
 10
54.1052
 20
97.8318
 30
0.00000
  70
    32
  0
VERTEX
  8
0
  5
2FA9
 10
54.1118
 20
97.8101
 30
0.00000
  70
    32
  0
VERTEX
  8
0
  5
2FAA
 10
54.1183
 20
97.7886
 30
0.00000
  70
    32
  0
VERTEX
  8
0
  5
2FAB
 10
54.1249
 20
97.7675
 30
0.00000
  70
    32
  0
VERTEX
  8
0
  5
2FAC
 10
54.1314
 20
97.7466
 30
0.00000
  70
    32
  0
VERTEX
  8
0
  5
2FAD
 10
54.1380
 20
97.7261
 30
0.00000
  70
    32
  0
VERTEX
  8
0
  5
2FAE
 10
54.1445
 20
97.7058
 30
0.00000
  70
    32
  0
VERTEX
  8
0
  5
2FAF
 10
54.1511
 20
97.6858
 30
0.00000
  70
    32
  0
VERTEX
  8
0
  5
2FB0
 10
54.1577
 20
97.6661
 30
0.00000
  70
    32
  0
VERTEX
  8
0
  5
2FB1
 10
54.1642
 20
97.6467
 30
0.00000
  70
    32
  0
VERTEX
  8
0
  5
2FB2
 10
54.1708
 20
97.6276
 30
0.00000
  70
    32
  0
VERTEX
  8
0
  5
2FB3
 10
54.1774
 20
97.6087
 30
0.00000
  70
    32
  0
VERTEX
  8
0
  5
2FB4
 10
54.1839
 20
97.5902
 30
0.00000
  70
    32
  0
VERTEX
  8
0
  5
2FB5
 10
54.1905
 20
97.5719
 30
0.00000
  70
    32
  0
VERTEX
  8
0
  5
2FB6
 10
54.1971
 20
97.5540
 30
0.00000
  70
    32
  0
VERTEX
  8
0
  5
2FB7
 10
54.2036
 20
97.5363
 30
0.00000
  70
    32
  0
VERTEX
  8
0
  5
2FB8
 10
54.2102
 20
97.5189
 30
0.00000
  70
    32
  0
VERTEX
  8
0
  5
2FB9
 10
54.2168
 20
97.5018
 30
0.00000
  70
    32
  0
VERTEX
  8
0
  5
2FBA
 10
54.2234
 20
97.4850
 30
0.00000
  70
    32
  0
VERTEX
  8
0
  5
2FBB
 10
54.2300
 20
97.4685
 30
0.00000
  70
    32
  0
VERTEX
  8
0
  5
2FBC
 10
54.2365
 20
97.4523
 30
0.00000
  70
    32
  0
VERTEX
  8
0
  5
2FBD
 10
54.2431
 20
97.4364
 30
0.00000
  70
    32
  0
VERTEX
  8
0
  5
2FBE
 10
54.2497
 20
97.4208
 30
0.00000
  70
    32
  0
VERTEX
  8
0
  5
2FBF
 10
54.2563
 20
97.4054
 30
0.00000
  70
    32
  0
VERTEX
  8
0
  5
2FC0
 10
54.2629
 20
97.3904
 30
0.00000
  70
    32
  0
VERTEX
  8
0
  5
2FC1
 10
54.2695
 20
97.3756
 30
0.00000
  70
    32
  0
VERTEX
  8
0
  5
2FC2
 10
54.2761
 20
97.3612
 30
0.00000
  70
    32
  0
VERTEX
  8
0
  5
2FC3
 10
54.2826
 20
97.3470
 30
0.00000
  70
    32
  0
VERTEX
  8
0
  5
2FC4
 10
54.2892
 20
97.3331
 30
0.00000
  70
    32
  0
VERTEX
  8
0
  5
2FC5
 10
54.2958
 20
97.3195
 30
0.00000
  70
    32
  0
VERTEX
  8
0
  5
2FC6
 10
54.3024
 20
97.3062
 30
0.00000
  70
    32
  0
VERTEX
  8
0
  5
2FC7
 10
54.3090
 20
97.2932
 30
0.00000
  70
    32
  0
VERTEX
  8
0
  5
2FC8
 10
54.3156
 20
97.2805
 30
0.00000
  70
    32
  0
VERTEX
  8
0
  5
2FC9
 10
54.3222
 20
97.2680
 30
0.00000
  70
    32
  0
VERTEX
  8
0
  5
2FCA
 10
54.3288
 20
97.2559
 30
0.00000
  70
    32
  0
VERTEX
  8
0
  5
2FCB
 10
54.3354
 20
97.2441
 30
0.00000
  70
    32
  0
VERTEX
  8
0
  5
2FCC
 10
54.3420
 20
97.2325
 30
0.00000
  70
    32
  0
VERTEX
  8
0
  5
2FCD
 10
54.3486
 20
97.2213
 30
0.00000
  70
    32
  0
VERTEX
  8
0
  5
2FCE
 10
54.3552
 20
97.2103
 30
0.00000
  70
    32
  0
VERTEX
  8
0
  5
2FCF
 10
54.3618
 20
97.1996
 30
0.00000
  70
    32
  0
VERTEX
  8
0
  5
2FD0
 10
54.3684
 20
97.1892
 30
0.00000
  70
    32
  0
VERTEX
  8
0
  5
2FD1
 10
54.3750
 20
97.1791
 30
0.00000
  70
    32
  0
VERTEX
  8
0
  5
2FD2
 10
54.3816
 20
97.1693
 30
0.00000
  70
    32
  0
VERTEX
  8
0
  5
2FD3
 10
54.3883
 20
97.1598
 30
0.00000
  70
    32
  0
VERTEX
  8
0
  5
2FD4
 10
54.3949
 20
97.1506
 30
0.00000
  70
    32
  0
VERTEX
  8
0
  5
2FD5
 10
54.4015
 20
97.1417
 30
0.00000
  70
    32
  0
VERTEX
  8
0
  5
2FD6
 10
54.4081
 20
97.1331
 30
0.00000
  70
    32
  0
VERTEX
  8
0
  5
2FD7
 10
54.4147
 20
97.1247
 30
0.00000
  70
    32
  0
VERTEX
  8
0
  5
2FD8
 10
54.4213
 20
97.1167
 30
0.00000
  70
    32
  0
VERTEX
  8
0
  5
2FD9
 10
54.4279
 20
97.1089
 30
0.00000
  70
    32
  0
VERTEX
  8
0
  5
2FDA
 10
54.4345
 20
97.1015
 30
0.00000
  70
    32
  0
VERTEX
  8
0
  5
2FDB
 10
54.4411
 20
97.0943
 30
0.00000
  70
    32
  0
VERTEX
  8
0
  5
2FDC
 10
54.4478
 20
97.0874
 30
0.00000
  70
    32
  0
VERTEX
  8
0
  5
2FDD
 10
54.4544
 20
97.0808
 30
0.00000
  70
    32
  0
VERTEX
  8
0
  5
2FDE
 10
54.4610
 20
97.0745
 30
0.00000
  70
    32
  0
VERTEX
  8
0
  5
2FDF
 10
54.4676
 20
97.0685
 30
0.00000
  70
    32
  0
VERTEX
  8
0
  5
2FE0
 10
54.4742
 20
97.0628
 30
0.00000
  70
    32
  0
VERTEX
  8
0
  5
2FE1
 10
54.4808
 20
97.0574
 30
0.00000
  70
    32
  0
VERTEX
  8
0
  5
2FE2
 10
54.4875
 20
97.0523
 30
0.00000
  70
    32
  0
VERTEX
  8
0
  5
2FE3
 10
54.4941
 20
97.0475
 30
0.00000
  70
    32
  0
VERTEX
  8
0
  5
2FE4
 10
54.5007
 20
97.0429
 30
0.00000
  70
    32
  0
VERTEX
  8
0
  5
2FE5
 10
54.5073
 20
97.0387
 30
0.00000
  70
    32
  0
VERTEX
  8
0
  5
2FE6
 10
54.5139
 20
97.0347
 30
0.00000
  70
    32
  0
VERTEX
  8
0
  5
2FE7
 10
54.5206
 20
97.0311
 30
0.00000
  70
    32
  0
VERTEX
  8
0
  5
2FE8
 10
54.5272
 20
97.0277
 30
0.00000
  70
    32
  0
VERTEX
  8
0
  5
2FE9
 10
54.5338
 20
97.0246
 30
0.00000
  70
    32
  0
VERTEX
  8
0
  5
2FEA
 10
54.5404
 20
97.0219
 30
0.00000
  70
    32
  0
VERTEX
  8
0
  5
2FEB
 10
54.5470
 20
97.0194
 30
0.00000
  70
    32
  0
VERTEX
  8
0
  5
2FEC
 10
54.5537
 20
97.0172
 30
0.00000
  70
    32
  0
VERTEX
  8
0
  5
2FED
 10
54.5603
 20
97.0153
 30
0.00000
  70
    32
  0
VERTEX
  8
0
  5
2FEE
 10
54.5669
 20
97.0137
 30
0.00000
  70
    32
  0
VERTEX
  8
0
  5
2FEF
 10
54.5735
 20
97.0123
 30
0.00000
  70
    32
  0
VERTEX
  8
0
  5
2FF0
 10
54.5801
 20
97.0113
 30
0.00000
  70
    32
  0
VERTEX
  8
0
  5
2FF1
 10
54.5868
 20
97.0106
 30
0.00000
  70
    32
  0
VERTEX
  8
0
  5
2FF2
 10
54.5934
 20
97.0101
 30
0.00000
  70
    32
  0
VERTEX
  8
0
  5
2FF3
 10
54.6000
 20
97.0100
 30
0.00000
  70
    32
  0
SEQEND
  8
0
  5
2FF4
  0
POLYLINE
  5
2D3F
  8
0
 10
78.5999999998650054
 20
97.0100000000000477
 30
0.0
 66
     1
 70
     8
  0
VERTEX
  8
0
  5
2FF5
 10
78.6000
 20
97.0100
 30
0.00000
  70
    32
  0
VERTEX
  8
0
  5
2FF6
 10
78.6066
 20
97.0101
 30
0.00000
  70
    32
  0
VERTEX
  8
0
  5
2FF7
 10
78.6132
 20
97.0106
 30
0.00000
  70
    32
  0
VERTEX
  8
0
  5
2FF8
 10
78.6199
 20
97.0113
 30
0.00000
  70
    32
  0
VERTEX
  8
0
  5
2FF9
 10
78.6265
 20
97.0123
 30
0.00000
  70
    32
  0
VERTEX
  8
0
  5
2FFA
 10
78.6331
 20
97.0137
 30
0.00000
  70
    32
  0
VERTEX
  8
0
  5
2FFB
 10
78.6397
 20
97.0153
 30
0.00000
  70
    32
  0
VERTEX
  8
0
  5
2FFC
 10
78.6463
 20
97.0172
 30
0.00000
  70
    32
  0
VERTEX
  8
0
  5
2FFD
 10
78.6530
 20
97.0194
 30
0.00000
  70
    32
  0
VERTEX
  8
0
  5
2FFE
 10
78.6596
 20
97.0219
 30
0.00000
  70
    32
  0
VERTEX
  8
0
  5
2FFF
 10
78.6662
 20
97.0246
 30
0.00000
  70
    32
  0
VERTEX
  8
0
  5
3000
 10
78.6728
 20
97.0277
 30
0.00000
  70
    32
  0
VERTEX
  8
0
  5
3001
 10
78.6794
 20
97.0311
 30
0.00000
  70
    32
  0
VERTEX
  8
0
  5
3002
 10
78.6861
 20
97.0347
 30
0.00000
  70
    32
  0
VERTEX
  8
0
  5
3003
 10
78.6927
 20
97.0387
 30
0.00000
  70
    32
  0
VERTEX
  8
0
  5
3004
 10
78.6993
 20
97.0429
 30
0.00000
  70
    32
  0
VERTEX
  8
0
  5
3005
 10
78.7059
 20
97.0475
 30
0.00000
  70
    32
  0
VERTEX
  8
0
  5
3006
 10
78.7125
 20
97.0523
 30
0.00000
  70
    32
  0
VERTEX
  8
0
  5
3007
 10
78.7192
 20
97.0574
 30
0.00000
  70
    32
  0
VERTEX
  8
0
  5
3008
 10
78.7258
 20
97.0628
 30
0.00000
  70
    32
  0
VERTEX
  8
0
  5
3009
 10
78.7324
 20
97.0685
 30
0.00000
  70
    32
  0
VERTEX
  8
0
  5
300A
 10
78.7390
 20
97.0745
 30
0.00000
  70
    32
  0
VERTEX
  8
0
  5
300B
 10
78.7456
 20
97.0808
 30
0.00000
  70
    32
  0
VERTEX
  8
0
  5
300C
 10
78.7522
 20
97.0874
 30
0.00000
  70
    32
  0
VERTEX
  8
0
  5
300D
 10
78.7589
 20
97.0943
 30
0.00000
  70
    32
  0
VERTEX
  8
0
  5
300E
 10
78.7655
 20
97.1015
 30
0.00000
  70
    32
  0
VERTEX
  8
0
  5
300F
 10
78.7721
 20
97.1089
 30
0.00000
  70
    32
  0
VERTEX
  8
0
  5
3010
 10
78.7787
 20
97.1167
 30
0.00000
  70
    32
  0
VERTEX
  8
0
  5
3011
 10
78.7853
 20
97.1247
 30
0.00000
  70
    32
  0
VERTEX
  8
0
  5
3012
 10
78.7919
 20
97.1331
 30
0.00000
  70
    32
  0
VERTEX
  8
0
  5
3013
 10
78.7985
 20
97.1417
 30
0.00000
  70
    32
  0
VERTEX
  8
0
  5
3014
 10
78.8051
 20
97.1506
 30
0.00000
  70
    32
  0
VERTEX
  8
0
  5
3015
 10
78.8117
 20
97.1598
 30
0.00000
  70
    32
  0
VERTEX
  8
0
  5
3016
 10
78.8184
 20
97.1693
 30
0.00000
  70
    32
  0
VERTEX
  8
0
  5
3017
 10
78.8250
 20
97.1791
 30
0.00000
  70
    32
  0
VERTEX
  8
0
  5
3018
 10
78.8316
 20
97.1892
 30
0.00000
  70
    32
  0
VERTEX
  8
0
  5
3019
 10
78.8382
 20
97.1996
 30
0.00000
  70
    32
  0
VERTEX
  8
0
  5
301A
 10
78.8448
 20
97.2103
 30
0.00000
  70
    32
  0
VERTEX
  8
0
  5
301B
 10
78.8514
 20
97.2213
 30
0.00000
  70
    32
  0
VERTEX
  8
0
  5
301C
 10
78.8580
 20
97.2325
 30
0.00000
  70
    32
  0
VERTEX
  8
0
  5
301D
 10
78.8646
 20
97.2441
 30
0.00000
  70
    32
  0
VERTEX
  8
0
  5
301E
 10
78.8712
 20
97.2559
 30
0.00000
  70
    32
  0
VERTEX
  8
0
  5
301F
 10
78.8778
 20
97.2680
 30
0.00000
  70
    32
  0
VERTEX
  8
0
  5
3020
 10
78.8844
 20
97.2805
 30
0.00000
  70
    32
  0
VERTEX
  8
0
  5
3021
 10
78.8910
 20
97.2932
 30
0.00000
  70
    32
  0
VERTEX
  8
0
  5
3022
 10
78.8976
 20
97.3062
 30
0.00000
  70
    32
  0
VERTEX
  8
0
  5
3023
 10
78.9042
 20
97.3195
 30
0.00000
  70
    32
  0
VERTEX
  8
0
  5
3024
 10
78.9108
 20
97.3331
 30
0.00000
  70
    32
  0
VERTEX
  8
0
  5
3025
 10
78.9174
 20
97.3470
 30
0.00000
  70
    32
  0
VERTEX
  8
0
  5
3026
 10
78.9239
 20
97.3612
 30
0.00000
  70
    32
  0
VERTEX
  8
0
  5
3027
 10
78.9305
 20
97.3756
 30
0.00000
  70
    32
  0
VERTEX
  8
0
  5
3028
 10
78.9371
 20
97.3904
 30
0.00000
  70
    32
  0
VERTEX
  8
0
  5
3029
 10
78.9437
 20
97.4054
 30
0.00000
  70
    32
  0
VERTEX
  8
0
  5
302A
 10
78.9503
 20
97.4208
 30
0.00000
  70
    32
  0
VERTEX
  8
0
  5
302B
 10
78.9569
 20
97.4364
 30
0.00000
  70
    32
  0
VERTEX
  8
0
  5
302C
 10
78.9635
 20
97.4523
 30
0.00000
  70
    32
  0
VERTEX
  8
0
  5
302D
 10
78.9700
 20
97.4685
 30
0.00000
  70
    32
  0
VERTEX
  8
0
  5
302E
 10
78.9766
 20
97.4850
 30
0.00000
  70
    32
  0
VERTEX
  8
0
  5
302F
 10
78.9832
 20
97.5018
 30
0.00000
  70
    32
  0
VERTEX
  8
0
  5
3030
 10
78.9898
 20
97.5189
 30
0.00000
  70
    32
  0
VERTEX
  8
0
  5
3031
 10
78.9964
 20
97.5363
 30
0.00000
  70
    32
  0
VERTEX
  8
0
  5
3032
 10
79.0029
 20
97.5540
 30
0.00000
  70
    32
  0
VERTEX
  8
0
  5
3033
 10
79.0095
 20
97.5719
 30
0.00000
  70
    32
  0
VERTEX
  8
0
  5
3034
 10
79.0161
 20
97.5902
 30
0.00000
  70
    32
  0
VERTEX
  8
0
  5
3035
 10
79.0226
 20
97.6087
 30
0.00000
  70
    32
  0
VERTEX
  8
0
  5
3036
 10
79.0292
 20
97.6276
 30
0.00000
  70
    32
  0
VERTEX
  8
0
  5
3037
 10
79.0358
 20
97.6467
 30
0.00000
  70
    32
  0
VERTEX
  8
0
  5
3038
 10
79.0423
 20
97.6661
 30
0.00000
  70
    32
  0
VERTEX
  8
0
  5
3039
 10
79.0489
 20
97.6858
 30
0.00000
  70
    32
  0
VERTEX
  8
0
  5
303A
 10
79.0555
 20
97.7058
 30
0.00000
  70
    32
  0
VERTEX
  8
0
  5
303B
 10
79.0620
 20
97.7261
 30
0.00000
  70
    32
  0
VERTEX
  8
0
  5
303C
 10
79.0686
 20
97.7466
 30
0.00000
  70
    32
  0
VERTEX
  8
0
  5
303D
 10
79.0751
 20
97.7675
 30
0.00000
  70
    32
  0
VERTEX
  8
0
  5
303E
 10
79.0817
 20
97.7886
 30
0.00000
  70
    32
  0
VERTEX
  8
0
  5
303F
 10
79.0882
 20
97.8101
 30
0.00000
  70
    32
  0
VERTEX
  8
0
  5
3040
 10
79.0948
 20
97.8318
 30
0.00000
  70
    32
  0
VERTEX
  8
0
  5
3041
 10
79.1013
 20
97.8538
 30
0.00000
  70
    32
  0
VERTEX
  8
0
  5
3042
 10
79.1079
 20
97.8761
 30
0.00000
  70
    32
  0
VERTEX
  8
0
  5
3043
 10
79.1144
 20
97.8987
 30
0.00000
  70
    32
  0
VERTEX
  8
0
  5
3044
 10
79.1210
 20
97.9216
 30
0.00000
  70
    32
  0
VERTEX
  8
0
  5
3045
 10
79.1275
 20
97.9448
 30
0.00000
  70
    32
  0
VERTEX
  8
0
  5
3046
 10
79.1340
 20
97.9683
 30
0.00000
  70
    32
  0
VERTEX
  8
0
  5
3047
 10
79.1406
 20
97.9920
 30
0.00000
  70
    32
  0
VERTEX
  8
0
  5
3048
 10
79.1471
 20
98.0161
 30
0.00000
  70
    32
  0
VERTEX
  8
0
  5
3049
 10
79.1536
 20
98.0404
 30
0.00000
  70
    32
  0
VERTEX
  8
0
  5
304A
 10
79.1602
 20
98.0650
 30
0.00000
  70
    32
  0
VERTEX
  8
0
  5
304B
 10
79.1667
 20
98.0899
 30
0.00000
  70
    32
  0
VERTEX
  8
0
  5
304C
 10
79.1732
 20
98.1151
 30
0.00000
  70
    32
  0
VERTEX
  8
0
  5
304D
 10
79.1797
 20
98.1406
 30
0.00000
  70
    32
  0
VERTEX
  8
0
  5
304E
 10
79.1863
 20
98.1664
 30
0.00000
  70
    32
  0
VERTEX
  8
0
  5
304F
 10
79.1928
 20
98.1925
 30
0.00000
  70
    32
  0
VERTEX
  8
0
  5
3050
 10
79.1993
 20
98.2188
 30
0.00000
  70
    32
  0
VERTEX
  8
0
  5
3051
 10
79.2058
 20
98.2454
 30
0.00000
  70
    32
  0
VERTEX
  8
0
  5
3052
 10
79.2123
 20
98.2724
 30
0.00000
  70
    32
  0
VERTEX
  8
0
  5
3053
 10
79.2188
 20
98.2996
 30
0.00000
  70
    32
  0
VERTEX
  8
0
  5
3054
 10
79.2253
 20
98.3271
 30
0.00000
  70
    32
  0
VERTEX
  8
0
  5
3055
 10
79.2318
 20
98.3549
 30
0.00000
  70
    32
  0
VERTEX
  8
0
  5
3056
 10
79.2383
 20
98.3830
 30
0.00000
  70
    32
  0
VERTEX
  8
0
  5
3057
 10
79.2448
 20
98.4113
 30
0.00000
  70
    32
  0
VERTEX
  8
0
  5
3058
 10
79.2513
 20
98.4400
 30
0.00000
  70
    32
  0
VERTEX
  8
0
  5
3059
 10
79.2578
 20
98.4689
 30
0.00000
  70
    32
  0
VERTEX
  8
0
  5
305A
 10
79.2643
 20
98.4981
 30
0.00000
  70
    32
  0
VERTEX
  8
0
  5
305B
 10
79.2708
 20
98.5277
 30
0.00000
  70
    32
  0
VERTEX
  8
0
  5
305C
 10
79.2773
 20
98.5575
 30
0.00000
  70
    32
  0
VERTEX
  8
0
  5
305D
 10
79.2838
 20
98.5875
 30
0.00000
  70
    32
  0
VERTEX
  8
0
  5
305E
 10
79.2903
 20
98.6179
 30
0.00000
  70
    32
  0
VERTEX
  8
0
  5
305F
 10
79.2967
 20
98.6486
 30
0.00000
  70
    32
  0
VERTEX
  8
0
  5
3060
 10
79.3032
 20
98.6795
 30
0.00000
  70
    32
  0
VERTEX
  8
0
  5
3061
 10
79.3097
 20
98.7108
 30
0.00000
  70
    32
  0
VERTEX
  8
0
  5
3062
 10
79.3162
 20
98.7423
 30
0.00000
  70
    32
  0
VERTEX
  8
0
  5
3063
 10
79.3226
 20
98.7741
 30
0.00000
  70
    32
  0
VERTEX
  8
0
  5
3064
 10
79.3291
 20
98.8062
 30
0.00000
  70
    32
  0
VERTEX
  8
0
  5
3065
 10
79.3355
 20
98.8386
 30
0.00000
  70
    32
  0
VERTEX
  8
0
  5
3066
 10
79.3420
 20
98.8712
 30
0.00000
  70
    32
  0
VERTEX
  8
0
  5
3067
 10
79.3485
 20
98.9042
 30
0.00000
  70
    32
  0
VERTEX
  8
0
  5
3068
 10
79.3549
 20
98.9374
 30
0.00000
  70
    32
  0
VERTEX
  8
0
  5
3069
 10
79.3614
 20
98.9709
 30
0.00000
  70
    32
  0
VERTEX
  8
0
  5
306A
 10
79.3678
 20
99.0047
 30
0.00000
  70
    32
  0
VERTEX
  8
0
  5
306B
 10
79.3743
 20
99.0388
 30
0.00000
  70
    32
  0
VERTEX
  8
0
  5
306C
 10
79.3807
 20
99.0732
 30
0.00000
  70
    32
  0
VERTEX
  8
0
  5
306D
 10
79.3871
 20
99.1078
 30
0.00000
  70
    32
  0
VERTEX
  8
0
  5
306E
 10
79.3936
 20
99.1428
 30
0.00000
  70
    32
  0
VERTEX
  8
0
  5
306F
 10
79.4000
 20
99.1780
 30
0.00000
  70
    32
  0
VERTEX
  8
0
  5
3070
 10
79.4064
 20
99.2135
 30
0.00000
  70
    32
  0
VERTEX
  8
0
  5
3071
 10
79.4129
 20
99.2493
 30
0.00000
  70
    32
  0
VERTEX
  8
0
  5
3072
 10
79.4193
 20
99.2854
 30
0.00000
  70
    32
  0
VERTEX
  8
0
  5
3073
 10
79.4257
 20
99.3217
 30
0.00000
  70
    32
  0
VERTEX
  8
0
  5
3074
 10
79.4321
 20
99.3584
 30
0.00000
  70
    32
  0
VERTEX
  8
0
  5
3075
 10
79.4385
 20
99.3953
 30
0.00000
  70
    32
  0
SEQEND
  8
0
  5
3076
  0
POLYLINE
  5
2D40
  8
0
 10
54.0284268189227035
 20
89.5756906461844267
 30
0.0
 66
     1
 70
     8
  0
VERTEX
  8
0
  5
3077
 10
54.0284
 20
89.5757
 30
0.00000
  70
    32
  0
VERTEX
  8
0
  5
3078
 10
54.0329
 20
89.5601
 30
0.00000
  70
    32
  0
VERTEX
  8
0
  5
3079
 10
54.0373
 20
89.5446
 30
0.00000
  70
    32
  0
VERTEX
  8
0
  5
307A
 10
54.0417
 20
89.5292
 30
0.00000
  70
    32
  0
VERTEX
  8
0
  5
307B
 10
54.0461
 20
89.5141
 30
0.00000
  70
    32
  0
VERTEX
  8
0
  5
307C
 10
54.0506
 20
89.4990
 30
0.00000
  70
    32
  0
VERTEX
  8
0
  5
307D
 10
54.0550
 20
89.4842
 30
0.00000
  70
    32
  0
VERTEX
  8
0
  5
307E
 10
54.0594
 20
89.4694
 30
0.00000
  70
    32
  0
VERTEX
  8
0
  5
307F
 10
54.0639
 20
89.4549
 30
0.00000
  70
    32
  0
VERTEX
  8
0
  5
3080
 10
54.0683
 20
89.4404
 30
0.00000
  70
    32
  0
VERTEX
  8
0
  5
3081
 10
54.0727
 20
89.4262
 30
0.00000
  70
    32
  0
VERTEX
  8
0
  5
3082
 10
54.0772
 20
89.4121
 30
0.00000
  70
    32
  0
VERTEX
  8
0
  5
3083
 10
54.0816
 20
89.3981
 30
0.00000
  70
    32
  0
VERTEX
  8
0
  5
3084
 10
54.0860
 20
89.3843
 30
0.00000
  70
    32
  0
VERTEX
  8
0
  5
3085
 10
54.0905
 20
89.3706
 30
0.00000
  70
    32
  0
VERTEX
  8
0
  5
3086
 10
54.0949
 20
89.3571
 30
0.00000
  70
    32
  0
VERTEX
  8
0
  5
3087
 10
54.0994
 20
89.3438
 30
0.00000
  70
    32
  0
VERTEX
  8
0
  5
3088
 10
54.1038
 20
89.3306
 30
0.00000
  70
    32
  0
VERTEX
  8
0
  5
3089
 10
54.1082
 20
89.3176
 30
0.00000
  70
    32
  0
VERTEX
  8
0
  5
308A
 10
54.1127
 20
89.3047
 30
0.00000
  70
    32
  0
VERTEX
  8
0
  5
308B
 10
54.1171
 20
89.2919
 30
0.00000
  70
    32
  0
VERTEX
  8
0
  5
308C
 10
54.1216
 20
89.2794
 30
0.00000
  70
    32
  0
VERTEX
  8
0
  5
308D
 10
54.1260
 20
89.2669
 30
0.00000
  70
    32
  0
VERTEX
  8
0
  5
308E
 10
54.1305
 20
89.2546
 30
0.00000
  70
    32
  0
VERTEX
  8
0
  5
308F
 10
54.1349
 20
89.2425
 30
0.00000
  70
    32
  0
VERTEX
  8
0
  5
3090
 10
54.1394
 20
89.2305
 30
0.00000
  70
    32
  0
VERTEX
  8
0
  5
3091
 10
54.1438
 20
89.2187
 30
0.00000
  70
    32
  0
VERTEX
  8
0
  5
3092
 10
54.1483
 20
89.2071
 30
0.00000
  70
    32
  0
VERTEX
  8
0
  5
3093
 10
54.1527
 20
89.1955
 30
0.00000
  70
    32
  0
VERTEX
  8
0
  5
3094
 10
54.1572
 20
89.1842
 30
0.00000
  70
    32
  0
VERTEX
  8
0
  5
3095
 10
54.1616
 20
89.1730
 30
0.00000
  70
    32
  0
VERTEX
  8
0
  5
3096
 10
54.1661
 20
89.1619
 30
0.00000
  70
    32
  0
VERTEX
  8
0
  5
3097
 10
54.1705
 20
89.1510
 30
0.00000
  70
    32
  0
VERTEX
  8
0
  5
3098
 10
54.1750
 20
89.1403
 30
0.00000
  70
    32
  0
VERTEX
  8
0
  5
3099
 10
54.1794
 20
89.1297
 30
0.00000
  70
    32
  0
VERTEX
  8
0
  5
309A
 10
54.1839
 20
89.1192
 30
0.00000
  70
    32
  0
VERTEX
  8
0
  5
309B
 10
54.1883
 20
89.1090
 30
0.00000
  70
    32
  0
VERTEX
  8
0
  5
309C
 10
54.1928
 20
89.0988
 30
0.00000
  70
    32
  0
VERTEX
  8
0
  5
309D
 10
54.1973
 20
89.0888
 30
0.00000
  70
    32
  0
VERTEX
  8
0
  5
309E
 10
54.2017
 20
89.0790
 30
0.00000
  70
    32
  0
VERTEX
  8
0
  5
309F
 10
54.2062
 20
89.0693
 30
0.00000
  70
    32
  0
VERTEX
  8
0
  5
30A0
 10
54.2106
 20
89.0598
 30
0.00000
  70
    32
  0
VERTEX
  8
0
  5
30A1
 10
54.2151
 20
89.0505
 30
0.00000
  70
    32
  0
VERTEX
  8
0
  5
30A2
 10
54.2196
 20
89.0412
 30
0.00000
  70
    32
  0
VERTEX
  8
0
  5
30A3
 10
54.2240
 20
89.0322
 30
0.00000
  70
    32
  0
VERTEX
  8
0
  5
30A4
 10
54.2285
 20
89.0233
 30
0.00000
  70
    32
  0
VERTEX
  8
0
  5
30A5
 10
54.2329
 20
89.0145
 30
0.00000
  70
    32
  0
VERTEX
  8
0
  5
30A6
 10
54.2374
 20
89.0059
 30
0.00000
  70
    32
  0
VERTEX
  8
0
  5
30A7
 10
54.2419
 20
88.9975
 30
0.00000
  70
    32
  0
VERTEX
  8
0
  5
30A8
 10
54.2463
 20
88.9892
 30
0.00000
  70
    32
  0
VERTEX
  8
0
  5
30A9
 10
54.2508
 20
88.9811
 30
0.00000
  70
    32
  0
VERTEX
  8
0
  5
30AA
 10
54.2553
 20
88.9731
 30
0.00000
  70
    32
  0
VERTEX
  8
0
  5
30AB
 10
54.2597
 20
88.9652
 30
0.00000
  70
    32
  0
VERTEX
  8
0
  5
30AC
 10
54.2642
 20
88.9576
 30
0.00000
  70
    32
  0
VERTEX
  8
0
  5
30AD
 10
54.2687
 20
88.9500
 30
0.00000
  70
    32
  0
VERTEX
  8
0
  5
30AE
 10
54.2731
 20
88.9427
 30
0.00000
  70
    32
  0
VERTEX
  8
0
  5
30AF
 10
54.2776
 20
88.9355
 30
0.00000
  70
    32
  0
VERTEX
  8
0
  5
30B0
 10
54.2821
 20
88.9284
 30
0.00000
  70
    32
  0
VERTEX
  8
0
  5
30B1
 10
54.2866
 20
88.9215
 30
0.00000
  70
    32
  0
VERTEX
  8
0
  5
30B2
 10
54.2910
 20
88.9147
 30
0.00000
  70
    32
  0
VERTEX
  8
0
  5
30B3
 10
54.2955
 20
88.9081
 30
0.00000
  70
    32
  0
VERTEX
  8
0
  5
30B4
 10
54.3000
 20
88.9017
 30
0.00000
  70
    32
  0
VERTEX
  8
0
  5
30B5
 10
54.3044
 20
88.8954
 30
0.00000
  70
    32
  0
VERTEX
  8
0
  5
30B6
 10
54.3089
 20
88.8893
 30
0.00000
  70
    32
  0
VERTEX
  8
0
  5
30B7
 10
54.3134
 20
88.8833
 30
0.00000
  70
    32
  0
VERTEX
  8
0
  5
30B8
 10
54.3179
 20
88.8775
 30
0.00000
  70
    32
  0
VERTEX
  8
0
  5
30B9
 10
54.3223
 20
88.8718
 30
0.00000
  70
    32
  0
VERTEX
  8
0
  5
30BA
 10
54.3268
 20
88.8663
 30
0.00000
  70
    32
  0
VERTEX
  8
0
  5
30BB
 10
54.3313
 20
88.8609
 30
0.00000
  70
    32
  0
VERTEX
  8
0
  5
30BC
 10
54.3357
 20
88.8557
 30
0.00000
  70
    32
  0
VERTEX
  8
0
  5
30BD
 10
54.3402
 20
88.8506
 30
0.00000
  70
    32
  0
VERTEX
  8
0
  5
30BE
 10
54.3447
 20
88.8457
 30
0.00000
  70
    32
  0
VERTEX
  8
0
  5
30BF
 10
54.3492
 20
88.8409
 30
0.00000
  70
    32
  0
VERTEX
  8
0
  5
30C0
 10
54.3537
 20
88.8363
 30
0.00000
  70
    32
  0
VERTEX
  8
0
  5
30C1
 10
54.3581
 20
88.8319
 30
0.00000
  70
    32
  0
VERTEX
  8
0
  5
30C2
 10
54.3626
 20
88.8276
 30
0.00000
  70
    32
  0
VERTEX
  8
0
  5
30C3
 10
54.3671
 20
88.8235
 30
0.00000
  70
    32
  0
VERTEX
  8
0
  5
30C4
 10
54.3716
 20
88.8195
 30
0.00000
  70
    32
  0
VERTEX
  8
0
  5
30C5
 10
54.3760
 20
88.8157
 30
0.00000
  70
    32
  0
VERTEX
  8
0
  5
30C6
 10
54.3805
 20
88.8120
 30
0.00000
  70
    32
  0
VERTEX
  8
0
  5
30C7
 10
54.3850
 20
88.8085
 30
0.00000
  70
    32
  0
VERTEX
  8
0
  5
30C8
 10
54.3895
 20
88.8051
 30
0.00000
  70
    32
  0
VERTEX
  8
0
  5
30C9
 10
54.3939
 20
88.8019
 30
0.00000
  70
    32
  0
VERTEX
  8
0
  5
30CA
 10
54.3984
 20
88.7988
 30
0.00000
  70
    32
  0
VERTEX
  8
0
  5
30CB
 10
54.4029
 20
88.7959
 30
0.00000
  70
    32
  0
VERTEX
  8
0
  5
30CC
 10
54.4074
 20
88.7932
 30
0.00000
  70
    32
  0
VERTEX
  8
0
  5
30CD
 10
54.4119
 20
88.7906
 30
0.00000
  70
    32
  0
VERTEX
  8
0
  5
30CE
 10
54.4163
 20
88.7881
 30
0.00000
  70
    32
  0
VERTEX
  8
0
  5
30CF
 10
54.4208
 20
88.7859
 30
0.00000
  70
    32
  0
VERTEX
  8
0
  5
30D0
 10
54.4253
 20
88.7837
 30
0.00000
  70
    32
  0
VERTEX
  8
0
  5
30D1
 10
54.4298
 20
88.7817
 30
0.00000
  70
    32
  0
VERTEX
  8
0
  5
30D2
 10
54.4343
 20
88.7799
 30
0.00000
  70
    32
  0
VERTEX
  8
0
  5
30D3
 10
54.4387
 20
88.7782
 30
0.00000
  70
    32
  0
VERTEX
  8
0
  5
30D4
 10
54.4432
 20
88.7767
 30
0.00000
  70
    32
  0
VERTEX
  8
0
  5
30D5
 10
54.4477
 20
88.7754
 30
0.00000
  70
    32
  0
VERTEX
  8
0
  5
30D6
 10
54.4522
 20
88.7742
 30
0.00000
  70
    32
  0
VERTEX
  8
0
  5
30D7
 10
54.4567
 20
88.7731
 30
0.00000
  70
    32
  0
VERTEX
  8
0
  5
30D8
 10
54.4611
 20
88.7722
 30
0.00000
  70
    32
  0
VERTEX
  8
0
  5
30D9
 10
54.4656
 20
88.7715
 30
0.00000
  70
    32
  0
VERTEX
  8
0
  5
30DA
 10
54.4701
 20
88.7709
 30
0.00000
  70
    32
  0
VERTEX
  8
0
  5
30DB
 10
54.4746
 20
88.7704
 30
0.00000
  70
    32
  0
VERTEX
  8
0
  5
30DC
 10
54.4791
 20
88.7701
 30
0.00000
  70
    32
  0
VERTEX
  8
0
  5
30DD
 10
54.4835
 20
88.7700
 30
0.00000
  70
    32
  0
VERTEX
  8
0
  5
30DE
 10
54.4880
 20
88.7700
 30
0.00000
  70
    32
  0
VERTEX
  8
0
  5
30DF
 10
54.4925
 20
88.7702
 30
0.00000
  70
    32
  0
VERTEX
  8
0
  5
30E0
 10
54.4970
 20
88.7705
 30
0.00000
  70
    32
  0
VERTEX
  8
0
  5
30E1
 10
54.5015
 20
88.7710
 30
0.00000
  70
    32
  0
VERTEX
  8
0
  5
30E2
 10
54.5059
 20
88.7717
 30
0.00000
  70
    32
  0
VERTEX
  8
0
  5
30E3
 10
54.5104
 20
88.7725
 30
0.00000
  70
    32
  0
VERTEX
  8
0
  5
30E4
 10
54.5149
 20
88.7734
 30
0.00000
  70
    32
  0
VERTEX
  8
0
  5
30E5
 10
54.5194
 20
88.7745
 30
0.00000
  70
    32
  0
VERTEX
  8
0
  5
30E6
 10
54.5239
 20
88.7758
 30
0.00000
  70
    32
  0
VERTEX
  8
0
  5
30E7
 10
54.5283
 20
88.7772
 30
0.00000
  70
    32
  0
VERTEX
  8
0
  5
30E8
 10
54.5328
 20
88.7788
 30
0.00000
  70
    32
  0
VERTEX
  8
0
  5
30E9
 10
54.5373
 20
88.7805
 30
0.00000
  70
    32
  0
VERTEX
  8
0
  5
30EA
 10
54.5418
 20
88.7824
 30
0.00000
  70
    32
  0
VERTEX
  8
0
  5
30EB
 10
54.5463
 20
88.7844
 30
0.00000
  70
    32
  0
VERTEX
  8
0
  5
30EC
 10
54.5507
 20
88.7866
 30
0.00000
  70
    32
  0
VERTEX
  8
0
  5
30ED
 10
54.5552
 20
88.7889
 30
0.00000
  70
    32
  0
VERTEX
  8
0
  5
30EE
 10
54.5597
 20
88.7914
 30
0.00000
  70
    32
  0
VERTEX
  8
0
  5
30EF
 10
54.5642
 20
88.7940
 30
0.00000
  70
    32
  0
VERTEX
  8
0
  5
30F0
 10
54.5687
 20
88.7968
 30
0.00000
  70
    32
  0
VERTEX
  8
0
  5
30F1
 10
54.5731
 20
88.7998
 30
0.00000
  70
    32
  0
VERTEX
  8
0
  5
30F2
 10
54.5776
 20
88.8029
 30
0.00000
  70
    32
  0
VERTEX
  8
0
  5
30F3
 10
54.5821
 20
88.8062
 30
0.00000
  70
    32
  0
VERTEX
  8
0
  5
30F4
 10
54.5866
 20
88.8096
 30
0.00000
  70
    32
  0
VERTEX
  8
0
  5
30F5
 10
54.5910
 20
88.8131
 30
0.00000
  70
    32
  0
VERTEX
  8
0
  5
30F6
 10
54.5955
 20
88.8169
 30
0.00000
  70
    32
  0
VERTEX
  8
0
  5
30F7
 10
54.6000
 20
88.8207
 30
0.00000
  70
    32
  0
SEQEND
  8
0
  5
30F8
  0
POLYLINE
  5
2D41
  8
0
 10
78.5999999998650054
 20
88.8207486591890216
 30
0.0
 66
     1
 70
     8
  0
VERTEX
  8
0
  5
30F9
 10
78.6000
 20
88.8207
 30
0.00000
  70
    32
  0
VERTEX
  8
0
  5
30FA
 10
78.6045
 20
88.8169
 30
0.00000
  70
    32
  0
VERTEX
  8
0
  5
30FB
 10
78.6090
 20
88.8131
 30
0.00000
  70
    32
  0
VERTEX
  8
0
  5
30FC
 10
78.6134
 20
88.8096
 30
0.00000
  70
    32
  0
VERTEX
  8
0
  5
30FD
 10
78.6179
 20
88.8062
 30
0.00000
  70
    32
  0
VERTEX
  8
0
  5
30FE
 10
78.6224
 20
88.8029
 30
0.00000
  70
    32
  0
VERTEX
  8
0
  5
30FF
 10
78.6269
 20
88.7998
 30
0.00000
  70
    32
  0
VERTEX
  8
0
  5
3100
 10
78.6313
 20
88.7968
 30
0.00000
  70
    32
  0
VERTEX
  8
0
  5
3101
 10
78.6358
 20
88.7940
 30
0.00000
  70
    32
  0
VERTEX
  8
0
  5
3102
 10
78.6403
 20
88.7914
 30
0.00000
  70
    32
  0
VERTEX
  8
0
  5
3103
 10
78.6448
 20
88.7889
 30
0.00000
  70
    32
  0
VERTEX
  8
0
  5
3104
 10
78.6493
 20
88.7866
 30
0.00000
  70
    32
  0
VERTEX
  8
0
  5
3105
 10
78.6537
 20
88.7844
 30
0.00000
  70
    32
  0
VERTEX
  8
0
  5
3106
 10
78.6582
 20
88.7824
 30
0.00000
  70
    32
  0
VERTEX
  8
0
  5
3107
 10
78.6627
 20
88.7805
 30
0.00000
  70
    32
  0
VERTEX
  8
0
  5
3108
 10
78.6672
 20
88.7788
 30
0.00000
  70
    32
  0
VERTEX
  8
0
  5
3109
 10
78.6717
 20
88.7772
 30
0.00000
  70
    32
  0
VERTEX
  8
0
  5
310A
 10
78.6761
 20
88.7758
 30
0.00000
  70
    32
  0
VERTEX
  8
0
  5
310B
 10
78.6806
 20
88.7745
 30
0.00000
  70
    32
  0
VERTEX
  8
0
  5
310C
 10
78.6851
 20
88.7734
 30
0.00000
  70
    32
  0
VERTEX
  8
0
  5
310D
 10
78.6896
 20
88.7725
 30
0.00000
  70
    32
  0
VERTEX
  8
0
  5
310E
 10
78.6941
 20
88.7717
 30
0.00000
  70
    32
  0
VERTEX
  8
0
  5
310F
 10
78.6985
 20
88.7710
 30
0.00000
  70
    32
  0
VERTEX
  8
0
  5
3110
 10
78.7030
 20
88.7705
 30
0.00000
  70
    32
  0
VERTEX
  8
0
  5
3111
 10
78.7075
 20
88.7702
 30
0.00000
  70
    32
  0
VERTEX
  8
0
  5
3112
 10
78.7120
 20
88.7700
 30
0.00000
  70
    32
  0
VERTEX
  8
0
  5
3113
 10
78.7165
 20
88.7700
 30
0.00000
  70
    32
  0
VERTEX
  8
0
  5
3114
 10
78.7209
 20
88.7701
 30
0.00000
  70
    32
  0
VERTEX
  8
0
  5
3115
 10
78.7254
 20
88.7704
 30
0.00000
  70
    32
  0
VERTEX
  8
0
  5
3116
 10
78.7299
 20
88.7709
 30
0.00000
  70
    32
  0
VERTEX
  8
0
  5
3117
 10
78.7344
 20
88.7715
 30
0.00000
  70
    32
  0
VERTEX
  8
0
  5
3118
 10
78.7389
 20
88.7722
 30
0.00000
  70
    32
  0
VERTEX
  8
0
  5
3119
 10
78.7433
 20
88.7731
 30
0.00000
  70
    32
  0
VERTEX
  8
0
  5
311A
 10
78.7478
 20
88.7742
 30
0.00000
  70
    32
  0
VERTEX
  8
0
  5
311B
 10
78.7523
 20
88.7754
 30
0.00000
  70
    32
  0
VERTEX
  8
0
  5
311C
 10
78.7568
 20
88.7767
 30
0.00000
  70
    32
  0
VERTEX
  8
0
  5
311D
 10
78.7613
 20
88.7782
 30
0.00000
  70
    32
  0
VERTEX
  8
0
  5
311E
 10
78.7657
 20
88.7799
 30
0.00000
  70
    32
  0
VERTEX
  8
0
  5
311F
 10
78.7702
 20
88.7817
 30
0.00000
  70
    32
  0
VERTEX
  8
0
  5
3120
 10
78.7747
 20
88.7837
 30
0.00000
  70
    32
  0
VERTEX
  8
0
  5
3121
 10
78.7792
 20
88.7859
 30
0.00000
  70
    32
  0
VERTEX
  8
0
  5
3122
 10
78.7837
 20
88.7881
 30
0.00000
  70
    32
  0
VERTEX
  8
0
  5
3123
 10
78.7881
 20
88.7906
 30
0.00000
  70
    32
  0
VERTEX
  8
0
  5
3124
 10
78.7926
 20
88.7932
 30
0.00000
  70
    32
  0
VERTEX
  8
0
  5
3125
 10
78.7971
 20
88.7959
 30
0.00000
  70
    32
  0
VERTEX
  8
0
  5
3126
 10
78.8016
 20
88.7988
 30
0.00000
  70
    32
  0
VERTEX
  8
0
  5
3127
 10
78.8061
 20
88.8019
 30
0.00000
  70
    32
  0
VERTEX
  8
0
  5
3128
 10
78.8105
 20
88.8051
 30
0.00000
  70
    32
  0
VERTEX
  8
0
  5
3129
 10
78.8150
 20
88.8085
 30
0.00000
  70
    32
  0
VERTEX
  8
0
  5
312A
 10
78.8195
 20
88.8120
 30
0.00000
  70
    32
  0
VERTEX
  8
0
  5
312B
 10
78.8240
 20
88.8157
 30
0.00000
  70
    32
  0
VERTEX
  8
0
  5
312C
 10
78.8284
 20
88.8195
 30
0.00000
  70
    32
  0
VERTEX
  8
0
  5
312D
 10
78.8329
 20
88.8235
 30
0.00000
  70
    32
  0
VERTEX
  8
0
  5
312E
 10
78.8374
 20
88.8276
 30
0.00000
  70
    32
  0
VERTEX
  8
0
  5
312F
 10
78.8419
 20
88.8319
 30
0.00000
  70
    32
  0
VERTEX
  8
0
  5
3130
 10
78.8463
 20
88.8363
 30
0.00000
  70
    32
  0
VERTEX
  8
0
  5
3131
 10
78.8508
 20
88.8409
 30
0.00000
  70
    32
  0
VERTEX
  8
0
  5
3132
 10
78.8553
 20
88.8457
 30
0.00000
  70
    32
  0
VERTEX
  8
0
  5
3133
 10
78.8598
 20
88.8506
 30
0.00000
  70
    32
  0
VERTEX
  8
0
  5
3134
 10
78.8643
 20
88.8557
 30
0.00000
  70
    32
  0
VERTEX
  8
0
  5
3135
 10
78.8687
 20
88.8609
 30
0.00000
  70
    32
  0
VERTEX
  8
0
  5
3136
 10
78.8732
 20
88.8663
 30
0.00000
  70
    32
  0
VERTEX
  8
0
  5
3137
 10
78.8777
 20
88.8718
 30
0.00000
  70
    32
  0
VERTEX
  8
0
  5
3138
 10
78.8821
 20
88.8775
 30
0.00000
  70
    32
  0
VERTEX
  8
0
  5
3139
 10
78.8866
 20
88.8833
 30
0.00000
  70
    32
  0
VERTEX
  8
0
  5
313A
 10
78.8911
 20
88.8893
 30
0.00000
  70
    32
  0
VERTEX
  8
0
  5
313B
 10
78.8956
 20
88.8954
 30
0.00000
  70
    32
  0
VERTEX
  8
0
  5
313C
 10
78.9000
 20
88.9017
 30
0.00000
  70
    32
  0
VERTEX
  8
0
  5
313D
 10
78.9045
 20
88.9081
 30
0.00000
  70
    32
  0
VERTEX
  8
0
  5
313E
 10
78.9090
 20
88.9147
 30
0.00000
  70
    32
  0
VERTEX
  8
0
  5
313F
 10
78.9134
 20
88.9215
 30
0.00000
  70
    32
  0
VERTEX
  8
0
  5
3140
 10
78.9179
 20
88.9284
 30
0.00000
  70
    32
  0
VERTEX
  8
0
  5
3141
 10
78.9224
 20
88.9355
 30
0.00000
  70
    32
  0
VERTEX
  8
0
  5
3142
 10
78.9269
 20
88.9427
 30
0.00000
  70
    32
  0
VERTEX
  8
0
  5
3143
 10
78.9313
 20
88.9500
 30
0.00000
  70
    32
  0
VERTEX
  8
0
  5
3144
 10
78.9358
 20
88.9576
 30
0.00000
  70
    32
  0
VERTEX
  8
0
  5
3145
 10
78.9403
 20
88.9652
 30
0.00000
  70
    32
  0
VERTEX
  8
0
  5
3146
 10
78.9447
 20
88.9731
 30
0.00000
  70
    32
  0
VERTEX
  8
0
  5
3147
 10
78.9492
 20
88.9811
 30
0.00000
  70
    32
  0
VERTEX
  8
0
  5
3148
 10
78.9537
 20
88.9892
 30
0.00000
  70
    32
  0
VERTEX
  8
0
  5
3149
 10
78.9581
 20
88.9975
 30
0.00000
  70
    32
  0
VERTEX
  8
0
  5
314A
 10
78.9626
 20
89.0059
 30
0.00000
  70
    32
  0
VERTEX
  8
0
  5
314B
 10
78.9671
 20
89.0145
 30
0.00000
  70
    32
  0
VERTEX
  8
0
  5
314C
 10
78.9715
 20
89.0233
 30
0.00000
  70
    32
  0
VERTEX
  8
0
  5
314D
 10
78.9760
 20
89.0322
 30
0.00000
  70
    32
  0
VERTEX
  8
0
  5
314E
 10
78.9804
 20
89.0412
 30
0.00000
  70
    32
  0
VERTEX
  8
0
  5
314F
 10
78.9849
 20
89.0505
 30
0.00000
  70
    32
  0
VERTEX
  8
0
  5
3150
 10
78.9894
 20
89.0598
 30
0.00000
  70
    32
  0
VERTEX
  8
0
  5
3151
 10
78.9938
 20
89.0693
 30
0.00000
  70
    32
  0
VERTEX
  8
0
  5
3152
 10
78.9983
 20
89.0790
 30
0.00000
  70
    32
  0
VERTEX
  8
0
  5
3153
 10
79.0027
 20
89.0888
 30
0.00000
  70
    32
  0
VERTEX
  8
0
  5
3154
 10
79.0072
 20
89.0988
 30
0.00000
  70
    32
  0
VERTEX
  8
0
  5
3155
 10
79.0117
 20
89.1090
 30
0.00000
  70
    32
  0
VERTEX
  8
0
  5
3156
 10
79.0161
 20
89.1192
 30
0.00000
  70
    32
  0
VERTEX
  8
0
  5
3157
 10
79.0206
 20
89.1297
 30
0.00000
  70
    32
  0
VERTEX
  8
0
  5
3158
 10
79.0250
 20
89.1403
 30
0.00000
  70
    32
  0
VERTEX
  8
0
  5
3159
 10
79.0295
 20
89.1510
 30
0.00000
  70
    32
  0
VERTEX
  8
0
  5
315A
 10
79.0339
 20
89.1619
 30
0.00000
  70
    32
  0
VERTEX
  8
0
  5
315B
 10
79.0384
 20
89.1730
 30
0.00000
  70
    32
  0
VERTEX
  8
0
  5
315C
 10
79.0428
 20
89.1842
 30
0.00000
  70
    32
  0
VERTEX
  8
0
  5
315D
 10
79.0473
 20
89.1955
 30
0.00000
  70
    32
  0
VERTEX
  8
0
  5
315E
 10
79.0517
 20
89.2071
 30
0.00000
  70
    32
  0
VERTEX
  8
0
  5
315F
 10
79.0562
 20
89.2187
 30
0.00000
  70
    32
  0
VERTEX
  8
0
  5
3160
 10
79.0606
 20
89.2305
 30
0.00000
  70
    32
  0
VERTEX
  8
0
  5
3161
 10
79.0651
 20
89.2425
 30
0.00000
  70
    32
  0
VERTEX
  8
0
  5
3162
 10
79.0695
 20
89.2546
 30
0.00000
  70
    32
  0
VERTEX
  8
0
  5
3163
 10
79.0740
 20
89.2669
 30
0.00000
  70
    32
  0
VERTEX
  8
0
  5
3164
 10
79.0784
 20
89.2794
 30
0.00000
  70
    32
  0
VERTEX
  8
0
  5
3165
 10
79.0829
 20
89.2919
 30
0.00000
  70
    32
  0
VERTEX
  8
0
  5
3166
 10
79.0873
 20
89.3047
 30
0.00000
  70
    32
  0
VERTEX
  8
0
  5
3167
 10
79.0918
 20
89.3176
 30
0.00000
  70
    32
  0
VERTEX
  8
0
  5
3168
 10
79.0962
 20
89.3306
 30
0.00000
  70
    32
  0
VERTEX
  8
0
  5
3169
 10
79.1006
 20
89.3438
 30
0.00000
  70
    32
  0
VERTEX
  8
0
  5
316A
 10
79.1051
 20
89.3571
 30
0.00000
  70
    32
  0
VERTEX
  8
0
  5
316B
 10
79.1095
 20
89.3706
 30
0.00000
  70
    32
  0
VERTEX
  8
0
  5
316C
 10
79.1140
 20
89.3843
 30
0.00000
  70
    32
  0
VERTEX
  8
0
  5
316D
 10
79.1184
 20
89.3981
 30
0.00000
  70
    32
  0
VERTEX
  8
0
  5
316E
 10
79.1228
 20
89.4121
 30
0.00000
  70
    32
  0
VERTEX
  8
0
  5
316F
 10
79.1273
 20
89.4262
 30
0.00000
  70
    32
  0
VERTEX
  8
0
  5
3170
 10
79.1317
 20
89.4404
 30
0.00000
  70
    32
  0
VERTEX
  8
0
  5
3171
 10
79.1361
 20
89.4549
 30
0.00000
  70
    32
  0
VERTEX
  8
0
  5
3172
 10
79.1406
 20
89.4694
 30
0.00000
  70
    32
  0
VERTEX
  8
0
  5
3173
 10
79.1450
 20
89.4842
 30
0.00000
  70
    32
  0
VERTEX
  8
0
  5
3174
 10
79.1494
 20
89.4990
 30
0.00000
  70
    32
  0
VERTEX
  8
0
  5
3175
 10
79.1539
 20
89.5141
 30
0.00000
  70
    32
  0
VERTEX
  8
0
  5
3176
 10
79.1583
 20
89.5292
 30
0.00000
  70
    32
  0
VERTEX
  8
0
  5
3177
 10
79.1627
 20
89.5446
 30
0.00000
  70
    32
  0
VERTEX
  8
0
  5
3178
 10
79.1671
 20
89.5601
 30
0.00000
  70
    32
  0
VERTEX
  8
0
  5
3179
 10
79.1716
 20
89.5757
 30
0.00000
  70
    32
  0
SEQEND
  8
0
  5
317A
  0
POLYLINE
  5
2D42
  8
0
 10
54.028426818921929
 20
89.5756906461886899
 30
0.0
 66
     1
 70
     8
  0
VERTEX
  8
0
  5
317B
 10
54.0284
 20
89.5757
 30
0.00000
  70
    32
  0
VERTEX
  8
0
  5
317C
 10
54.0251
 20
89.5933
 30
0.00000
  70
    32
  0
VERTEX
  8
0
  5
317D
 10
54.0218
 20
89.6109
 30
0.00000
  70
    32
  0
VERTEX
  8
0
  5
317E
 10
54.0185
 20
89.6284
 30
0.00000
  70
    32
  0
VERTEX
  8
0
  5
317F
 10
54.0152
 20
89.6458
 30
0.00000
  70
    32
  0
VERTEX
  8
0
  5
3180
 10
54.0119
 20
89.6630
 30
0.00000
  70
    32
  0
VERTEX
  8
0
  5
3181
 10
54.0086
 20
89.6803
 30
0.00000
  70
    32
  0
VERTEX
  8
0
  5
3182
 10
54.0053
 20
89.6974
 30
0.00000
  70
    32
  0
VERTEX
  8
0
  5
3183
 10
54.0020
 20
89.7144
 30
0.00000
  70
    32
  0
VERTEX
  8
0
  5
3184
 10
53.9987
 20
89.7313
 30
0.00000
  70
    32
  0
VERTEX
  8
0
  5
3185
 10
53.9954
 20
89.7482
 30
0.00000
  70
    32
  0
VERTEX
  8
0
  5
3186
 10
53.9921
 20
89.7649
 30
0.00000
  70
    32
  0
VERTEX
  8
0
  5
3187
 10
53.9888
 20
89.7816
 30
0.00000
  70
    32
  0
VERTEX
  8
0
  5
3188
 10
53.9855
 20
89.7982
 30
0.00000
  70
    32
  0
VERTEX
  8
0
  5
3189
 10
53.9821
 20
89.8146
 30
0.00000
  70
    32
  0
VERTEX
  8
0
  5
318A
 10
53.9788
 20
89.8310
 30
0.00000
  70
    32
  0
VERTEX
  8
0
  5
318B
 10
53.9755
 20
89.8473
 30
0.00000
  70
    32
  0
VERTEX
  8
0
  5
318C
 10
53.9722
 20
89.8636
 30
0.00000
  70
    32
  0
VERTEX
  8
0
  5
318D
 10
53.9689
 20
89.8797
 30
0.00000
  70
    32
  0
VERTEX
  8
0
  5
318E
 10
53.9656
 20
89.8957
 30
0.00000
  70
    32
  0
VERTEX
  8
0
  5
318F
 10
53.9623
 20
89.9117
 30
0.00000
  70
    32
  0
VERTEX
  8
0
  5
3190
 10
53.9589
 20
89.9275
 30
0.00000
  70
    32
  0
VERTEX
  8
0
  5
3191
 10
53.9556
 20
89.9433
 30
0.00000
  70
    32
  0
VERTEX
  8
0
  5
3192
 10
53.9523
 20
89.9590
 30
0.00000
  70
    32
  0
VERTEX
  8
0
  5
3193
 10
53.9490
 20
89.9745
 30
0.00000
  70
    32
  0
VERTEX
  8
0
  5
3194
 10
53.9457
 20
89.9900
 30
0.00000
  70
    32
  0
VERTEX
  8
0
  5
3195
 10
53.9423
 20
90.0054
 30
0.00000
  70
    32
  0
VERTEX
  8
0
  5
3196
 10
53.9390
 20
90.0208
 30
0.00000
  70
    32
  0
VERTEX
  8
0
  5
3197
 10
53.9357
 20
90.0360
 30
0.00000
  70
    32
  0
VERTEX
  8
0
  5
3198
 10
53.9324
 20
90.0511
 30
0.00000
  70
    32
  0
VERTEX
  8
0
  5
3199
 10
53.9290
 20
90.0662
 30
0.00000
  70
    32
  0
VERTEX
  8
0
  5
319A
 10
53.9257
 20
90.0811
 30
0.00000
  70
    32
  0
VERTEX
  8
0
  5
319B
 10
53.9224
 20
90.0960
 30
0.00000
  70
    32
  0
VERTEX
  8
0
  5
319C
 10
53.9191
 20
90.1108
 30
0.00000
  70
    32
  0
VERTEX
  8
0
  5
319D
 10
53.9157
 20
90.1254
 30
0.00000
  70
    32
  0
VERTEX
  8
0
  5
319E
 10
53.9124
 20
90.1400
 30
0.00000
  70
    32
  0
VERTEX
  8
0
  5
319F
 10
53.9091
 20
90.1545
 30
0.00000
  70
    32
  0
VERTEX
  8
0
  5
31A0
 10
53.9057
 20
90.1689
 30
0.00000
  70
    32
  0
VERTEX
  8
0
  5
31A1
 10
53.9024
 20
90.1833
 30
0.00000
  70
    32
  0
VERTEX
  8
0
  5
31A2
 10
53.8991
 20
90.1975
 30
0.00000
  70
    32
  0
VERTEX
  8
0
  5
31A3
 10
53.8958
 20
90.2116
 30
0.00000
  70
    32
  0
VERTEX
  8
0
  5
31A4
 10
53.8924
 20
90.2257
 30
0.00000
  70
    32
  0
VERTEX
  8
0
  5
31A5
 10
53.8891
 20
90.2396
 30
0.00000
  70
    32
  0
VERTEX
  8
0
  5
31A6
 10
53.8857
 20
90.2535
 30
0.00000
  70
    32
  0
VERTEX
  8
0
  5
31A7
 10
53.8824
 20
90.2673
 30
0.00000
  70
    32
  0
VERTEX
  8
0
  5
31A8
 10
53.8791
 20
90.2810
 30
0.00000
  70
    32
  0
VERTEX
  8
0
  5
31A9
 10
53.8757
 20
90.2946
 30
0.00000
  70
    32
  0
VERTEX
  8
0
  5
31AA
 10
53.8724
 20
90.3081
 30
0.00000
  70
    32
  0
VERTEX
  8
0
  5
31AB
 10
53.8691
 20
90.3215
 30
0.00000
  70
    32
  0
VERTEX
  8
0
  5
31AC
 10
53.8657
 20
90.3348
 30
0.00000
  70
    32
  0
VERTEX
  8
0
  5
31AD
 10
53.8624
 20
90.3481
 30
0.00000
  70
    32
  0
VERTEX
  8
0
  5
31AE
 10
53.8590
 20
90.3612
 30
0.00000
  70
    32
  0
VERTEX
  8
0
  5
31AF
 10
53.8557
 20
90.3743
 30
0.00000
  70
    32
  0
VERTEX
  8
0
  5
31B0
 10
53.8524
 20
90.3872
 30
0.00000
  70
    32
  0
VERTEX
  8
0
  5
31B1
 10
53.8490
 20
90.4001
 30
0.00000
  70
    32
  0
VERTEX
  8
0
  5
31B2
 10
53.8457
 20
90.4129
 30
0.00000
  70
    32
  0
VERTEX
  8
0
  5
31B3
 10
53.8423
 20
90.4256
 30
0.00000
  70
    32
  0
VERTEX
  8
0
  5
31B4
 10
53.8390
 20
90.4382
 30
0.00000
  70
    32
  0
VERTEX
  8
0
  5
31B5
 10
53.8356
 20
90.4507
 30
0.00000
  70
    32
  0
VERTEX
  8
0
  5
31B6
 10
53.8323
 20
90.4631
 30
0.00000
  70
    32
  0
VERTEX
  8
0
  5
31B7
 10
53.8289
 20
90.4754
 30
0.00000
  70
    32
  0
VERTEX
  8
0
  5
31B8
 10
53.8256
 20
90.4876
 30
0.00000
  70
    32
  0
VERTEX
  8
0
  5
31B9
 10
53.8222
 20
90.4998
 30
0.00000
  70
    32
  0
VERTEX
  8
0
  5
31BA
 10
53.8189
 20
90.5118
 30
0.00000
  70
    32
  0
VERTEX
  8
0
  5
31BB
 10
53.8155
 20
90.5238
 30
0.00000
  70
    32
  0
VERTEX
  8
0
  5
31BC
 10
53.8122
 20
90.5357
 30
0.00000
  70
    32
  0
VERTEX
  8
0
  5
31BD
 10
53.8088
 20
90.5475
 30
0.00000
  70
    32
  0
VERTEX
  8
0
  5
31BE
 10
53.8055
 20
90.5592
 30
0.00000
  70
    32
  0
VERTEX
  8
0
  5
31BF
 10
53.8021
 20
90.5708
 30
0.00000
  70
    32
  0
VERTEX
  8
0
  5
31C0
 10
53.7988
 20
90.5823
 30
0.00000
  70
    32
  0
VERTEX
  8
0
  5
31C1
 10
53.7954
 20
90.5937
 30
0.00000
  70
    32
  0
VERTEX
  8
0
  5
31C2
 10
53.7921
 20
90.6050
 30
0.00000
  70
    32
  0
VERTEX
  8
0
  5
31C3
 10
53.7887
 20
90.6162
 30
0.00000
  70
    32
  0
VERTEX
  8
0
  5
31C4
 10
53.7854
 20
90.6274
 30
0.00000
  70
    32
  0
VERTEX
  8
0
  5
31C5
 10
53.7820
 20
90.6384
 30
0.00000
  70
    32
  0
VERTEX
  8
0
  5
31C6
 10
53.7786
 20
90.6494
 30
0.00000
  70
    32
  0
VERTEX
  8
0
  5
31C7
 10
53.7753
 20
90.6603
 30
0.00000
  70
    32
  0
VERTEX
  8
0
  5
31C8
 10
53.7719
 20
90.6711
 30
0.00000
  70
    32
  0
VERTEX
  8
0
  5
31C9
 10
53.7686
 20
90.6817
 30
0.00000
  70
    32
  0
VERTEX
  8
0
  5
31CA
 10
53.7652
 20
90.6923
 30
0.00000
  70
    32
  0
VERTEX
  8
0
  5
31CB
 10
53.7619
 20
90.7029
 30
0.00000
  70
    32
  0
VERTEX
  8
0
  5
31CC
 10
53.7585
 20
90.7133
 30
0.00000
  70
    32
  0
VERTEX
  8
0
  5
31CD
 10
53.7551
 20
90.7236
 30
0.00000
  70
    32
  0
VERTEX
  8
0
  5
31CE
 10
53.7518
 20
90.7338
 30
0.00000
  70
    32
  0
VERTEX
  8
0
  5
31CF
 10
53.7484
 20
90.7440
 30
0.00000
  70
    32
  0
VERTEX
  8
0
  5
31D0
 10
53.7450
 20
90.7540
 30
0.00000
  70
    32
  0
VERTEX
  8
0
  5
31D1
 10
53.7417
 20
90.7640
 30
0.00000
  70
    32
  0
VERTEX
  8
0
  5
31D2
 10
53.7383
 20
90.7738
 30
0.00000
  70
    32
  0
VERTEX
  8
0
  5
31D3
 10
53.7350
 20
90.7836
 30
0.00000
  70
    32
  0
VERTEX
  8
0
  5
31D4
 10
53.7316
 20
90.7933
 30
0.00000
  70
    32
  0
VERTEX
  8
0
  5
31D5
 10
53.7282
 20
90.8029
 30
0.00000
  70
    32
  0
VERTEX
  8
0
  5
31D6
 10
53.7249
 20
90.8124
 30
0.00000
  70
    32
  0
VERTEX
  8
0
  5
31D7
 10
53.7215
 20
90.8218
 30
0.00000
  70
    32
  0
VERTEX
  8
0
  5
31D8
 10
53.7181
 20
90.8311
 30
0.00000
  70
    32
  0
VERTEX
  8
0
  5
31D9
 10
53.7148
 20
90.8404
 30
0.00000
  70
    32
  0
VERTEX
  8
0
  5
31DA
 10
53.7114
 20
90.8495
 30
0.00000
  70
    32
  0
VERTEX
  8
0
  5
31DB
 10
53.7080
 20
90.8585
 30
0.00000
  70
    32
  0
VERTEX
  8
0
  5
31DC
 10
53.7047
 20
90.8675
 30
0.00000
  70
    32
  0
VERTEX
  8
0
  5
31DD
 10
53.7013
 20
90.8764
 30
0.00000
  70
    32
  0
VERTEX
  8
0
  5
31DE
 10
53.6979
 20
90.8851
 30
0.00000
  70
    32
  0
VERTEX
  8
0
  5
31DF
 10
53.6945
 20
90.8938
 30
0.00000
  70
    32
  0
VERTEX
  8
0
  5
31E0
 10
53.6912
 20
90.9024
 30
0.00000
  70
    32
  0
VERTEX
  8
0
  5
31E1
 10
53.6878
 20
90.9109
 30
0.00000
  70
    32
  0
VERTEX
  8
0
  5
31E2
 10
53.6844
 20
90.9193
 30
0.00000
  70
    32
  0
VERTEX
  8
0
  5
31E3
 10
53.6811
 20
90.9276
 30
0.00000
  70
    32
  0
VERTEX
  8
0
  5
31E4
 10
53.6777
 20
90.9358
 30
0.00000
  70
    32
  0
VERTEX
  8
0
  5
31E5
 10
53.6743
 20
90.9440
 30
0.00000
  70
    32
  0
VERTEX
  8
0
  5
31E6
 10
53.6709
 20
90.9520
 30
0.00000
  70
    32
  0
VERTEX
  8
0
  5
31E7
 10
53.6676
 20
90.9600
 30
0.00000
  70
    32
  0
VERTEX
  8
0
  5
31E8
 10
53.6642
 20
90.9678
 30
0.00000
  70
    32
  0
VERTEX
  8
0
  5
31E9
 10
53.6608
 20
90.9756
 30
0.00000
  70
    32
  0
VERTEX
  8
0
  5
31EA
 10
53.6574
 20
90.9833
 30
0.00000
  70
    32
  0
VERTEX
  8
0
  5
31EB
 10
53.6541
 20
90.9908
 30
0.00000
  70
    32
  0
VERTEX
  8
0
  5
31EC
 10
53.6507
 20
90.9983
 30
0.00000
  70
    32
  0
VERTEX
  8
0
  5
31ED
 10
53.6473
 20
91.0057
 30
0.00000
  70
    32
  0
VERTEX
  8
0
  5
31EE
 10
53.6439
 20
91.0130
 30
0.00000
  70
    32
  0
VERTEX
  8
0
  5
31EF
 10
53.6406
 20
91.0202
 30
0.00000
  70
    32
  0
VERTEX
  8
0
  5
31F0
 10
53.6372
 20
91.0274
 30
0.00000
  70
    32
  0
VERTEX
  8
0
  5
31F1
 10
53.6338
 20
91.0344
 30
0.00000
  70
    32
  0
VERTEX
  8
0
  5
31F2
 10
53.6304
 20
91.0413
 30
0.00000
  70
    32
  0
VERTEX
  8
0
  5
31F3
 10
53.6270
 20
91.0482
 30
0.00000
  70
    32
  0
VERTEX
  8
0
  5
31F4
 10
53.6237
 20
91.0550
 30
0.00000
  70
    32
  0
VERTEX
  8
0
  5
31F5
 10
53.6203
 20
91.0616
 30
0.00000
  70
    32
  0
VERTEX
  8
0
  5
31F6
 10
53.6169
 20
91.0682
 30
0.00000
  70
    32
  0
VERTEX
  8
0
  5
31F7
 10
53.6135
 20
91.0747
 30
0.00000
  70
    32
  0
VERTEX
  8
0
  5
31F8
 10
53.6101
 20
91.0811
 30
0.00000
  70
    32
  0
VERTEX
  8
0
  5
31F9
 10
53.6068
 20
91.0874
 30
0.00000
  70
    32
  0
VERTEX
  8
0
  5
31FA
 10
53.6034
 20
91.0936
 30
0.00000
  70
    32
  0
VERTEX
  8
0
  5
31FB
 10
53.6000
 20
91.0997
 30
0.00000
  70
    32
  0
SEQEND
  8
0
  5
31FC
  0
POLYLINE
  5
2D44
  8
0
 10
53.7614801074174053
 20
99.3953245424241345
 30
0.0
 66
     1
 70
     8
  0
VERTEX
  8
0
  5
31FD
 10
53.7615
 20
99.3953
 30
0.00000
  70
    32
  0
VERTEX
  8
0
  5
31FE
 10
53.7602
 20
99.4048
 30
0.00000
  70
    32
  0
VERTEX
  8
0
  5
31FF
 10
53.7590
 20
99.4142
 30
0.00000
  70
    32
  0
VERTEX
  8
0
  5
3200
 10
53.7577
 20
99.4236
 30
0.00000
  70
    32
  0
VERTEX
  8
0
  5
3201
 10
53.7565
 20
99.4331
 30
0.00000
  70
    32
  0
VERTEX
  8
0
  5
3202
 10
53.7553
 20
99.4424
 30
0.00000
  70
    32
  0
VERTEX
  8
0
  5
3203
 10
53.7540
 20
99.4518
 30
0.00000
  70
    32
  0
VERTEX
  8
0
  5
3204
 10
53.7528
 20
99.4612
 30
0.00000
  70
    32
  0
VERTEX
  8
0
  5
3205
 10
53.7515
 20
99.4705
 30
0.00000
  70
    32
  0
VERTEX
  8
0
  5
3206
 10
53.7503
 20
99.4798
 30
0.00000
  70
    32
  0
VERTEX
  8
0
  5
3207
 10
53.7490
 20
99.4891
 30
0.00000
  70
    32
  0
VERTEX
  8
0
  5
3208
 10
53.7478
 20
99.4984
 30
0.00000
  70
    32
  0
VERTEX
  8
0
  5
3209
 10
53.7465
 20
99.5076
 30
0.00000
  70
    32
  0
VERTEX
  8
0
  5
320A
 10
53.7453
 20
99.5169
 30
0.00000
  70
    32
  0
VERTEX
  8
0
  5
320B
 10
53.7440
 20
99.5261
 30
0.00000
  70
    32
  0
VERTEX
  8
0
  5
320C
 10
53.7428
 20
99.5353
 30
0.00000
  70
    32
  0
VERTEX
  8
0
  5
320D
 10
53.7415
 20
99.5445
 30
0.00000
  70
    32
  0
VERTEX
  8
0
  5
320E
 10
53.7403
 20
99.5537
 30
0.00000
  70
    32
  0
VERTEX
  8
0
  5
320F
 10
53.7390
 20
99.5628
 30
0.00000
  70
    32
  0
VERTEX
  8
0
  5
3210
 10
53.7378
 20
99.5719
 30
0.00000
  70
    32
  0
VERTEX
  8
0
  5
3211
 10
53.7365
 20
99.5810
 30
0.00000
  70
    32
  0
VERTEX
  8
0
  5
3212
 10
53.7353
 20
99.5901
 30
0.00000
  70
    32
  0
VERTEX
  8
0
  5
3213
 10
53.7340
 20
99.5992
 30
0.00000
  70
    32
  0
VERTEX
  8
0
  5
3214
 10
53.7328
 20
99.6083
 30
0.00000
  70
    32
  0
VERTEX
  8
0
  5
3215
 10
53.7315
 20
99.6173
 30
0.00000
  70
    32
  0
VERTEX
  8
0
  5
3216
 10
53.7303
 20
99.6263
 30
0.00000
  70
    32
  0
VERTEX
  8
0
  5
3217
 10
53.7290
 20
99.6353
 30
0.00000
  70
    32
  0
VERTEX
  8
0
  5
3218
 10
53.7278
 20
99.6443
 30
0.00000
  70
    32
  0
VERTEX
  8
0
  5
3219
 10
53.7265
 20
99.6533
 30
0.00000
  70
    32
  0
VERTEX
  8
0
  5
321A
 10
53.7253
 20
99.6622
 30
0.00000
  70
    32
  0
VERTEX
  8
0
  5
321B
 10
53.7240
 20
99.6712
 30
0.00000
  70
    32
  0
VERTEX
  8
0
  5
321C
 10
53.7227
 20
99.6801
 30
0.00000
  70
    32
  0
VERTEX
  8
0
  5
321D
 10
53.7215
 20
99.6890
 30
0.00000
  70
    32
  0
VERTEX
  8
0
  5
321E
 10
53.7202
 20
99.6978
 30
0.00000
  70
    32
  0
VERTEX
  8
0
  5
321F
 10
53.7190
 20
99.7067
 30
0.00000
  70
    32
  0
VERTEX
  8
0
  5
3220
 10
53.7177
 20
99.7155
 30
0.00000
  70
    32
  0
VERTEX
  8
0
  5
3221
 10
53.7165
 20
99.7244
 30
0.00000
  70
    32
  0
VERTEX
  8
0
  5
3222
 10
53.7152
 20
99.7332
 30
0.00000
  70
    32
  0
VERTEX
  8
0
  5
3223
 10
53.7140
 20
99.7419
 30
0.00000
  70
    32
  0
VERTEX
  8
0
  5
3224
 10
53.7127
 20
99.7507
 30
0.00000
  70
    32
  0
VERTEX
  8
0
  5
3225
 10
53.7115
 20
99.7595
 30
0.00000
  70
    32
  0
VERTEX
  8
0
  5
3226
 10
53.7102
 20
99.7682
 30
0.00000
  70
    32
  0
VERTEX
  8
0
  5
3227
 10
53.7089
 20
99.7769
 30
0.00000
  70
    32
  0
VERTEX
  8
0
  5
3228
 10
53.7077
 20
99.7856
 30
0.00000
  70
    32
  0
VERTEX
  8
0
  5
3229
 10
53.7064
 20
99.7943
 30
0.00000
  70
    32
  0
VERTEX
  8
0
  5
322A
 10
53.7052
 20
99.8029
 30
0.00000
  70
    32
  0
VERTEX
  8
0
  5
322B
 10
53.7039
 20
99.8115
 30
0.00000
  70
    32
  0
VERTEX
  8
0
  5
322C
 10
53.7027
 20
99.8202
 30
0.00000
  70
    32
  0
VERTEX
  8
0
  5
322D
 10
53.7014
 20
99.8288
 30
0.00000
  70
    32
  0
VERTEX
  8
0
  5
322E
 10
53.7001
 20
99.8373
 30
0.00000
  70
    32
  0
VERTEX
  8
0
  5
322F
 10
53.6989
 20
99.8459
 30
0.00000
  70
    32
  0
VERTEX
  8
0
  5
3230
 10
53.6976
 20
99.8544
 30
0.00000
  70
    32
  0
VERTEX
  8
0
  5
3231
 10
53.6964
 20
99.8630
 30
0.00000
  70
    32
  0
VERTEX
  8
0
  5
3232
 10
53.6951
 20
99.8715
 30
0.00000
  70
    32
  0
VERTEX
  8
0
  5
3233
 10
53.6938
 20
99.8800
 30
0.00000
  70
    32
  0
VERTEX
  8
0
  5
3234
 10
53.6926
 20
99.8884
 30
0.00000
  70
    32
  0
VERTEX
  8
0
  5
3235
 10
53.6913
 20
99.8969
 30
0.00000
  70
    32
  0
VERTEX
  8
0
  5
3236
 10
53.6901
 20
99.9053
 30
0.00000
  70
    32
  0
VERTEX
  8
0
  5
3237
 10
53.6888
 20
99.9137
 30
0.00000
  70
    32
  0
VERTEX
  8
0
  5
3238
 10
53.6875
 20
99.9221
 30
0.00000
  70
    32
  0
VERTEX
  8
0
  5
3239
 10
53.6863
 20
99.9305
 30
0.00000
  70
    32
  0
VERTEX
  8
0
  5
323A
 10
53.6850
 20
99.9389
 30
0.00000
  70
    32
  0
VERTEX
  8
0
  5
323B
 10
53.6838
 20
99.9472
 30
0.00000
  70
    32
  0
VERTEX
  8
0
  5
323C
 10
53.6825
 20
99.9555
 30
0.00000
  70
    32
  0
VERTEX
  8
0
  5
323D
 10
53.6812
 20
99.9638
 30
0.00000
  70
    32
  0
VERTEX
  8
0
  5
323E
 10
53.6800
 20
99.9721
 30
0.00000
  70
    32
  0
VERTEX
  8
0
  5
323F
 10
53.6787
 20
99.9804
 30
0.00000
  70
    32
  0
VERTEX
  8
0
  5
3240
 10
53.6774
 20
99.9886
 30
0.00000
  70
    32
  0
VERTEX
  8
0
  5
3241
 10
53.6762
 20
99.9969
 30
0.00000
  70
    32
  0
VERTEX
  8
0
  5
3242
 10
53.6749
 20
100.005
 30
0.00000
  70
    32
  0
VERTEX
  8
0
  5
3243
 10
53.6737
 20
100.013
 30
0.00000
  70
    32
  0
VERTEX
  8
0
  5
3244
 10
53.6724
 20
100.021
 30
0.00000
  70
    32
  0
VERTEX
  8
0
  5
3245
 10
53.6711
 20
100.030
 30
0.00000
  70
    32
  0
VERTEX
  8
0
  5
3246
 10
53.6699
 20
100.038
 30
0.00000
  70
    32
  0
VERTEX
  8
0
  5
3247
 10
53.6686
 20
100.046
 30
0.00000
  70
    32
  0
VERTEX
  8
0
  5
3248
 10
53.6673
 20
100.054
 30
0.00000
  70
    32
  0
VERTEX
  8
0
  5
3249
 10
53.6661
 20
100.062
 30
0.00000
  70
    32
  0
VERTEX
  8
0
  5
324A
 10
53.6648
 20
100.070
 30
0.00000
  70
    32
  0
VERTEX
  8
0
  5
324B
 10
53.6635
 20
100.078
 30
0.00000
  70
    32
  0
VERTEX
  8
0
  5
324C
 10
53.6623
 20
100.086
 30
0.00000
  70
    32
  0
VERTEX
  8
0
  5
324D
 10
53.6610
 20
100.094
 30
0.00000
  70
    32
  0
VERTEX
  8
0
  5
324E
 10
53.6597
 20
100.102
 30
0.00000
  70
    32
  0
VERTEX
  8
0
  5
324F
 10
53.6585
 20
100.110
 30
0.00000
  70
    32
  0
VERTEX
  8
0
  5
3250
 10
53.6572
 20
100.118
 30
0.00000
  70
    32
  0
VERTEX
  8
0
  5
3251
 10
53.6560
 20
100.126
 30
0.00000
  70
    32
  0
VERTEX
  8
0
  5
3252
 10
53.6547
 20
100.134
 30
0.00000
  70
    32
  0
VERTEX
  8
0
  5
3253
 10
53.6534
 20
100.142
 30
0.00000
  70
    32
  0
VERTEX
  8
0
  5
3254
 10
53.6521
 20
100.150
 30
0.00000
  70
    32
  0
VERTEX
  8
0
  5
3255
 10
53.6509
 20
100.158
 30
0.00000
  70
    32
  0
VERTEX
  8
0
  5
3256
 10
53.6496
 20
100.165
 30
0.00000
  70
    32
  0
VERTEX
  8
0
  5
3257
 10
53.6483
 20
100.173
 30
0.00000
  70
    32
  0
VERTEX
  8
0
  5
3258
 10
53.6471
 20
100.181
 30
0.00000
  70
    32
  0
VERTEX
  8
0
  5
3259
 10
53.6458
 20
100.189
 30
0.00000
  70
    32
  0
VERTEX
  8
0
  5
325A
 10
53.6445
 20
100.197
 30
0.00000
  70
    32
  0
VERTEX
  8
0
  5
325B
 10
53.6433
 20
100.204
 30
0.00000
  70
    32
  0
VERTEX
  8
0
  5
325C
 10
53.6420
 20
100.212
 30
0.00000
  70
    32
  0
VERTEX
  8
0
  5
325D
 10
53.6407
 20
100.220
 30
0.00000
  70
    32
  0
VERTEX
  8
0
  5
325E
 10
53.6395
 20
100.228
 30
0.00000
  70
    32
  0
VERTEX
  8
0
  5
325F
 10
53.6382
 20
100.235
 30
0.00000
  70
    32
  0
VERTEX
  8
0
  5
3260
 10
53.6369
 20
100.243
 30
0.00000
  70
    32
  0
VERTEX
  8
0
  5
3261
 10
53.6357
 20
100.250
 30
0.00000
  70
    32
  0
VERTEX
  8
0
  5
3262
 10
53.6344
 20
100.258
 30
0.00000
  70
    32
  0
VERTEX
  8
0
  5
3263
 10
53.6331
 20
100.266
 30
0.00000
  70
    32
  0
VERTEX
  8
0
  5
3264
 10
53.6318
 20
100.273
 30
0.00000
  70
    32
  0
VERTEX
  8
0
  5
3265
 10
53.6306
 20
100.281
 30
0.00000
  70
    32
  0
VERTEX
  8
0
  5
3266
 10
53.6293
 20
100.288
 30
0.00000
  70
    32
  0
VERTEX
  8
0
  5
3267
 10
53.6280
 20
100.296
 30
0.00000
  70
    32
  0
VERTEX
  8
0
  5
3268
 10
53.6268
 20
100.303
 30
0.00000
  70
    32
  0
VERTEX
  8
0
  5
3269
 10
53.6255
 20
100.311
 30
0.00000
  70
    32
  0
VERTEX
  8
0
  5
326A
 10
53.6242
 20
100.318
 30
0.00000
  70
    32
  0
VERTEX
  8
0
  5
326B
 10
53.6229
 20
100.326
 30
0.00000
  70
    32
  0
VERTEX
  8
0
  5
326C
 10
53.6217
 20
100.333
 30
0.00000
  70
    32
  0
VERTEX
  8
0
  5
326D
 10
53.6204
 20
100.341
 30
0.00000
  70
    32
  0
VERTEX
  8
0
  5
326E
 10
53.6191
 20
100.348
 30
0.00000
  70
    32
  0
VERTEX
  8
0
  5
326F
 10
53.6178
 20
100.355
 30
0.00000
  70
    32
  0
VERTEX
  8
0
  5
3270
 10
53.6166
 20
100.363
 30
0.00000
  70
    32
  0
VERTEX
  8
0
  5
3271
 10
53.6153
 20
100.370
 30
0.00000
  70
    32
  0
VERTEX
  8
0
  5
3272
 10
53.6140
 20
100.377
 30
0.00000
  70
    32
  0
VERTEX
  8
0
  5
3273
 10
53.6128
 20
100.385
 30
0.00000
  70
    32
  0
VERTEX
  8
0
  5
3274
 10
53.6115
 20
100.392
 30
0.00000
  70
    32
  0
VERTEX
  8
0
  5
3275
 10
53.6102
 20
100.399
 30
0.00000
  70
    32
  0
VERTEX
  8
0
  5
3276
 10
53.6089
 20
100.407
 30
0.00000
  70
    32
  0
VERTEX
  8
0
  5
3277
 10
53.6077
 20
100.414
 30
0.00000
  70
    32
  0
VERTEX
  8
0
  5
3278
 10
53.6064
 20
100.421
 30
0.00000
  70
    32
  0
VERTEX
  8
0
  5
3279
 10
53.6051
 20
100.428
 30
0.00000
  70
    32
  0
VERTEX
  8
0
  5
327A
 10
53.6038
 20
100.435
 30
0.00000
  70
    32
  0
VERTEX
  8
0
  5
327B
 10
53.6026
 20
100.443
 30
0.00000
  70
    32
  0
VERTEX
  8
0
  5
327C
 10
53.6013
 20
100.450
 30
0.00000
  70
    32
  0
VERTEX
  8
0
  5
327D
 10
53.6000
 20
100.457
 30
0.00000
  70
    32
  0
SEQEND
  8
0
  5
327E
  0
POLYLINE
  5
2D45
  8
0
 10
79.599999999864977
 20
100.456804006708154
 30
0.0
 66
     1
 70
     8
  0
VERTEX
  8
0
  5
327F
 10
79.6000
 20
100.457
 30
0.00000
  70
    32
  0
VERTEX
  8
0
  5
3280
 10
79.5987
 20
100.450
 30
0.00000
  70
    32
  0
VERTEX
  8
0
  5
3281
 10
79.5974
 20
100.443
 30
0.00000
  70
    32
  0
VERTEX
  8
0
  5
3282
 10
79.5962
 20
100.435
 30
0.00000
  70
    32
  0
VERTEX
  8
0
  5
3283
 10
79.5949
 20
100.428
 30
0.00000
  70
    32
  0
VERTEX
  8
0
  5
3284
 10
79.5936
 20
100.421
 30
0.00000
  70
    32
  0
VERTEX
  8
0
  5
3285
 10
79.5923
 20
100.414
 30
0.00000
  70
    32
  0
VERTEX
  8
0
  5
3286
 10
79.5911
 20
100.407
 30
0.00000
  70
    32
  0
VERTEX
  8
0
  5
3287
 10
79.5898
 20
100.399
 30
0.00000
  70
    32
  0
VERTEX
  8
0
  5
3288
 10
79.5885
 20
100.392
 30
0.00000
  70
    32
  0
VERTEX
  8
0
  5
3289
 10
79.5872
 20
100.385
 30
0.00000
  70
    32
  0
VERTEX
  8
0
  5
328A
 10
79.5860
 20
100.377
 30
0.00000
  70
    32
  0
VERTEX
  8
0
  5
328B
 10
79.5847
 20
100.370
 30
0.00000
  70
    32
  0
VERTEX
  8
0
  5
328C
 10
79.5834
 20
100.363
 30
0.00000
  70
    32
  0
VERTEX
  8
0
  5
328D
 10
79.5822
 20
100.355
 30
0.00000
  70
    32
  0
VERTEX
  8
0
  5
328E
 10
79.5809
 20
100.348
 30
0.00000
  70
    32
  0
VERTEX
  8
0
  5
328F
 10
79.5796
 20
100.341
 30
0.00000
  70
    32
  0
VERTEX
  8
0
  5
3290
 10
79.5783
 20
100.333
 30
0.00000
  70
    32
  0
VERTEX
  8
0
  5
3291
 10
79.5771
 20
100.326
 30
0.00000
  70
    32
  0
VERTEX
  8
0
  5
3292
 10
79.5758
 20
100.318
 30
0.00000
  70
    32
  0
VERTEX
  8
0
  5
3293
 10
79.5745
 20
100.311
 30
0.00000
  70
    32
  0
VERTEX
  8
0
  5
3294
 10
79.5732
 20
100.303
 30
0.00000
  70
    32
  0
VERTEX
  8
0
  5
3295
 10
79.5720
 20
100.296
 30
0.00000
  70
    32
  0
VERTEX
  8
0
  5
3296
 10
79.5707
 20
100.288
 30
0.00000
  70
    32
  0
VERTEX
  8
0
  5
3297
 10
79.5694
 20
100.281
 30
0.00000
  70
    32
  0
VERTEX
  8
0
  5
3298
 10
79.5682
 20
100.273
 30
0.00000
  70
    32
  0
VERTEX
  8
0
  5
3299
 10
79.5669
 20
100.266
 30
0.00000
  70
    32
  0
VERTEX
  8
0
  5
329A
 10
79.5656
 20
100.258
 30
0.00000
  70
    32
  0
VERTEX
  8
0
  5
329B
 10
79.5643
 20
100.250
 30
0.00000
  70
    32
  0
VERTEX
  8
0
  5
329C
 10
79.5631
 20
100.243
 30
0.00000
  70
    32
  0
VERTEX
  8
0
  5
329D
 10
79.5618
 20
100.235
 30
0.00000
  70
    32
  0
VERTEX
  8
0
  5
329E
 10
79.5605
 20
100.228
 30
0.00000
  70
    32
  0
VERTEX
  8
0
  5
329F
 10
79.5593
 20
100.220
 30
0.00000
  70
    32
  0
VERTEX
  8
0
  5
32A0
 10
79.5580
 20
100.212
 30
0.00000
  70
    32
  0
VERTEX
  8
0
  5
32A1
 10
79.5567
 20
100.204
 30
0.00000
  70
    32
  0
VERTEX
  8
0
  5
32A2
 10
79.5555
 20
100.197
 30
0.00000
  70
    32
  0
VERTEX
  8
0
  5
32A3
 10
79.5542
 20
100.189
 30
0.00000
  70
    32
  0
VERTEX
  8
0
  5
32A4
 10
79.5529
 20
100.181
 30
0.00000
  70
    32
  0
VERTEX
  8
0
  5
32A5
 10
79.5517
 20
100.173
 30
0.00000
  70
    32
  0
VERTEX
  8
0
  5
32A6
 10
79.5504
 20
100.165
 30
0.00000
  70
    32
  0
VERTEX
  8
0
  5
32A7
 10
79.5491
 20
100.158
 30
0.00000
  70
    32
  0
VERTEX
  8
0
  5
32A8
 10
79.5479
 20
100.150
 30
0.00000
  70
    32
  0
VERTEX
  8
0
  5
32A9
 10
79.5466
 20
100.142
 30
0.00000
  70
    32
  0
VERTEX
  8
0
  5
32AA
 10
79.5453
 20
100.134
 30
0.00000
  70
    32
  0
VERTEX
  8
0
  5
32AB
 10
79.5440
 20
100.126
 30
0.00000
  70
    32
  0
VERTEX
  8
0
  5
32AC
 10
79.5428
 20
100.118
 30
0.00000
  70
    32
  0
VERTEX
  8
0
  5
32AD
 10
79.5415
 20
100.110
 30
0.00000
  70
    32
  0
VERTEX
  8
0
  5
32AE
 10
79.5403
 20
100.102
 30
0.00000
  70
    32
  0
VERTEX
  8
0
  5
32AF
 10
79.5390
 20
100.094
 30
0.00000
  70
    32
  0
VERTEX
  8
0
  5
32B0
 10
79.5377
 20
100.086
 30
0.00000
  70
    32
  0
VERTEX
  8
0
  5
32B1
 10
79.5365
 20
100.078
 30
0.00000
  70
    32
  0
VERTEX
  8
0
  5
32B2
 10
79.5352
 20
100.070
 30
0.00000
  70
    32
  0
VERTEX
  8
0
  5
32B3
 10
79.5339
 20
100.062
 30
0.00000
  70
    32
  0
VERTEX
  8
0
  5
32B4
 10
79.5327
 20
100.054
 30
0.00000
  70
    32
  0
VERTEX
  8
0
  5
32B5
 10
79.5314
 20
100.046
 30
0.00000
  70
    32
  0
VERTEX
  8
0
  5
32B6
 10
79.5301
 20
100.038
 30
0.00000
  70
    32
  0
VERTEX
  8
0
  5
32B7
 10
79.5289
 20
100.030
 30
0.00000
  70
    32
  0
VERTEX
  8
0
  5
32B8
 10
79.5276
 20
100.021
 30
0.00000
  70
    32
  0
VERTEX
  8
0
  5
32B9
 10
79.5263
 20
100.013
 30
0.00000
  70
    32
  0
VERTEX
  8
0
  5
32BA
 10
79.5251
 20
100.005
 30
0.00000
  70
    32
  0
VERTEX
  8
0
  5
32BB
 10
79.5238
 20
99.9969
 30
0.00000
  70
    32
  0
VERTEX
  8
0
  5
32BC
 10
79.5226
 20
99.9886
 30
0.00000
  70
    32
  0
VERTEX
  8
0
  5
32BD
 10
79.5213
 20
99.9804
 30
0.00000
  70
    32
  0
VERTEX
  8
0
  5
32BE
 10
79.5200
 20
99.9721
 30
0.00000
  70
    32
  0
VERTEX
  8
0
  5
32BF
 10
79.5188
 20
99.9638
 30
0.00000
  70
    32
  0
VERTEX
  8
0
  5
32C0
 10
79.5175
 20
99.9555
 30
0.00000
  70
    32
  0
VERTEX
  8
0
  5
32C1
 10
79.5162
 20
99.9472
 30
0.00000
  70
    32
  0
VERTEX
  8
0
  5
32C2
 10
79.5150
 20
99.9389
 30
0.00000
  70
    32
  0
VERTEX
  8
0
  5
32C3
 10
79.5137
 20
99.9305
 30
0.00000
  70
    32
  0
VERTEX
  8
0
  5
32C4
 10
79.5125
 20
99.9221
 30
0.00000
  70
    32
  0
VERTEX
  8
0
  5
32C5
 10
79.5112
 20
99.9137
 30
0.00000
  70
    32
  0
VERTEX
  8
0
  5
32C6
 10
79.5099
 20
99.9053
 30
0.00000
  70
    32
  0
VERTEX
  8
0
  5
32C7
 10
79.5087
 20
99.8969
 30
0.00000
  70
    32
  0
VERTEX
  8
0
  5
32C8
 10
79.5074
 20
99.8884
 30
0.00000
  70
    32
  0
VERTEX
  8
0
  5
32C9
 10
79.5062
 20
99.8800
 30
0.00000
  70
    32
  0
VERTEX
  8
0
  5
32CA
 10
79.5049
 20
99.8715
 30
0.00000
  70
    32
  0
VERTEX
  8
0
  5
32CB
 10
79.5036
 20
99.8630
 30
0.00000
  70
    32
  0
VERTEX
  8
0
  5
32CC
 10
79.5024
 20
99.8544
 30
0.00000
  70
    32
  0
VERTEX
  8
0
  5
32CD
 10
79.5011
 20
99.8459
 30
0.00000
  70
    32
  0
VERTEX
  8
0
  5
32CE
 10
79.4999
 20
99.8373
 30
0.00000
  70
    32
  0
VERTEX
  8
0
  5
32CF
 10
79.4986
 20
99.8288
 30
0.00000
  70
    32
  0
VERTEX
  8
0
  5
32D0
 10
79.4973
 20
99.8202
 30
0.00000
  70
    32
  0
VERTEX
  8
0
  5
32D1
 10
79.4961
 20
99.8115
 30
0.00000
  70
    32
  0
VERTEX
  8
0
  5
32D2
 10
79.4948
 20
99.8029
 30
0.00000
  70
    32
  0
VERTEX
  8
0
  5
32D3
 10
79.4936
 20
99.7943
 30
0.00000
  70
    32
  0
VERTEX
  8
0
  5
32D4
 10
79.4923
 20
99.7856
 30
0.00000
  70
    32
  0
VERTEX
  8
0
  5
32D5
 10
79.4911
 20
99.7769
 30
0.00000
  70
    32
  0
VERTEX
  8
0
  5
32D6
 10
79.4898
 20
99.7682
 30
0.00000
  70
    32
  0
VERTEX
  8
0
  5
32D7
 10
79.4885
 20
99.7595
 30
0.00000
  70
    32
  0
VERTEX
  8
0
  5
32D8
 10
79.4873
 20
99.7507
 30
0.00000
  70
    32
  0
VERTEX
  8
0
  5
32D9
 10
79.4860
 20
99.7419
 30
0.00000
  70
    32
  0
VERTEX
  8
0
  5
32DA
 10
79.4848
 20
99.7332
 30
0.00000
  70
    32
  0
VERTEX
  8
0
  5
32DB
 10
79.4835
 20
99.7244
 30
0.00000
  70
    32
  0
VERTEX
  8
0
  5
32DC
 10
79.4823
 20
99.7155
 30
0.00000
  70
    32
  0
VERTEX
  8
0
  5
32DD
 10
79.4810
 20
99.7067
 30
0.00000
  70
    32
  0
VERTEX
  8
0
  5
32DE
 10
79.4798
 20
99.6978
 30
0.00000
  70
    32
  0
VERTEX
  8
0
  5
32DF
 10
79.4785
 20
99.6890
 30
0.00000
  70
    32
  0
VERTEX
  8
0
  5
32E0
 10
79.4773
 20
99.6801
 30
0.00000
  70
    32
  0
VERTEX
  8
0
  5
32E1
 10
79.4760
 20
99.6712
 30
0.00000
  70
    32
  0
VERTEX
  8
0
  5
32E2
 10
79.4747
 20
99.6622
 30
0.00000
  70
    32
  0
VERTEX
  8
0
  5
32E3
 10
79.4735
 20
99.6533
 30
0.00000
  70
    32
  0
VERTEX
  8
0
  5
32E4
 10
79.4722
 20
99.6443
 30
0.00000
  70
    32
  0
VERTEX
  8
0
  5
32E5
 10
79.4710
 20
99.6353
 30
0.00000
  70
    32
  0
VERTEX
  8
0
  5
32E6
 10
79.4697
 20
99.6263
 30
0.00000
  70
    32
  0
VERTEX
  8
0
  5
32E7
 10
79.4685
 20
99.6173
 30
0.00000
  70
    32
  0
VERTEX
  8
0
  5
32E8
 10
79.4672
 20
99.6083
 30
0.00000
  70
    32
  0
VERTEX
  8
0
  5
32E9
 10
79.4660
 20
99.5992
 30
0.00000
  70
    32
  0
VERTEX
  8
0
  5
32EA
 10
79.4647
 20
99.5901
 30
0.00000
  70
    32
  0
VERTEX
  8
0
  5
32EB
 10
79.4635
 20
99.5810
 30
0.00000
  70
    32
  0
VERTEX
  8
0
  5
32EC
 10
79.4622
 20
99.5719
 30
0.00000
  70
    32
  0
VERTEX
  8
0
  5
32ED
 10
79.4610
 20
99.5628
 30
0.00000
  70
    32
  0
VERTEX
  8
0
  5
32EE
 10
79.4597
 20
99.5537
 30
0.00000
  70
    32
  0
VERTEX
  8
0
  5
32EF
 10
79.4585
 20
99.5445
 30
0.00000
  70
    32
  0
VERTEX
  8
0
  5
32F0
 10
79.4572
 20
99.5353
 30
0.00000
  70
    32
  0
VERTEX
  8
0
  5
32F1
 10
79.4560
 20
99.5261
 30
0.00000
  70
    32
  0
VERTEX
  8
0
  5
32F2
 10
79.4547
 20
99.5169
 30
0.00000
  70
    32
  0
VERTEX
  8
0
  5
32F3
 10
79.4535
 20
99.5076
 30
0.00000
  70
    32
  0
VERTEX
  8
0
  5
32F4
 10
79.4522
 20
99.4984
 30
0.00000
  70
    32
  0
VERTEX
  8
0
  5
32F5
 10
79.4510
 20
99.4891
 30
0.00000
  70
    32
  0
VERTEX
  8
0
  5
32F6
 10
79.4497
 20
99.4798
 30
0.00000
  70
    32
  0
VERTEX
  8
0
  5
32F7
 10
79.4485
 20
99.4705
 30
0.00000
  70
    32
  0
VERTEX
  8
0
  5
32F8
 10
79.4472
 20
99.4612
 30
0.00000
  70
    32
  0
VERTEX
  8
0
  5
32F9
 10
79.4460
 20
99.4518
 30
0.00000
  70
    32
  0
VERTEX
  8
0
  5
32FA
 10
79.4447
 20
99.4424
 30
0.00000
  70
    32
  0
VERTEX
  8
0
  5
32FB
 10
79.4435
 20
99.4331
 30
0.00000
  70
    32
  0
VERTEX
  8
0
  5
32FC
 10
79.4423
 20
99.4236
 30
0.00000
  70
    32
  0
VERTEX
  8
0
  5
32FD
 10
79.4410
 20
99.4142
 30
0.00000
  70
    32
  0
VERTEX
  8
0
  5
32FE
 10
79.4398
 20
99.4048
 30
0.00000
  70
    32
  0
VERTEX
  8
0
  5
32FF
 10
79.4385
 20
99.3953
 30
0.00000
  70
    32
  0
SEQEND
  8
0
  5
3300
  0
POLYLINE
  5
2D47
  8
0
 10
79.599999999864977
 20
91.0996789718855098
 30
0.0
 66
     1
 70
     8
  0
VERTEX
  8
0
  5
3301
 10
79.6000
 20
91.0997
 30
0.00000
  70
    32
  0
VERTEX
  8
0
  5
3302
 10
79.5966
 20
91.0936
 30
0.00000
  70
    32
  0
VERTEX
  8
0
  5
3303
 10
79.5932
 20
91.0874
 30
0.00000
  70
    32
  0
VERTEX
  8
0
  5
3304
 10
79.5899
 20
91.0811
 30
0.00000
  70
    32
  0
VERTEX
  8
0
  5
3305
 10
79.5865
 20
91.0747
 30
0.00000
  70
    32
  0
VERTEX
  8
0
  5
3306
 10
79.5831
 20
91.0682
 30
0.00000
  70
    32
  0
VERTEX
  8
0
  5
3307
 10
79.5797
 20
91.0616
 30
0.00000
  70
    32
  0
VERTEX
  8
0
  5
3308
 10
79.5763
 20
91.0550
 30
0.00000
  70
    32
  0
VERTEX
  8
0
  5
3309
 10
79.5730
 20
91.0482
 30
0.00000
  70
    32
  0
VERTEX
  8
0
  5
330A
 10
79.5696
 20
91.0413
 30
0.00000
  70
    32
  0
VERTEX
  8
0
  5
330B
 10
79.5662
 20
91.0344
 30
0.00000
  70
    32
  0
VERTEX
  8
0
  5
330C
 10
79.5628
 20
91.0274
 30
0.00000
  70
    32
  0
VERTEX
  8
0
  5
330D
 10
79.5594
 20
91.0202
 30
0.00000
  70
    32
  0
VERTEX
  8
0
  5
330E
 10
79.5561
 20
91.0130
 30
0.00000
  70
    32
  0
VERTEX
  8
0
  5
330F
 10
79.5527
 20
91.0057
 30
0.00000
  70
    32
  0
VERTEX
  8
0
  5
3310
 10
79.5493
 20
90.9983
 30
0.00000
  70
    32
  0
VERTEX
  8
0
  5
3311
 10
79.5459
 20
90.9908
 30
0.00000
  70
    32
  0
VERTEX
  8
0
  5
3312
 10
79.5426
 20
90.9833
 30
0.00000
  70
    32
  0
VERTEX
  8
0
  5
3313
 10
79.5392
 20
90.9756
 30
0.00000
  70
    32
  0
VERTEX
  8
0
  5
3314
 10
79.5358
 20
90.9678
 30
0.00000
  70
    32
  0
VERTEX
  8
0
  5
3315
 10
79.5324
 20
90.9600
 30
0.00000
  70
    32
  0
VERTEX
  8
0
  5
3316
 10
79.5291
 20
90.9520
 30
0.00000
  70
    32
  0
VERTEX
  8
0
  5
3317
 10
79.5257
 20
90.9440
 30
0.00000
  70
    32
  0
VERTEX
  8
0
  5
3318
 10
79.5223
 20
90.9358
 30
0.00000
  70
    32
  0
VERTEX
  8
0
  5
3319
 10
79.5189
 20
90.9276
 30
0.00000
  70
    32
  0
VERTEX
  8
0
  5
331A
 10
79.5156
 20
90.9193
 30
0.00000
  70
    32
  0
VERTEX
  8
0
  5
331B
 10
79.5122
 20
90.9109
 30
0.00000
  70
    32
  0
VERTEX
  8
0
  5
331C
 10
79.5088
 20
90.9024
 30
0.00000
  70
    32
  0
VERTEX
  8
0
  5
331D
 10
79.5055
 20
90.8938
 30
0.00000
  70
    32
  0
VERTEX
  8
0
  5
331E
 10
79.5021
 20
90.8851
 30
0.00000
  70
    32
  0
VERTEX
  8
0
  5
331F
 10
79.4987
 20
90.8764
 30
0.00000
  70
    32
  0
VERTEX
  8
0
  5
3320
 10
79.4953
 20
90.8675
 30
0.00000
  70
    32
  0
VERTEX
  8
0
  5
3321
 10
79.4920
 20
90.8585
 30
0.00000
  70
    32
  0
VERTEX
  8
0
  5
3322
 10
79.4886
 20
90.8495
 30
0.00000
  70
    32
  0
VERTEX
  8
0
  5
3323
 10
79.4852
 20
90.8404
 30
0.00000
  70
    32
  0
VERTEX
  8
0
  5
3324
 10
79.4819
 20
90.8311
 30
0.00000
  70
    32
  0
VERTEX
  8
0
  5
3325
 10
79.4785
 20
90.8218
 30
0.00000
  70
    32
  0
VERTEX
  8
0
  5
3326
 10
79.4751
 20
90.8124
 30
0.00000
  70
    32
  0
VERTEX
  8
0
  5
3327
 10
79.4718
 20
90.8029
 30
0.00000
  70
    32
  0
VERTEX
  8
0
  5
3328
 10
79.4684
 20
90.7933
 30
0.00000
  70
    32
  0
VERTEX
  8
0
  5
3329
 10
79.4650
 20
90.7836
 30
0.00000
  70
    32
  0
VERTEX
  8
0
  5
332A
 10
79.4617
 20
90.7738
 30
0.00000
  70
    32
  0
VERTEX
  8
0
  5
332B
 10
79.4583
 20
90.7640
 30
0.00000
  70
    32
  0
VERTEX
  8
0
  5
332C
 10
79.4550
 20
90.7540
 30
0.00000
  70
    32
  0
VERTEX
  8
0
  5
332D
 10
79.4516
 20
90.7440
 30
0.00000
  70
    32
  0
VERTEX
  8
0
  5
332E
 10
79.4482
 20
90.7338
 30
0.00000
  70
    32
  0
VERTEX
  8
0
  5
332F
 10
79.4449
 20
90.7236
 30
0.00000
  70
    32
  0
VERTEX
  8
0
  5
3330
 10
79.4415
 20
90.7133
 30
0.00000
  70
    32
  0
VERTEX
  8
0
  5
3331
 10
79.4381
 20
90.7029
 30
0.00000
  70
    32
  0
VERTEX
  8
0
  5
3332
 10
79.4348
 20
90.6923
 30
0.00000
  70
    32
  0
VERTEX
  8
0
  5
3333
 10
79.4314
 20
90.6817
 30
0.00000
  70
    32
  0
VERTEX
  8
0
  5
3334
 10
79.4281
 20
90.6711
 30
0.00000
  70
    32
  0
VERTEX
  8
0
  5
3335
 10
79.4247
 20
90.6603
 30
0.00000
  70
    32
  0
VERTEX
  8
0
  5
3336
 10
79.4214
 20
90.6494
 30
0.00000
  70
    32
  0
VERTEX
  8
0
  5
3337
 10
79.4180
 20
90.6384
 30
0.00000
  70
    32
  0
VERTEX
  8
0
  5
3338
 10
79.4146
 20
90.6274
 30
0.00000
  70
    32
  0
VERTEX
  8
0
  5
3339
 10
79.4113
 20
90.6162
 30
0.00000
  70
    32
  0
VERTEX
  8
0
  5
333A
 10
79.4079
 20
90.6050
 30
0.00000
  70
    32
  0
VERTEX
  8
0
  5
333B
 10
79.4046
 20
90.5937
 30
0.00000
  70
    32
  0
VERTEX
  8
0
  5
333C
 10
79.4012
 20
90.5823
 30
0.00000
  70
    32
  0
VERTEX
  8
0
  5
333D
 10
79.3979
 20
90.5708
 30
0.00000
  70
    32
  0
VERTEX
  8
0
  5
333E
 10
79.3945
 20
90.5592
 30
0.00000
  70
    32
  0
VERTEX
  8
0
  5
333F
 10
79.3912
 20
90.5475
 30
0.00000
  70
    32
  0
VERTEX
  8
0
  5
3340
 10
79.3878
 20
90.5357
 30
0.00000
  70
    32
  0
VERTEX
  8
0
  5
3341
 10
79.3845
 20
90.5238
 30
0.00000
  70
    32
  0
VERTEX
  8
0
  5
3342
 10
79.3811
 20
90.5118
 30
0.00000
  70
    32
  0
VERTEX
  8
0
  5
3343
 10
79.3778
 20
90.4998
 30
0.00000
  70
    32
  0
VERTEX
  8
0
  5
3344
 10
79.3744
 20
90.4876
 30
0.00000
  70
    32
  0
VERTEX
  8
0
  5
3345
 10
79.3711
 20
90.4754
 30
0.00000
  70
    32
  0
VERTEX
  8
0
  5
3346
 10
79.3677
 20
90.4631
 30
0.00000
  70
    32
  0
VERTEX
  8
0
  5
3347
 10
79.3644
 20
90.4507
 30
0.00000
  70
    32
  0
VERTEX
  8
0
  5
3348
 10
79.3610
 20
90.4382
 30
0.00000
  70
    32
  0
VERTEX
  8
0
  5
3349
 10
79.3577
 20
90.4256
 30
0.00000
  70
    32
  0
VERTEX
  8
0
  5
334A
 10
79.3543
 20
90.4129
 30
0.00000
  70
    32
  0
VERTEX
  8
0
  5
334B
 10
79.3510
 20
90.4001
 30
0.00000
  70
    32
  0
VERTEX
  8
0
  5
334C
 10
79.3476
 20
90.3872
 30
0.00000
  70
    32
  0
VERTEX
  8
0
  5
334D
 10
79.3443
 20
90.3743
 30
0.00000
  70
    32
  0
VERTEX
  8
0
  5
334E
 10
79.3410
 20
90.3612
 30
0.00000
  70
    32
  0
VERTEX
  8
0
  5
334F
 10
79.3376
 20
90.3481
 30
0.00000
  70
    32
  0
VERTEX
  8
0
  5
3350
 10
79.3343
 20
90.3348
 30
0.00000
  70
    32
  0
VERTEX
  8
0
  5
3351
 10
79.3309
 20
90.3215
 30
0.00000
  70
    32
  0
VERTEX
  8
0
  5
3352
 10
79.3276
 20
90.3081
 30
0.00000
  70
    32
  0
VERTEX
  8
0
  5
3353
 10
79.3243
 20
90.2946
 30
0.00000
  70
    32
  0
VERTEX
  8
0
  5
3354
 10
79.3209
 20
90.2810
 30
0.00000
  70
    32
  0
VERTEX
  8
0
  5
3355
 10
79.3176
 20
90.2673
 30
0.00000
  70
    32
  0
VERTEX
  8
0
  5
3356
 10
79.3143
 20
90.2535
 30
0.00000
  70
    32
  0
VERTEX
  8
0
  5
3357
 10
79.3109
 20
90.2396
 30
0.00000
  70
    32
  0
VERTEX
  8
0
  5
3358
 10
79.3076
 20
90.2257
 30
0.00000
  70
    32
  0
VERTEX
  8
0
  5
3359
 10
79.3042
 20
90.2116
 30
0.00000
  70
    32
  0
VERTEX
  8
0
  5
335A
 10
79.3009
 20
90.1975
 30
0.00000
  70
    32
  0
VERTEX
  8
0
  5
335B
 10
79.2976
 20
90.1833
 30
0.00000
  70
    32
  0
VERTEX
  8
0
  5
335C
 10
79.2943
 20
90.1689
 30
0.00000
  70
    32
  0
VERTEX
  8
0
  5
335D
 10
79.2909
 20
90.1545
 30
0.00000
  70
    32
  0
VERTEX
  8
0
  5
335E
 10
79.2876
 20
90.1400
 30
0.00000
  70
    32
  0
VERTEX
  8
0
  5
335F
 10
79.2843
 20
90.1254
 30
0.00000
  70
    32
  0
VERTEX
  8
0
  5
3360
 10
79.2809
 20
90.1108
 30
0.00000
  70
    32
  0
VERTEX
  8
0
  5
3361
 10
79.2776
 20
90.0960
 30
0.00000
  70
    32
  0
VERTEX
  8
0
  5
3362
 10
79.2743
 20
90.0811
 30
0.00000
  70
    32
  0
VERTEX
  8
0
  5
3363
 10
79.2710
 20
90.0662
 30
0.00000
  70
    32
  0
VERTEX
  8
0
  5
3364
 10
79.2676
 20
90.0511
 30
0.00000
  70
    32
  0
VERTEX
  8
0
  5
3365
 10
79.2643
 20
90.0360
 30
0.00000
  70
    32
  0
VERTEX
  8
0
  5
3366
 10
79.2610
 20
90.0208
 30
0.00000
  70
    32
  0
VERTEX
  8
0
  5
3367
 10
79.2577
 20
90.0054
 30
0.00000
  70
    32
  0
VERTEX
  8
0
  5
3368
 10
79.2543
 20
89.9900
 30
0.00000
  70
    32
  0
VERTEX
  8
0
  5
3369
 10
79.2510
 20
89.9745
 30
0.00000
  70
    32
  0
VERTEX
  8
0
  5
336A
 10
79.2477
 20
89.9590
 30
0.00000
  70
    32
  0
VERTEX
  8
0
  5
336B
 10
79.2444
 20
89.9433
 30
0.00000
  70
    32
  0
VERTEX
  8
0
  5
336C
 10
79.2411
 20
89.9275
 30
0.00000
  70
    32
  0
VERTEX
  8
0
  5
336D
 10
79.2377
 20
89.9117
 30
0.00000
  70
    32
  0
VERTEX
  8
0
  5
336E
 10
79.2344
 20
89.8957
 30
0.00000
  70
    32
  0
VERTEX
  8
0
  5
336F
 10
79.2311
 20
89.8797
 30
0.00000
  70
    32
  0
VERTEX
  8
0
  5
3370
 10
79.2278
 20
89.8636
 30
0.00000
  70
    32
  0
VERTEX
  8
0
  5
3371
 10
79.2245
 20
89.8473
 30
0.00000
  70
    32
  0
VERTEX
  8
0
  5
3372
 10
79.2212
 20
89.8310
 30
0.00000
  70
    32
  0
VERTEX
  8
0
  5
3373
 10
79.2179
 20
89.8146
 30
0.00000
  70
    32
  0
VERTEX
  8
0
  5
3374
 10
79.2145
 20
89.7982
 30
0.00000
  70
    32
  0
VERTEX
  8
0
  5
3375
 10
79.2112
 20
89.7816
 30
0.00000
  70
    32
  0
VERTEX
  8
0
  5
3376
 10
79.2079
 20
89.7649
 30
0.00000
  70
    32
  0
VERTEX
  8
0
  5
3377
 10
79.2046
 20
89.7482
 30
0.00000
  70
    32
  0
VERTEX
  8
0
  5
3378
 10
79.2013
 20
89.7313
 30
0.00000
  70
    32
  0
VERTEX
  8
0
  5
3379
 10
79.1980
 20
89.7144
 30
0.00000
  70
    32
  0
VERTEX
  8
0
  5
337A
 10
79.1947
 20
89.6974
 30
0.00000
  70
    32
  0
VERTEX
  8
0
  5
337B
 10
79.1914
 20
89.6803
 30
0.00000
  70
    32
  0
VERTEX
  8
0
  5
337C
 10
79.1881
 20
89.6630
 30
0.00000
  70
    32
  0
VERTEX
  8
0
  5
337D
 10
79.1848
 20
89.6458
 30
0.00000
  70
    32
  0
VERTEX
  8
0
  5
337E
 10
79.1815
 20
89.6284
 30
0.00000
  70
    32
  0
VERTEX
  8
0
  5
337F
 10
79.1782
 20
89.6109
 30
0.00000
  70
    32
  0
VERTEX
  8
0
  5
3380
 10
79.1749
 20
89.5933
 30
0.00000
  70
    32
  0
VERTEX
  8
0
  5
3381
 10
79.1716
 20
89.5757
 30
0.00000
  70
    32
  0
SEQEND
  8
0
  5
3382
  0
POLYLINE
  5
2D48
  8
0
 10
83.199999999864275
 20
87.727360368522767
 30
0.0
 66
     1
 70
     8
  0
VERTEX
  8
0
  5
3383
 10
83.2000
 20
87.7274
 30
0.00000
  70
    32
  0
VERTEX
  8
0
  5
3384
 10
83.1730
 20
87.7954
 30
0.00000
  70
    32
  0
VERTEX
  8
0
  5
3385
 10
83.1461
 20
87.8627
 30
0.00000
  70
    32
  0
VERTEX
  8
0
  5
3386
 10
83.1190
 20
87.9295
 30
0.00000
  70
    32
  0
VERTEX
  8
0
  5
3387
 10
83.0920
 20
87.9955
 30
0.00000
  70
    32
  0
VERTEX
  8
0
  5
3388
 10
83.0649
 20
88.0610
 30
0.00000
  70
    32
  0
VERTEX
  8
0
  5
3389
 10
83.0378
 20
88.1258
 30
0.00000
  70
    32
  0
VERTEX
  8
0
  5
338A
 10
83.0107
 20
88.1900
 30
0.00000
  70
    32
  0
VERTEX
  8
0
  5
338B
 10
82.9835
 20
88.2535
 30
0.00000
  70
    32
  0
VERTEX
  8
0
  5
338C
 10
82.9563
 20
88.3164
 30
0.00000
  70
    32
  0
VERTEX
  8
0
  5
338D
 10
82.9291
 20
88.3787
 30
0.00000
  70
    32
  0
VERTEX
  8
0
  5
338E
 10
82.9018
 20
88.4403
 30
0.00000
  70
    32
  0
VERTEX
  8
0
  5
338F
 10
82.8746
 20
88.5013
 30
0.00000
  70
    32
  0
VERTEX
  8
0
  5
3390
 10
82.8472
 20
88.5616
 30
0.00000
  70
    32
  0
VERTEX
  8
0
  5
3391
 10
82.8199
 20
88.6213
 30
0.00000
  70
    32
  0
VERTEX
  8
0
  5
3392
 10
82.7926
 20
88.6804
 30
0.00000
  70
    32
  0
VERTEX
  8
0
  5
3393
 10
82.7652
 20
88.7388
 30
0.00000
  70
    32
  0
VERTEX
  8
0
  5
3394
 10
82.7377
 20
88.7965
 30
0.00000
  70
    32
  0
VERTEX
  8
0
  5
3395
 10
82.7103
 20
88.8537
 30
0.00000
  70
    32
  0
VERTEX
  8
0
  5
3396
 10
82.6828
 20
88.9101
 30
0.00000
  70
    32
  0
VERTEX
  8
0
  5
3397
 10
82.6553
 20
88.9660
 30
0.00000
  70
    32
  0
VERTEX
  8
0
  5
3398
 10
82.6278
 20
89.0211
 30
0.00000
  70
    32
  0
VERTEX
  8
0
  5
3399
 10
82.6003
 20
89.0757
 30
0.00000
  70
    32
  0
VERTEX
  8
0
  5
339A
 10
82.5727
 20
89.1295
 30
0.00000
  70
    32
  0
VERTEX
  8
0
  5
339B
 10
82.5451
 20
89.1828
 30
0.00000
  70
    32
  0
VERTEX
  8
0
  5
339C
 10
82.5175
 20
89.2353
 30
0.00000
  70
    32
  0
VERTEX
  8
0
  5
339D
 10
82.4899
 20
89.2873
 30
0.00000
  70
    32
  0
VERTEX
  8
0
  5
339E
 10
82.4622
 20
89.3386
 30
0.00000
  70
    32
  0
VERTEX
  8
0
  5
339F
 10
82.4345
 20
89.3892
 30
0.00000
  70
    32
  0
VERTEX
  8
0
  5
33A0
 10
82.4068
 20
89.4392
 30
0.00000
  70
    32
  0
VERTEX
  8
0
  5
33A1
 10
82.3791
 20
89.4885
 30
0.00000
  70
    32
  0
VERTEX
  8
0
  5
33A2
 10
82.3513
 20
89.5372
 30
0.00000
  70
    32
  0
VERTEX
  8
0
  5
33A3
 10
82.3235
 20
89.5852
 30
0.00000
  70
    32
  0
VERTEX
  8
0
  5
33A4
 10
82.2957
 20
89.6325
 30
0.00000
  70
    32
  0
VERTEX
  8
0
  5
33A5
 10
82.2679
 20
89.6793
 30
0.00000
  70
    32
  0
VERTEX
  8
0
  5
33A6
 10
82.2401
 20
89.7253
 30
0.00000
  70
    32
  0
VERTEX
  8
0
  5
33A7
 10
82.2122
 20
89.7707
 30
0.00000
  70
    32
  0
VERTEX
  8
0
  5
33A8
 10
82.1843
 20
89.8154
 30
0.00000
  70
    32
  0
VERTEX
  8
0
  5
33A9
 10
82.1564
 20
89.8595
 30
0.00000
  70
    32
  0
VERTEX
  8
0
  5
33AA
 10
82.1285
 20
89.9030
 30
0.00000
  70
    32
  0
VERTEX
  8
0
  5
33AB
 10
82.1005
 20
89.9457
 30
0.00000
  70
    32
  0
VERTEX
  8
0
  5
33AC
 10
82.0726
 20
89.9878
 30
0.00000
  70
    32
  0
VERTEX
  8
0
  5
33AD
 10
82.0446
 20
90.0293
 30
0.00000
  70
    32
  0
VERTEX
  8
0
  5
33AE
 10
82.0166
 20
90.0701
 30
0.00000
  70
    32
  0
VERTEX
  8
0
  5
33AF
 10
81.9886
 20
90.1102
 30
0.00000
  70
    32
  0
VERTEX
  8
0
  5
33B0
 10
81.9605
 20
90.1497
 30
0.00000
  70
    32
  0
VERTEX
  8
0
  5
33B1
 10
81.9325
 20
90.1885
 30
0.00000
  70
    32
  0
VERTEX
  8
0
  5
33B2
 10
81.9044
 20
90.2267
 30
0.00000
  70
    32
  0
VERTEX
  8
0
  5
33B3
 10
81.8763
 20
90.2642
 30
0.00000
  70
    32
  0
VERTEX
  8
0
  5
33B4
 10
81.8482
 20
90.3010
 30
0.00000
  70
    32
  0
VERTEX
  8
0
  5
33B5
 10
81.8201
 20
90.3372
 30
0.00000
  70
    32
  0
VERTEX
  8
0
  5
33B6
 10
81.7919
 20
90.3727
 30
0.00000
  70
    32
  0
VERTEX
  8
0
  5
33B7
 10
81.7638
 20
90.4076
 30
0.00000
  70
    32
  0
VERTEX
  8
0
  5
33B8
 10
81.7356
 20
90.4418
 30
0.00000
  70
    32
  0
VERTEX
  8
0
  5
33B9
 10
81.7074
 20
90.4753
 30
0.00000
  70
    32
  0
VERTEX
  8
0
  5
33BA
 10
81.6792
 20
90.5081
 30
0.00000
  70
    32
  0
VERTEX
  8
0
  5
33BB
 10
81.6510
 20
90.5403
 30
0.00000
  70
    32
  0
VERTEX
  8
0
  5
33BC
 10
81.6228
 20
90.5719
 30
0.00000
  70
    32
  0
VERTEX
  8
0
  5
33BD
 10
81.5945
 20
90.6027
 30
0.00000
  70
    32
  0
VERTEX
  8
0
  5
33BE
 10
81.5663
 20
90.6329
 30
0.00000
  70
    32
  0
VERTEX
  8
0
  5
33BF
 10
81.5380
 20
90.6625
 30
0.00000
  70
    32
  0
VERTEX
  8
0
  5
33C0
 10
81.5097
 20
90.6914
 30
0.00000
  70
    32
  0
VERTEX
  8
0
  5
33C1
 10
81.4814
 20
90.7196
 30
0.00000
  70
    32
  0
VERTEX
  8
0
  5
33C2
 10
81.4531
 20
90.7471
 30
0.00000
  70
    32
  0
VERTEX
  8
0
  5
33C3
 10
81.4248
 20
90.7740
 30
0.00000
  70
    32
  0
VERTEX
  8
0
  5
33C4
 10
81.3964
 20
90.8002
 30
0.00000
  70
    32
  0
VERTEX
  8
0
  5
33C5
 10
81.3681
 20
90.8257
 30
0.00000
  70
    32
  0
VERTEX
  8
0
  5
33C6
 10
81.3397
 20
90.8506
 30
0.00000
  70
    32
  0
VERTEX
  8
0
  5
33C7
 10
81.3113
 20
90.8748
 30
0.00000
  70
    32
  0
VERTEX
  8
0
  5
33C8
 10
81.2830
 20
90.8983
 30
0.00000
  70
    32
  0
VERTEX
  8
0
  5
33C9
 10
81.2546
 20
90.9212
 30
0.00000
  70
    32
  0
VERTEX
  8
0
  5
33CA
 10
81.2262
 20
90.9434
 30
0.00000
  70
    32
  0
VERTEX
  8
0
  5
33CB
 10
81.1977
 20
90.9649
 30
0.00000
  70
    32
  0
VERTEX
  8
0
  5
33CC
 10
81.1693
 20
90.9858
 30
0.00000
  70
    32
  0
VERTEX
  8
0
  5
33CD
 10
81.1409
 20
91.0060
 30
0.00000
  70
    32
  0
VERTEX
  8
0
  5
33CE
 10
81.1124
 20
91.0255
 30
0.00000
  70
    32
  0
VERTEX
  8
0
  5
33CF
 10
81.0840
 20
91.0444
 30
0.00000
  70
    32
  0
VERTEX
  8
0
  5
33D0
 10
81.0555
 20
91.0626
 30
0.00000
  70
    32
  0
VERTEX
  8
0
  5
33D1
 10
81.0271
 20
91.0801
 30
0.00000
  70
    32
  0
VERTEX
  8
0
  5
33D2
 10
80.9986
 20
91.0969
 30
0.00000
  70
    32
  0
VERTEX
  8
0
  5
33D3
 10
80.9701
 20
91.1131
 30
0.00000
  70
    32
  0
VERTEX
  8
0
  5
33D4
 10
80.9416
 20
91.1286
 30
0.00000
  70
    32
  0
VERTEX
  8
0
  5
33D5
 10
80.9131
 20
91.1435
 30
0.00000
  70
    32
  0
VERTEX
  8
0
  5
33D6
 10
80.8846
 20
91.1576
 30
0.00000
  70
    32
  0
VERTEX
  8
0
  5
33D7
 10
80.8561
 20
91.1711
 30
0.00000
  70
    32
  0
VERTEX
  8
0
  5
33D8
 10
80.8276
 20
91.1839
 30
0.00000
  70
    32
  0
VERTEX
  8
0
  5
33D9
 10
80.7990
 20
91.1961
 30
0.00000
  70
    32
  0
VERTEX
  8
0
  5
33DA
 10
80.7705
 20
91.2076
 30
0.00000
  70
    32
  0
VERTEX
  8
0
  5
33DB
 10
80.7420
 20
91.2184
 30
0.00000
  70
    32
  0
VERTEX
  8
0
  5
33DC
 10
80.7134
 20
91.2285
 30
0.00000
  70
    32
  0
VERTEX
  8
0
  5
33DD
 10
80.6849
 20
91.2380
 30
0.00000
  70
    32
  0
VERTEX
  8
0
  5
33DE
 10
80.6564
 20
91.2468
 30
0.00000
  70
    32
  0
VERTEX
  8
0
  5
33DF
 10
80.6278
 20
91.2549
 30
0.00000
  70
    32
  0
VERTEX
  8
0
  5
33E0
 10
80.5993
 20
91.2623
 30
0.00000
  70
    32
  0
VERTEX
  8
0
  5
33E1
 10
80.5707
 20
91.2691
 30
0.00000
  70
    32
  0
VERTEX
  8
0
  5
33E2
 10
80.5421
 20
91.2752
 30
0.00000
  70
    32
  0
VERTEX
  8
0
  5
33E3
 10
80.5136
 20
91.2807
 30
0.00000
  70
    32
  0
VERTEX
  8
0
  5
33E4
 10
80.4850
 20
91.2854
 30
0.00000
  70
    32
  0
VERTEX
  8
0
  5
33E5
 10
80.4564
 20
91.2895
 30
0.00000
  70
    32
  0
VERTEX
  8
0
  5
33E6
 10
80.4279
 20
91.2929
 30
0.00000
  70
    32
  0
VERTEX
  8
0
  5
33E7
 10
80.3993
 20
91.2957
 30
0.00000
  70
    32
  0
VERTEX
  8
0
  5
33E8
 10
80.3707
 20
91.2978
 30
0.00000
  70
    32
  0
VERTEX
  8
0
  5
33E9
 10
80.3422
 20
91.2992
 30
0.00000
  70
    32
  0
VERTEX
  8
0
  5
33EA
 10
80.3136
 20
91.2999
 30
0.00000
  70
    32
  0
VERTEX
  8
0
  5
33EB
 10
80.2850
 20
91.2999
 30
0.00000
  70
    32
  0
VERTEX
  8
0
  5
33EC
 10
80.2564
 20
91.2993
 30
0.00000
  70
    32
  0
VERTEX
  8
0
  5
33ED
 10
80.2279
 20
91.2980
 30
0.00000
  70
    32
  0
VERTEX
  8
0
  5
33EE
 10
80.1993
 20
91.2961
 30
0.00000
  70
    32
  0
VERTEX
  8
0
  5
33EF
 10
80.1707
 20
91.2934
 30
0.00000
  70
    32
  0
VERTEX
  8
0
  5
33F0
 10
80.1422
 20
91.2901
 30
0.00000
  70
    32
  0
VERTEX
  8
0
  5
33F1
 10
80.1136
 20
91.2862
 30
0.00000
  70
    32
  0
VERTEX
  8
0
  5
33F2
 10
80.0850
 20
91.2815
 30
0.00000
  70
    32
  0
VERTEX
  8
0
  5
33F3
 10
80.0565
 20
91.2762
 30
0.00000
  70
    32
  0
VERTEX
  8
0
  5
33F4
 10
80.0279
 20
91.2702
 30
0.00000
  70
    32
  0
VERTEX
  8
0
  5
33F5
 10
79.9993
 20
91.2635
 30
0.00000
  70
    32
  0
VERTEX
  8
0
  5
33F6
 10
79.9708
 20
91.2562
 30
0.00000
  70
    32
  0
VERTEX
  8
0
  5
33F7
 10
79.9422
 20
91.2482
 30
0.00000
  70
    32
  0
VERTEX
  8
0
  5
33F8
 10
79.9137
 20
91.2395
 30
0.00000
  70
    32
  0
VERTEX
  8
0
  5
33F9
 10
79.8851
 20
91.2301
 30
0.00000
  70
    32
  0
VERTEX
  8
0
  5
33FA
 10
79.8566
 20
91.2201
 30
0.00000
  70
    32
  0
VERTEX
  8
0
  5
33FB
 10
79.8281
 20
91.2094
 30
0.00000
  70
    32
  0
VERTEX
  8
0
  5
33FC
 10
79.7995
 20
91.1980
 30
0.00000
  70
    32
  0
VERTEX
  8
0
  5
33FD
 10
79.7710
 20
91.1860
 30
0.00000
  70
    32
  0
VERTEX
  8
0
  5
33FE
 10
79.7425
 20
91.1733
 30
0.00000
  70
    32
  0
VERTEX
  8
0
  5
33FF
 10
79.7140
 20
91.1599
 30
0.00000
  70
    32
  0
VERTEX
  8
0
  5
3400
 10
79.6855
 20
91.1459
 30
0.00000
  70
    32
  0
VERTEX
  8
0
  5
3401
 10
79.6570
 20
91.1311
 30
0.00000
  70
    32
  0
VERTEX
  8
0
  5
3402
 10
79.6285
 20
91.1157
 30
0.00000
  70
    32
  0
VERTEX
  8
0
  5
3403
 10
79.6000
 20
91.0997
 30
0.00000
  70
    32
  0
SEQEND
  8
0
  5
3404
  0
LINE
  5
2D49
  8
0
 10
83.1999999998649855
 20
87.7273603685209338
 30
0.0
 11
83.1999999998649855
 21
87.4942871719111679
 31
0.0
  0
POLYLINE
  5
2D4A
  8
0
 66
     1
 10
0.0
 20
0.0
 30
0.0
 70
   128
  0
VERTEX
  5
2F43
  8
0
 10
83.1999999998649855
 20
87.4942871719111679
 30
0.0
  0
VERTEX
  5
2F44
  8
0
 10
83.0810305199435106
 20
86.927880693575645
 30
0.0
  0
VERTEX
  5
2F45
  8
0
 10
82.8316539608546805
 20
86.3297329560011235
 30
0.0
  0
VERTEX
  5
2F46
  8
0
 10
82.4430822541153816
 20
85.6860580493041084
 30
0.0
  0
VERTEX
  5
2F47
  8
0
 10
81.926497274739333
 20
85.0212555031200736
 30
0.0
  0
VERTEX
  5
2F48
  8
0
 10
80.8293775517858535
 20
83.9168335575170943
 30
0.0
  0
VERTEX
  5
2F49
  8
0
 10
79.4004168236738224
 20
82.790250437387499
 30
0.0
  0
SEQEND
  5
2F4A
  8
0
  0
ARC
  5
2D4B
  8
0
 10
57.9915822552734284
 20
90.062779982320663
 30
0.0
 40
8.3941969396771015
 50
197.8173939542087112
 51
240.040183082272506
  0
LINE
  5
2D4C
  8
0
 10
49.9999999998649898
 20
87.7273603685209622
 30
0.0
 11
49.9999999998649898
 21
87.4942871719111679
 31
0.0
  0
POLYLINE
  5
2D4D
  8
0
 10
53.5999999998641172
 20
91.0996789718860214
 30
0.0
 66
     1
 70
     8
  0
VERTEX
  8
0
  5
3405
 10
53.6000
 20
91.0997
 30
0.00000
  70
    32
  0
VERTEX
  8
0
  5
3406
 10
53.5715
 20
91.1157
 30
0.00000
  70
    32
  0
VERTEX
  8
0
  5
3407
 10
53.5430
 20
91.1311
 30
0.00000
  70
    32
  0
VERTEX
  8
0
  5
3408
 10
53.5145
 20
91.1459
 30
0.00000
  70
    32
  0
VERTEX
  8
0
  5
3409
 10
53.4860
 20
91.1599
 30
0.00000
  70
    32
  0
VERTEX
  8
0
  5
340A
 10
53.4575
 20
91.1733
 30
0.00000
  70
    32
  0
VERTEX
  8
0
  5
340B
 10
53.4290
 20
91.1860
 30
0.00000
  70
    32
  0
VERTEX
  8
0
  5
340C
 10
53.4005
 20
91.1980
 30
0.00000
  70
    32
  0
VERTEX
  8
0
  5
340D
 10
53.3719
 20
91.2094
 30
0.00000
  70
    32
  0
VERTEX
  8
0
  5
340E
 10
53.3434
 20
91.2201
 30
0.00000
  70
    32
  0
VERTEX
  8
0
  5
340F
 10
53.3149
 20
91.2301
 30
0.00000
  70
    32
  0
VERTEX
  8
0
  5
3410
 10
53.2863
 20
91.2395
 30
0.00000
  70
    32
  0
VERTEX
  8
0
  5
3411
 10
53.2578
 20
91.2482
 30
0.00000
  70
    32
  0
VERTEX
  8
0
  5
3412
 10
53.2292
 20
91.2562
 30
0.00000
  70
    32
  0
VERTEX
  8
0
  5
3413
 10
53.2007
 20
91.2635
 30
0.00000
  70
    32
  0
VERTEX
  8
0
  5
3414
 10
53.1721
 20
91.2702
 30
0.00000
  70
    32
  0
VERTEX
  8
0
  5
3415
 10
53.1435
 20
91.2762
 30
0.00000
  70
    32
  0
VERTEX
  8
0
  5
3416
 10
53.1150
 20
91.2815
 30
0.00000
  70
    32
  0
VERTEX
  8
0
  5
3417
 10
53.0864
 20
91.2862
 30
0.00000
  70
    32
  0
VERTEX
  8
0
  5
3418
 10
53.0578
 20
91.2901
 30
0.00000
  70
    32
  0
VERTEX
  8
0
  5
3419
 10
53.0293
 20
91.2934
 30
0.00000
  70
    32
  0
VERTEX
  8
0
  5
341A
 10
53.0007
 20
91.2961
 30
0.00000
  70
    32
  0
VERTEX
  8
0
  5
341B
 10
52.9721
 20
91.2980
 30
0.00000
  70
    32
  0
VERTEX
  8
0
  5
341C
 10
52.9436
 20
91.2993
 30
0.00000
  70
    32
  0
VERTEX
  8
0
  5
341D
 10
52.9150
 20
91.2999
 30
0.00000
  70
    32
  0
VERTEX
  8
0
  5
341E
 10
52.8864
 20
91.2999
 30
0.00000
  70
    32
  0
VERTEX
  8
0
  5
341F
 10
52.8578
 20
91.2992
 30
0.00000
  70
    32
  0
VERTEX
  8
0
  5
3420
 10
52.8293
 20
91.2978
 30
0.00000
  70
    32
  0
VERTEX
  8
0
  5
3421
 10
52.8007
 20
91.2957
 30
0.00000
  70
    32
  0
VERTEX
  8
0
  5
3422
 10
52.7721
 20
91.2929
 30
0.00000
  70
    32
  0
VERTEX
  8
0
  5
3423
 10
52.7436
 20
91.2895
 30
0.00000
  70
    32
  0
VERTEX
  8
0
  5
3424
 10
52.7150
 20
91.2854
 30
0.00000
  70
    32
  0
VERTEX
  8
0
  5
3425
 10
52.6864
 20
91.2807
 30
0.00000
  70
    32
  0
VERTEX
  8
0
  5
3426
 10
52.6579
 20
91.2752
 30
0.00000
  70
    32
  0
VERTEX
  8
0
  5
3427
 10
52.6293
 20
91.2691
 30
0.00000
  70
    32
  0
VERTEX
  8
0
  5
3428
 10
52.6007
 20
91.2623
 30
0.00000
  70
    32
  0
VERTEX
  8
0
  5
3429
 10
52.5722
 20
91.2549
 30
0.00000
  70
    32
  0
VERTEX
  8
0
  5
342A
 10
52.5436
 20
91.2468
 30
0.00000
  70
    32
  0
VERTEX
  8
0
  5
342B
 10
52.5151
 20
91.2380
 30
0.00000
  70
    32
  0
VERTEX
  8
0
  5
342C
 10
52.4866
 20
91.2285
 30
0.00000
  70
    32
  0
VERTEX
  8
0
  5
342D
 10
52.4580
 20
91.2184
 30
0.00000
  70
    32
  0
VERTEX
  8
0
  5
342E
 10
52.4295
 20
91.2076
 30
0.00000
  70
    32
  0
VERTEX
  8
0
  5
342F
 10
52.4010
 20
91.1961
 30
0.00000
  70
    32
  0
VERTEX
  8
0
  5
3430
 10
52.3724
 20
91.1839
 30
0.00000
  70
    32
  0
VERTEX
  8
0
  5
3431
 10
52.3439
 20
91.1711
 30
0.00000
  70
    32
  0
VERTEX
  8
0
  5
3432
 10
52.3154
 20
91.1576
 30
0.00000
  70
    32
  0
VERTEX
  8
0
  5
3433
 10
52.2869
 20
91.1435
 30
0.00000
  70
    32
  0
VERTEX
  8
0
  5
3434
 10
52.2584
 20
91.1286
 30
0.00000
  70
    32
  0
VERTEX
  8
0
  5
3435
 10
52.2299
 20
91.1131
 30
0.00000
  70
    32
  0
VERTEX
  8
0
  5
3436
 10
52.2014
 20
91.0969
 30
0.00000
  70
    32
  0
VERTEX
  8
0
  5
3437
 10
52.1729
 20
91.0801
 30
0.00000
  70
    32
  0
VERTEX
  8
0
  5
3438
 10
52.1445
 20
91.0626
 30
0.00000
  70
    32
  0
VERTEX
  8
0
  5
3439
 10
52.1160
 20
91.0444
 30
0.00000
  70
    32
  0
VERTEX
  8
0
  5
343A
 10
52.0876
 20
91.0255
 30
0.00000
  70
    32
  0
VERTEX
  8
0
  5
343B
 10
52.0591
 20
91.0060
 30
0.00000
  70
    32
  0
VERTEX
  8
0
  5
343C
 10
52.0307
 20
90.9858
 30
0.00000
  70
    32
  0
VERTEX
  8
0
  5
343D
 10
52.0023
 20
90.9649
 30
0.00000
  70
    32
  0
VERTEX
  8
0
  5
343E
 10
51.9738
 20
90.9434
 30
0.00000
  70
    32
  0
VERTEX
  8
0
  5
343F
 10
51.9454
 20
90.9212
 30
0.00000
  70
    32
  0
VERTEX
  8
0
  5
3440
 10
51.9170
 20
90.8983
 30
0.00000
  70
    32
  0
VERTEX
  8
0
  5
3441
 10
51.8887
 20
90.8748
 30
0.00000
  70
    32
  0
VERTEX
  8
0
  5
3442
 10
51.8603
 20
90.8506
 30
0.00000
  70
    32
  0
VERTEX
  8
0
  5
3443
 10
51.8319
 20
90.8257
 30
0.00000
  70
    32
  0
VERTEX
  8
0
  5
3444
 10
51.8036
 20
90.8002
 30
0.00000
  70
    32
  0
VERTEX
  8
0
  5
3445
 10
51.7752
 20
90.7740
 30
0.00000
  70
    32
  0
VERTEX
  8
0
  5
3446
 10
51.7469
 20
90.7471
 30
0.00000
  70
    32
  0
VERTEX
  8
0
  5
3447
 10
51.7186
 20
90.7196
 30
0.00000
  70
    32
  0
VERTEX
  8
0
  5
3448
 10
51.6903
 20
90.6914
 30
0.00000
  70
    32
  0
VERTEX
  8
0
  5
3449
 10
51.6620
 20
90.6625
 30
0.00000
  70
    32
  0
VERTEX
  8
0
  5
344A
 10
51.6337
 20
90.6329
 30
0.00000
  70
    32
  0
VERTEX
  8
0
  5
344B
 10
51.6055
 20
90.6027
 30
0.00000
  70
    32
  0
VERTEX
  8
0
  5
344C
 10
51.5772
 20
90.5719
 30
0.00000
  70
    32
  0
VERTEX
  8
0
  5
344D
 10
51.5490
 20
90.5403
 30
0.00000
  70
    32
  0
VERTEX
  8
0
  5
344E
 10
51.5208
 20
90.5081
 30
0.00000
  70
    32
  0
VERTEX
  8
0
  5
344F
 10
51.4926
 20
90.4753
 30
0.00000
  70
    32
  0
VERTEX
  8
0
  5
3450
 10
51.4644
 20
90.4418
 30
0.00000
  70
    32
  0
VERTEX
  8
0
  5
3451
 10
51.4362
 20
90.4076
 30
0.00000
  70
    32
  0
VERTEX
  8
0
  5
3452
 10
51.4081
 20
90.3727
 30
0.00000
  70
    32
  0
VERTEX
  8
0
  5
3453
 10
51.3799
 20
90.3372
 30
0.00000
  70
    32
  0
VERTEX
  8
0
  5
3454
 10
51.3518
 20
90.3010
 30
0.00000
  70
    32
  0
VERTEX
  8
0
  5
3455
 10
51.3237
 20
90.2642
 30
0.00000
  70
    32
  0
VERTEX
  8
0
  5
3456
 10
51.2956
 20
90.2267
 30
0.00000
  70
    32
  0
VERTEX
  8
0
  5
3457
 10
51.2675
 20
90.1885
 30
0.00000
  70
    32
  0
VERTEX
  8
0
  5
3458
 10
51.2395
 20
90.1497
 30
0.00000
  70
    32
  0
VERTEX
  8
0
  5
3459
 10
51.2114
 20
90.1102
 30
0.00000
  70
    32
  0
VERTEX
  8
0
  5
345A
 10
51.1834
 20
90.0701
 30
0.00000
  70
    32
  0
VERTEX
  8
0
  5
345B
 10
51.1554
 20
90.0293
 30
0.00000
  70
    32
  0
VERTEX
  8
0
  5
345C
 10
51.1274
 20
89.9878
 30
0.00000
  70
    32
  0
VERTEX
  8
0
  5
345D
 10
51.0995
 20
89.9457
 30
0.00000
  70
    32
  0
VERTEX
  8
0
  5
345E
 10
51.0715
 20
89.9030
 30
0.00000
  70
    32
  0
VERTEX
  8
0
  5
345F
 10
51.0436
 20
89.8595
 30
0.00000
  70
    32
  0
VERTEX
  8
0
  5
3460
 10
51.0157
 20
89.8154
 30
0.00000
  70
    32
  0
VERTEX
  8
0
  5
3461
 10
50.9878
 20
89.7707
 30
0.00000
  70
    32
  0
VERTEX
  8
0
  5
3462
 10
50.9599
 20
89.7253
 30
0.00000
  70
    32
  0
VERTEX
  8
0
  5
3463
 10
50.9321
 20
89.6793
 30
0.00000
  70
    32
  0
VERTEX
  8
0
  5
3464
 10
50.9043
 20
89.6325
 30
0.00000
  70
    32
  0
VERTEX
  8
0
  5
3465
 10
50.8765
 20
89.5852
 30
0.00000
  70
    32
  0
VERTEX
  8
0
  5
3466
 10
50.8487
 20
89.5372
 30
0.00000
  70
    32
  0
VERTEX
  8
0
  5
3467
 10
50.8209
 20
89.4885
 30
0.00000
  70
    32
  0
VERTEX
  8
0
  5
3468
 10
50.7932
 20
89.4392
 30
0.00000
  70
    32
  0
VERTEX
  8
0
  5
3469
 10
50.7655
 20
89.3892
 30
0.00000
  70
    32
  0
VERTEX
  8
0
  5
346A
 10
50.7378
 20
89.3386
 30
0.00000
  70
    32
  0
VERTEX
  8
0
  5
346B
 10
50.7101
 20
89.2873
 30
0.00000
  70
    32
  0
VERTEX
  8
0
  5
346C
 10
50.6825
 20
89.2353
 30
0.00000
  70
    32
  0
VERTEX
  8
0
  5
346D
 10
50.6549
 20
89.1828
 30
0.00000
  70
    32
  0
VERTEX
  8
0
  5
346E
 10
50.6273
 20
89.1295
 30
0.00000
  70
    32
  0
VERTEX
  8
0
  5
346F
 10
50.5997
 20
89.0757
 30
0.00000
  70
    32
  0
VERTEX
  8
0
  5
3470
 10
50.5722
 20
89.0211
 30
0.00000
  70
    32
  0
VERTEX
  8
0
  5
3471
 10
50.5447
 20
88.9660
 30
0.00000
  70
    32
  0
VERTEX
  8
0
  5
3472
 10
50.5172
 20
88.9101
 30
0.00000
  70
    32
  0
VERTEX
  8
0
  5
3473
 10
50.4897
 20
88.8537
 30
0.00000
  70
    32
  0
VERTEX
  8
0
  5
3474
 10
50.4623
 20
88.7965
 30
0.00000
  70
    32
  0
VERTEX
  8
0
  5
3475
 10
50.4348
 20
88.7388
 30
0.00000
  70
    32
  0
VERTEX
  8
0
  5
3476
 10
50.4074
 20
88.6804
 30
0.00000
  70
    32
  0
VERTEX
  8
0
  5
3477
 10
50.3801
 20
88.6213
 30
0.00000
  70
    32
  0
VERTEX
  8
0
  5
3478
 10
50.3528
 20
88.5616
 30
0.00000
  70
    32
  0
VERTEX
  8
0
  5
3479
 10
50.3254
 20
88.5013
 30
0.00000
  70
    32
  0
VERTEX
  8
0
  5
347A
 10
50.2982
 20
88.4403
 30
0.00000
  70
    32
  0
VERTEX
  8
0
  5
347B
 10
50.2709
 20
88.3787
 30
0.00000
  70
    32
  0
VERTEX
  8
0
  5
347C
 10
50.2437
 20
88.3164
 30
0.00000
  70
    32
  0
VERTEX
  8
0
  5
347D
 10
50.2165
 20
88.2535
 30
0.00000
  70
    32
  0
VERTEX
  8
0
  5
347E
 10
50.1893
 20
88.1900
 30
0.00000
  70
    32
  0
VERTEX
  8
0
  5
347F
 10
50.1622
 20
88.1258
 30
0.00000
  70
    32
  0
VERTEX
  8
0
  5
3480
 10
50.1351
 20
88.0610
 30
0.00000
  70
    32
  0
VERTEX
  8
0
  5
3481
 10
50.1080
 20
87.9955
 30
0.00000
  70
    32
  0
VERTEX
  8
0
  5
3482
 10
50.0810
 20
87.9295
 30
0.00000
  70
    32
  0
VERTEX
  8
0
  5
3483
 10
50.0539
 20
87.8627
 30
0.00000
  70
    32
  0
VERTEX
  8
0
  5
3484
 10
50.0270
 20
87.7954
 30
0.00000
  70
    32
  0
VERTEX
  8
0
  5
3485
 10
50.0000
 20
87.7274
 30
0.00000
  70
    32
  0
SEQEND
  8
0
  5
3486
  0
POLYLINE
  5
2D4E
  8
0
 10
83.1999999998644739
 20
99.2299364911476687
 30
0.0
 66
     1
 70
     8
  0
VERTEX
  8
0
  5
3487
 10
83.2000
 20
99.2299
 30
0.00000
  70
    32
  0
VERTEX
  8
0
  5
3488
 10
83.1730
 20
99.2976
 30
0.00000
  70
    32
  0
VERTEX
  8
0
  5
3489
 10
83.1460
 20
99.3645
 30
0.00000
  70
    32
  0
VERTEX
  8
0
  5
348A
 10
83.1190
 20
99.4304
 30
0.00000
  70
    32
  0
VERTEX
  8
0
  5
348B
 10
83.0919
 20
99.4954
 30
0.00000
  70
    32
  0
VERTEX
  8
0
  5
348C
 10
83.0648
 20
99.5596
 30
0.00000
  70
    32
  0
VERTEX
  8
0
  5
348D
 10
83.0376
 20
99.6229
 30
0.00000
  70
    32
  0
VERTEX
  8
0
  5
348E
 10
83.0104
 20
99.6853
 30
0.00000
  70
    32
  0
VERTEX
  8
0
  5
348F
 10
82.9832
 20
99.7468
 30
0.00000
  70
    32
  0
VERTEX
  8
0
  5
3490
 10
82.9559
 20
99.8074
 30
0.00000
  70
    32
  0
VERTEX
  8
0
  5
3491
 10
82.9286
 20
99.8671
 30
0.00000
  70
    32
  0
VERTEX
  8
0
  5
3492
 10
82.9012
 20
99.9259
 30
0.00000
  70
    32
  0
VERTEX
  8
0
  5
3493
 10
82.8738
 20
99.9839
 30
0.00000
  70
    32
  0
VERTEX
  8
0
  5
3494
 10
82.8464
 20
100.041
 30
0.00000
  70
    32
  0
VERTEX
  8
0
  5
3495
 10
82.8189
 20
100.097
 30
0.00000
  70
    32
  0
VERTEX
  8
0
  5
3496
 10
82.7914
 20
100.152
 30
0.00000
  70
    32
  0
VERTEX
  8
0
  5
3497
 10
82.7639
 20
100.207
 30
0.00000
  70
    32
  0
VERTEX
  8
0
  5
3498
 10
82.7363
 20
100.260
 30
0.00000
  70
    32
  0
VERTEX
  8
0
  5
3499
 10
82.7087
 20
100.313
 30
0.00000
  70
    32
  0
VERTEX
  8
0
  5
349A
 10
82.6811
 20
100.364
 30
0.00000
  70
    32
  0
VERTEX
  8
0
  5
349B
 10
82.6534
 20
100.415
 30
0.00000
  70
    32
  0
VERTEX
  8
0
  5
349C
 10
82.6257
 20
100.465
 30
0.00000
  70
    32
  0
VERTEX
  8
0
  5
349D
 10
82.5980
 20
100.514
 30
0.00000
  70
    32
  0
VERTEX
  8
0
  5
349E
 10
82.5702
 20
100.562
 30
0.00000
  70
    32
  0
VERTEX
  8
0
  5
349F
 10
82.5424
 20
100.609
 30
0.00000
  70
    32
  0
VERTEX
  8
0
  5
34A0
 10
82.5146
 20
100.655
 30
0.00000
  70
    32
  0
VERTEX
  8
0
  5
34A1
 10
82.4867
 20
100.700
 30
0.00000
  70
    32
  0
VERTEX
  8
0
  5
34A2
 10
82.4589
 20
100.745
 30
0.00000
  70
    32
  0
VERTEX
  8
0
  5
34A3
 10
82.4310
 20
100.788
 30
0.00000
  70
    32
  0
VERTEX
  8
0
  5
34A4
 10
82.4030
 20
100.831
 30
0.00000
  70
    32
  0
VERTEX
  8
0
  5
34A5
 10
82.3751
 20
100.872
 30
0.00000
  70
    32
  0
VERTEX
  8
0
  5
34A6
 10
82.3471
 20
100.913
 30
0.00000
  70
    32
  0
VERTEX
  8
0
  5
34A7
 10
82.3190
 20
100.953
 30
0.00000
  70
    32
  0
VERTEX
  8
0
  5
34A8
 10
82.2910
 20
100.992
 30
0.00000
  70
    32
  0
VERTEX
  8
0
  5
34A9
 10
82.2629
 20
101.030
 30
0.00000
  70
    32
  0
VERTEX
  8
0
  5
34AA
 10
82.2349
 20
101.067
 30
0.00000
  70
    32
  0
VERTEX
  8
0
  5
34AB
 10
82.2067
 20
101.103
 30
0.00000
  70
    32
  0
VERTEX
  8
0
  5
34AC
 10
82.1786
 20
101.138
 30
0.00000
  70
    32
  0
VERTEX
  8
0
  5
34AD
 10
82.1504
 20
101.172
 30
0.00000
  70
    32
  0
VERTEX
  8
0
  5
34AE
 10
82.1223
 20
101.206
 30
0.00000
  70
    32
  0
VERTEX
  8
0
  5
34AF
 10
82.0941
 20
101.238
 30
0.00000
  70
    32
  0
VERTEX
  8
0
  5
34B0
 10
82.0659
 20
101.270
 30
0.00000
  70
    32
  0
VERTEX
  8
0
  5
34B1
 10
82.0376
 20
101.300
 30
0.00000
  70
    32
  0
VERTEX
  8
0
  5
34B2
 10
82.0094
 20
101.330
 30
0.00000
  70
    32
  0
VERTEX
  8
0
  5
34B3
 10
81.9811
 20
101.359
 30
0.00000
  70
    32
  0
VERTEX
  8
0
  5
34B4
 10
81.9528
 20
101.387
 30
0.00000
  70
    32
  0
VERTEX
  8
0
  5
34B5
 10
81.9245
 20
101.414
 30
0.00000
  70
    32
  0
VERTEX
  8
0
  5
34B6
 10
81.8961
 20
101.440
 30
0.00000
  70
    32
  0
VERTEX
  8
0
  5
34B7
 10
81.8678
 20
101.465
 30
0.00000
  70
    32
  0
VERTEX
  8
0
  5
34B8
 10
81.8394
 20
101.489
 30
0.00000
  70
    32
  0
VERTEX
  8
0
  5
34B9
 10
81.8111
 20
101.512
 30
0.00000
  70
    32
  0
VERTEX
  8
0
  5
34BA
 10
81.7827
 20
101.534
 30
0.00000
  70
    32
  0
VERTEX
  8
0
  5
34BB
 10
81.7543
 20
101.556
 30
0.00000
  70
    32
  0
VERTEX
  8
0
  5
34BC
 10
81.7258
 20
101.576
 30
0.00000
  70
    32
  0
VERTEX
  8
0
  5
34BD
 10
81.6974
 20
101.596
 30
0.00000
  70
    32
  0
VERTEX
  8
0
  5
34BE
 10
81.6690
 20
101.614
 30
0.00000
  70
    32
  0
VERTEX
  8
0
  5
34BF
 10
81.6405
 20
101.632
 30
0.00000
  70
    32
  0
VERTEX
  8
0
  5
34C0
 10
81.6121
 20
101.648
 30
0.00000
  70
    32
  0
VERTEX
  8
0
  5
34C1
 10
81.5836
 20
101.664
 30
0.00000
  70
    32
  0
VERTEX
  8
0
  5
34C2
 10
81.5551
 20
101.679
 30
0.00000
  70
    32
  0
VERTEX
  8
0
  5
34C3
 10
81.5266
 20
101.693
 30
0.00000
  70
    32
  0
VERTEX
  8
0
  5
34C4
 10
81.4981
 20
101.706
 30
0.00000
  70
    32
  0
VERTEX
  8
0
  5
34C5
 10
81.4696
 20
101.718
 30
0.00000
  70
    32
  0
VERTEX
  8
0
  5
34C6
 10
81.4411
 20
101.729
 30
0.00000
  70
    32
  0
VERTEX
  8
0
  5
34C7
 10
81.4126
 20
101.739
 30
0.00000
  70
    32
  0
VERTEX
  8
0
  5
34C8
 10
81.3840
 20
101.749
 30
0.00000
  70
    32
  0
VERTEX
  8
0
  5
34C9
 10
81.3555
 20
101.757
 30
0.00000
  70
    32
  0
VERTEX
  8
0
  5
34CA
 10
81.3269
 20
101.764
 30
0.00000
  70
    32
  0
VERTEX
  8
0
  5
34CB
 10
81.2984
 20
101.771
 30
0.00000
  70
    32
  0
VERTEX
  8
0
  5
34CC
 10
81.2699
 20
101.776
 30
0.00000
  70
    32
  0
VERTEX
  8
0
  5
34CD
 10
81.2413
 20
101.781
 30
0.00000
  70
    32
  0
VERTEX
  8
0
  5
34CE
 10
81.2127
 20
101.785
 30
0.00000
  70
    32
  0
VERTEX
  8
0
  5
34CF
 10
81.1842
 20
101.787
 30
0.00000
  70
    32
  0
VERTEX
  8
0
  5
34D0
 10
81.1556
 20
101.789
 30
0.00000
  70
    32
  0
VERTEX
  8
0
  5
34D1
 10
81.1271
 20
101.790
 30
0.00000
  70
    32
  0
VERTEX
  8
0
  5
34D2
 10
81.0985
 20
101.790
 30
0.00000
  70
    32
  0
VERTEX
  8
0
  5
34D3
 10
81.0699
 20
101.789
 30
0.00000
  70
    32
  0
VERTEX
  8
0
  5
34D4
 10
81.0414
 20
101.787
 30
0.00000
  70
    32
  0
VERTEX
  8
0
  5
34D5
 10
81.0128
 20
101.784
 30
0.00000
  70
    32
  0
VERTEX
  8
0
  5
34D6
 10
80.9843
 20
101.780
 30
0.00000
  70
    32
  0
VERTEX
  8
0
  5
34D7
 10
80.9557
 20
101.775
 30
0.00000
  70
    32
  0
VERTEX
  8
0
  5
34D8
 10
80.9272
 20
101.770
 30
0.00000
  70
    32
  0
VERTEX
  8
0
  5
34D9
 10
80.8986
 20
101.763
 30
0.00000
  70
    32
  0
VERTEX
  8
0
  5
34DA
 10
80.8701
 20
101.756
 30
0.00000
  70
    32
  0
VERTEX
  8
0
  5
34DB
 10
80.8416
 20
101.747
 30
0.00000
  70
    32
  0
VERTEX
  8
0
  5
34DC
 10
80.8130
 20
101.738
 30
0.00000
  70
    32
  0
VERTEX
  8
0
  5
34DD
 10
80.7845
 20
101.727
 30
0.00000
  70
    32
  0
VERTEX
  8
0
  5
34DE
 10
80.7560
 20
101.716
 30
0.00000
  70
    32
  0
VERTEX
  8
0
  5
34DF
 10
80.7275
 20
101.704
 30
0.00000
  70
    32
  0
VERTEX
  8
0
  5
34E0
 10
80.6990
 20
101.691
 30
0.00000
  70
    32
  0
VERTEX
  8
0
  5
34E1
 10
80.6705
 20
101.677
 30
0.00000
  70
    32
  0
VERTEX
  8
0
  5
34E2
 10
80.6420
 20
101.662
 30
0.00000
  70
    32
  0
VERTEX
  8
0
  5
34E3
 10
80.6135
 20
101.646
 30
0.00000
  70
    32
  0
VERTEX
  8
0
  5
34E4
 10
80.5851
 20
101.629
 30
0.00000
  70
    32
  0
VERTEX
  8
0
  5
34E5
 10
80.5566
 20
101.611
 30
0.00000
  70
    32
  0
VERTEX
  8
0
  5
34E6
 10
80.5282
 20
101.592
 30
0.00000
  70
    32
  0
VERTEX
  8
0
  5
34E7
 10
80.4998
 20
101.573
 30
0.00000
  70
    32
  0
VERTEX
  8
0
  5
34E8
 10
80.4713
 20
101.552
 30
0.00000
  70
    32
  0
VERTEX
  8
0
  5
34E9
 10
80.4429
 20
101.531
 30
0.00000
  70
    32
  0
VERTEX
  8
0
  5
34EA
 10
80.4145
 20
101.508
 30
0.00000
  70
    32
  0
VERTEX
  8
0
  5
34EB
 10
80.3862
 20
101.485
 30
0.00000
  70
    32
  0
VERTEX
  8
0
  5
34EC
 10
80.3578
 20
101.461
 30
0.00000
  70
    32
  0
VERTEX
  8
0
  5
34ED
 10
80.3295
 20
101.435
 30
0.00000
  70
    32
  0
VERTEX
  8
0
  5
34EE
 10
80.3011
 20
101.409
 30
0.00000
  70
    32
  0
VERTEX
  8
0
  5
34EF
 10
80.2728
 20
101.382
 30
0.00000
  70
    32
  0
VERTEX
  8
0
  5
34F0
 10
80.2445
 20
101.354
 30
0.00000
  70
    32
  0
VERTEX
  8
0
  5
34F1
 10
80.2163
 20
101.325
 30
0.00000
  70
    32
  0
VERTEX
  8
0
  5
34F2
 10
80.1880
 20
101.296
 30
0.00000
  70
    32
  0
VERTEX
  8
0
  5
34F3
 10
80.1598
 20
101.265
 30
0.00000
  70
    32
  0
VERTEX
  8
0
  5
34F4
 10
80.1316
 20
101.233
 30
0.00000
  70
    32
  0
VERTEX
  8
0
  5
34F5
 10
80.1034
 20
101.200
 30
0.00000
  70
    32
  0
VERTEX
  8
0
  5
34F6
 10
80.0752
 20
101.167
 30
0.00000
  70
    32
  0
VERTEX
  8
0
  5
34F7
 10
80.0470
 20
101.132
 30
0.00000
  70
    32
  0
VERTEX
  8
0
  5
34F8
 10
80.0189
 20
101.097
 30
0.00000
  70
    32
  0
VERTEX
  8
0
  5
34F9
 10
79.9908
 20
101.061
 30
0.00000
  70
    32
  0
VERTEX
  8
0
  5
34FA
 10
79.9627
 20
101.024
 30
0.00000
  70
    32
  0
VERTEX
  8
0
  5
34FB
 10
79.9347
 20
100.986
 30
0.00000
  70
    32
  0
VERTEX
  8
0
  5
34FC
 10
79.9066
 20
100.946
 30
0.00000
  70
    32
  0
VERTEX
  8
0
  5
34FD
 10
79.8786
 20
100.907
 30
0.00000
  70
    32
  0
VERTEX
  8
0
  5
34FE
 10
79.8506
 20
100.866
 30
0.00000
  70
    32
  0
VERTEX
  8
0
  5
34FF
 10
79.8227
 20
100.824
 30
0.00000
  70
    32
  0
VERTEX
  8
0
  5
3500
 10
79.7947
 20
100.781
 30
0.00000
  70
    32
  0
VERTEX
  8
0
  5
3501
 10
79.7668
 20
100.738
 30
0.00000
  70
    32
  0
VERTEX
  8
0
  5
3502
 10
79.7389
 20
100.693
 30
0.00000
  70
    32
  0
VERTEX
  8
0
  5
3503
 10
79.7111
 20
100.648
 30
0.00000
  70
    32
  0
VERTEX
  8
0
  5
3504
 10
79.6833
 20
100.601
 30
0.00000
  70
    32
  0
VERTEX
  8
0
  5
3505
 10
79.6555
 20
100.554
 30
0.00000
  70
    32
  0
VERTEX
  8
0
  5
3506
 10
79.6277
 20
100.506
 30
0.00000
  70
    32
  0
VERTEX
  8
0
  5
3507
 10
79.6000
 20
100.457
 30
0.00000
  70
    32
  0
SEQEND
  8
0
  5
3508
  0
POLYLINE
  5
2D4F
  8
0
 10
53.5999999998644157
 20
100.4568040067092198
 30
0.0
 66
     1
 70
     8
  0
VERTEX
  8
0
  5
3509
 10
53.6000
 20
100.457
 30
0.00000
  70
    32
  0
VERTEX
  8
0
  5
350A
 10
53.5723
 20
100.506
 30
0.00000
  70
    32
  0
VERTEX
  8
0
  5
350B
 10
53.5445
 20
100.554
 30
0.00000
  70
    32
  0
VERTEX
  8
0
  5
350C
 10
53.5167
 20
100.601
 30
0.00000
  70
    32
  0
VERTEX
  8
0
  5
350D
 10
53.4889
 20
100.648
 30
0.00000
  70
    32
  0
VERTEX
  8
0
  5
350E
 10
53.4611
 20
100.693
 30
0.00000
  70
    32
  0
VERTEX
  8
0
  5
350F
 10
53.4332
 20
100.738
 30
0.00000
  70
    32
  0
VERTEX
  8
0
  5
3510
 10
53.4053
 20
100.781
 30
0.00000
  70
    32
  0
VERTEX
  8
0
  5
3511
 10
53.3773
 20
100.824
 30
0.00000
  70
    32
  0
VERTEX
  8
0
  5
3512
 10
53.3494
 20
100.866
 30
0.00000
  70
    32
  0
VERTEX
  8
0
  5
3513
 10
53.3214
 20
100.907
 30
0.00000
  70
    32
  0
VERTEX
  8
0
  5
3514
 10
53.2934
 20
100.946
 30
0.00000
  70
    32
  0
VERTEX
  8
0
  5
3515
 10
53.2653
 20
100.986
 30
0.00000
  70
    32
  0
VERTEX
  8
0
  5
3516
 10
53.2373
 20
101.024
 30
0.00000
  70
    32
  0
VERTEX
  8
0
  5
3517
 10
53.2092
 20
101.061
 30
0.00000
  70
    32
  0
VERTEX
  8
0
  5
3518
 10
53.1811
 20
101.097
 30
0.00000
  70
    32
  0
VERTEX
  8
0
  5
3519
 10
53.1530
 20
101.132
 30
0.00000
  70
    32
  0
VERTEX
  8
0
  5
351A
 10
53.1248
 20
101.167
 30
0.00000
  70
    32
  0
VERTEX
  8
0
  5
351B
 10
53.0966
 20
101.200
 30
0.00000
  70
    32
  0
VERTEX
  8
0
  5
351C
 10
53.0684
 20
101.233
 30
0.00000
  70
    32
  0
VERTEX
  8
0
  5
351D
 10
53.0402
 20
101.265
 30
0.00000
  70
    32
  0
VERTEX
  8
0
  5
351E
 10
53.0120
 20
101.296
 30
0.00000
  70
    32
  0
VERTEX
  8
0
  5
351F
 10
52.9837
 20
101.325
 30
0.00000
  70
    32
  0
VERTEX
  8
0
  5
3520
 10
52.9555
 20
101.354
 30
0.00000
  70
    32
  0
VERTEX
  8
0
  5
3521
 10
52.9272
 20
101.382
 30
0.00000
  70
    32
  0
VERTEX
  8
0
  5
3522
 10
52.8989
 20
101.409
 30
0.00000
  70
    32
  0
VERTEX
  8
0
  5
3523
 10
52.8705
 20
101.435
 30
0.00000
  70
    32
  0
VERTEX
  8
0
  5
3524
 10
52.8422
 20
101.461
 30
0.00000
  70
    32
  0
VERTEX
  8
0
  5
3525
 10
52.8138
 20
101.485
 30
0.00000
  70
    32
  0
VERTEX
  8
0
  5
3526
 10
52.7855
 20
101.508
 30
0.00000
  70
    32
  0
VERTEX
  8
0
  5
3527
 10
52.7571
 20
101.531
 30
0.00000
  70
    32
  0
VERTEX
  8
0
  5
3528
 10
52.7287
 20
101.552
 30
0.00000
  70
    32
  0
VERTEX
  8
0
  5
3529
 10
52.7002
 20
101.573
 30
0.00000
  70
    32
  0
VERTEX
  8
0
  5
352A
 10
52.6718
 20
101.592
 30
0.00000
  70
    32
  0
VERTEX
  8
0
  5
352B
 10
52.6434
 20
101.611
 30
0.00000
  70
    32
  0
VERTEX
  8
0
  5
352C
 10
52.6149
 20
101.629
 30
0.00000
  70
    32
  0
VERTEX
  8
0
  5
352D
 10
52.5865
 20
101.646
 30
0.00000
  70
    32
  0
VERTEX
  8
0
  5
352E
 10
52.5580
 20
101.662
 30
0.00000
  70
    32
  0
VERTEX
  8
0
  5
352F
 10
52.5295
 20
101.677
 30
0.00000
  70
    32
  0
VERTEX
  8
0
  5
3530
 10
52.5010
 20
101.691
 30
0.00000
  70
    32
  0
VERTEX
  8
0
  5
3531
 10
52.4725
 20
101.704
 30
0.00000
  70
    32
  0
VERTEX
  8
0
  5
3532
 10
52.4440
 20
101.716
 30
0.00000
  70
    32
  0
VERTEX
  8
0
  5
3533
 10
52.4155
 20
101.727
 30
0.00000
  70
    32
  0
VERTEX
  8
0
  5
3534
 10
52.3870
 20
101.738
 30
0.00000
  70
    32
  0
VERTEX
  8
0
  5
3535
 10
52.3584
 20
101.747
 30
0.00000
  70
    32
  0
VERTEX
  8
0
  5
3536
 10
52.3299
 20
101.756
 30
0.00000
  70
    32
  0
VERTEX
  8
0
  5
3537
 10
52.3014
 20
101.763
 30
0.00000
  70
    32
  0
VERTEX
  8
0
  5
3538
 10
52.2728
 20
101.770
 30
0.00000
  70
    32
  0
VERTEX
  8
0
  5
3539
 10
52.2443
 20
101.775
 30
0.00000
  70
    32
  0
VERTEX
  8
0
  5
353A
 10
52.2157
 20
101.780
 30
0.00000
  70
    32
  0
VERTEX
  8
0
  5
353B
 10
52.1872
 20
101.784
 30
0.00000
  70
    32
  0
VERTEX
  8
0
  5
353C
 10
52.1586
 20
101.787
 30
0.00000
  70
    32
  0
VERTEX
  8
0
  5
353D
 10
52.1301
 20
101.789
 30
0.00000
  70
    32
  0
VERTEX
  8
0
  5
353E
 10
52.1015
 20
101.790
 30
0.00000
  70
    32
  0
VERTEX
  8
0
  5
353F
 10
52.0729
 20
101.790
 30
0.00000
  70
    32
  0
VERTEX
  8
0
  5
3540
 10
52.0444
 20
101.789
 30
0.00000
  70
    32
  0
VERTEX
  8
0
  5
3541
 10
52.0158
 20
101.787
 30
0.00000
  70
    32
  0
VERTEX
  8
0
  5
3542
 10
51.9873
 20
101.785
 30
0.00000
  70
    32
  0
VERTEX
  8
0
  5
3543
 10
51.9587
 20
101.781
 30
0.00000
  70
    32
  0
VERTEX
  8
0
  5
3544
 10
51.9301
 20
101.776
 30
0.00000
  70
    32
  0
VERTEX
  8
0
  5
3545
 10
51.9016
 20
101.771
 30
0.00000
  70
    32
  0
VERTEX
  8
0
  5
3546
 10
51.8731
 20
101.764
 30
0.00000
  70
    32
  0
VERTEX
  8
0
  5
3547
 10
51.8445
 20
101.757
 30
0.00000
  70
    32
  0
VERTEX
  8
0
  5
3548
 10
51.8160
 20
101.749
 30
0.00000
  70
    32
  0
VERTEX
  8
0
  5
3549
 10
51.7874
 20
101.739
 30
0.00000
  70
    32
  0
VERTEX
  8
0
  5
354A
 10
51.7589
 20
101.729
 30
0.00000
  70
    32
  0
VERTEX
  8
0
  5
354B
 10
51.7304
 20
101.718
 30
0.00000
  70
    32
  0
VERTEX
  8
0
  5
354C
 10
51.7019
 20
101.706
 30
0.00000
  70
    32
  0
VERTEX
  8
0
  5
354D
 10
51.6734
 20
101.693
 30
0.00000
  70
    32
  0
VERTEX
  8
0
  5
354E
 10
51.6449
 20
101.679
 30
0.00000
  70
    32
  0
VERTEX
  8
0
  5
354F
 10
51.6164
 20
101.664
 30
0.00000
  70
    32
  0
VERTEX
  8
0
  5
3550
 10
51.5879
 20
101.648
 30
0.00000
  70
    32
  0
VERTEX
  8
0
  5
3551
 10
51.5595
 20
101.632
 30
0.00000
  70
    32
  0
VERTEX
  8
0
  5
3552
 10
51.5310
 20
101.614
 30
0.00000
  70
    32
  0
VERTEX
  8
0
  5
3553
 10
51.5026
 20
101.596
 30
0.00000
  70
    32
  0
VERTEX
  8
0
  5
3554
 10
51.4742
 20
101.576
 30
0.00000
  70
    32
  0
VERTEX
  8
0
  5
3555
 10
51.4457
 20
101.556
 30
0.00000
  70
    32
  0
VERTEX
  8
0
  5
3556
 10
51.4173
 20
101.534
 30
0.00000
  70
    32
  0
VERTEX
  8
0
  5
3557
 10
51.3889
 20
101.512
 30
0.00000
  70
    32
  0
VERTEX
  8
0
  5
3558
 10
51.3606
 20
101.489
 30
0.00000
  70
    32
  0
VERTEX
  8
0
  5
3559
 10
51.3322
 20
101.465
 30
0.00000
  70
    32
  0
VERTEX
  8
0
  5
355A
 10
51.3039
 20
101.440
 30
0.00000
  70
    32
  0
VERTEX
  8
0
  5
355B
 10
51.2755
 20
101.414
 30
0.00000
  70
    32
  0
VERTEX
  8
0
  5
355C
 10
51.2472
 20
101.387
 30
0.00000
  70
    32
  0
VERTEX
  8
0
  5
355D
 10
51.2189
 20
101.359
 30
0.00000
  70
    32
  0
VERTEX
  8
0
  5
355E
 10
51.1906
 20
101.330
 30
0.00000
  70
    32
  0
VERTEX
  8
0
  5
355F
 10
51.1624
 20
101.300
 30
0.00000
  70
    32
  0
VERTEX
  8
0
  5
3560
 10
51.1341
 20
101.270
 30
0.00000
  70
    32
  0
VERTEX
  8
0
  5
3561
 10
51.1059
 20
101.238
 30
0.00000
  70
    32
  0
VERTEX
  8
0
  5
3562
 10
51.0777
 20
101.206
 30
0.00000
  70
    32
  0
VERTEX
  8
0
  5
3563
 10
51.0496
 20
101.172
 30
0.00000
  70
    32
  0
VERTEX
  8
0
  5
3564
 10
51.0214
 20
101.138
 30
0.00000
  70
    32
  0
VERTEX
  8
0
  5
3565
 10
50.9933
 20
101.103
 30
0.00000
  70
    32
  0
VERTEX
  8
0
  5
3566
 10
50.9651
 20
101.067
 30
0.00000
  70
    32
  0
VERTEX
  8
0
  5
3567
 10
50.9371
 20
101.030
 30
0.00000
  70
    32
  0
VERTEX
  8
0
  5
3568
 10
50.9090
 20
100.992
 30
0.00000
  70
    32
  0
VERTEX
  8
0
  5
3569
 10
50.8810
 20
100.953
 30
0.00000
  70
    32
  0
VERTEX
  8
0
  5
356A
 10
50.8529
 20
100.913
 30
0.00000
  70
    32
  0
VERTEX
  8
0
  5
356B
 10
50.8249
 20
100.872
 30
0.00000
  70
    32
  0
VERTEX
  8
0
  5
356C
 10
50.7970
 20
100.831
 30
0.00000
  70
    32
  0
VERTEX
  8
0
  5
356D
 10
50.7690
 20
100.788
 30
0.00000
  70
    32
  0
VERTEX
  8
0
  5
356E
 10
50.7411
 20
100.745
 30
0.00000
  70
    32
  0
VERTEX
  8
0
  5
356F
 10
50.7133
 20
100.700
 30
0.00000
  70
    32
  0
VERTEX
  8
0
  5
3570
 10
50.6854
 20
100.655
 30
0.00000
  70
    32
  0
VERTEX
  8
0
  5
3571
 10
50.6576
 20
100.609
 30
0.00000
  70
    32
  0
VERTEX
  8
0
  5
3572
 10
50.6298
 20
100.562
 30
0.00000
  70
    32
  0
VERTEX
  8
0
  5
3573
 10
50.6020
 20
100.514
 30
0.00000
  70
    32
  0
VERTEX
  8
0
  5
3574
 10
50.5743
 20
100.465
 30
0.00000
  70
    32
  0
VERTEX
  8
0
  5
3575
 10
50.5466
 20
100.415
 30
0.00000
  70
    32
  0
VERTEX
  8
0
  5
3576
 10
50.5189
 20
100.364
 30
0.00000
  70
    32
  0
VERTEX
  8
0
  5
3577
 10
50.4913
 20
100.313
 30
0.00000
  70
    32
  0
VERTEX
  8
0
  5
3578
 10
50.4637
 20
100.260
 30
0.00000
  70
    32
  0
VERTEX
  8
0
  5
3579
 10
50.4361
 20
100.207
 30
0.00000
  70
    32
  0
VERTEX
  8
0
  5
357A
 10
50.4086
 20
100.152
 30
0.00000
  70
    32
  0
VERTEX
  8
0
  5
357B
 10
50.3811
 20
100.097
 30
0.00000
  70
    32
  0
VERTEX
  8
0
  5
357C
 10
50.3536
 20
100.041
 30
0.00000
  70
    32
  0
VERTEX
  8
0
  5
357D
 10
50.3262
 20
99.9839
 30
0.00000
  70
    32
  0
VERTEX
  8
0
  5
357E
 10
50.2988
 20
99.9259
 30
0.00000
  70
    32
  0
VERTEX
  8
0
  5
357F
 10
50.2714
 20
99.8671
 30
0.00000
  70
    32
  0
VERTEX
  8
0
  5
3580
 10
50.2441
 20
99.8074
 30
0.00000
  70
    32
  0
VERTEX
  8
0
  5
3581
 10
50.2168
 20
99.7468
 30
0.00000
  70
    32
  0
VERTEX
  8
0
  5
3582
 10
50.1896
 20
99.6853
 30
0.00000
  70
    32
  0
VERTEX
  8
0
  5
3583
 10
50.1624
 20
99.6229
 30
0.00000
  70
    32
  0
VERTEX
  8
0
  5
3584
 10
50.1352
 20
99.5596
 30
0.00000
  70
    32
  0
VERTEX
  8
0
  5
3585
 10
50.1081
 20
99.4954
 30
0.00000
  70
    32
  0
VERTEX
  8
0
  5
3586
 10
50.0810
 20
99.4304
 30
0.00000
  70
    32
  0
VERTEX
  8
0
  5
3587
 10
50.0540
 20
99.3645
 30
0.00000
  70
    32
  0
VERTEX
  8
0
  5
3588
 10
50.0270
 20
99.2976
 30
0.00000
  70
    32
  0
VERTEX
  8
0
  5
3589
 10
50.0000
 20
99.2299
 30
0.00000
  70
    32
  0
SEQEND
  8
0
  5
358A
  0
LINE
  5
2D50
  8
0
 10
49.9999999998649898
 20
87.7273603685209622
 30
0.0
 11
49.9999999998649898
 21
99.2299364911463755
 31
0.0
  0
LINE
  5
2D51
  8
0
 10
83.1999999998649855
 20
99.2299364911463471
 30
0.0
 11
83.1999999998649855
 21
87.7273603685209338
 31
0.0
  0
POLYLINE
  5
2D52
  8
0
 66
     1
 10
0.0
 20
0.0
 30
0.0
 70
   128
  0
VERTEX
  5
2F4B
  8
0
 10
78.5999999998653607
 20
82.4153979430092818
 30
0.0
  0
VERTEX
  5
2F4C
  8
0
 10
78.6939334075094621
 20
82.4351790209581168
 30
0.0
  0
VERTEX
  5
2F4D
  8
0
 10
79.4004168236738224
 20
82.7902504373873853
 30
0.0
  0
SEQEND
  5
2F4E
  8
0
  0
POLYLINE
  5
2D53
  8
0
 66
     1
 10
0.0
 20
0.0
 30
0.0
 70
   128
  0
VERTEX
  5
2F4F
  8
0
 10
54.5999999998653607
 20
82.4153979430091539
 30
0.0
  0
VERTEX
  5
2F50
  8
0
 10
54.506066592220229
 20
82.4351790209582163
 30
0.0
  0
VERTEX
  5
2F51
  8
0
 10
53.7995831760561529
 20
82.7902504373873853
 30
0.0
  0
SEQEND
  5
2F52
  8
0
  0
LINE
  5
2E77
  8
0
 10
138.1500000000000057
 20
178.0
 30
0.0
 11
138.1500000000000057
 21
185.5
 31
0.0
  0
LINE
  5
2E79
  8
1
 10
131.5999999999999943
 20
173.5
 30
0.0
 11
251.1500000000000057
 21
173.4999999999998863
 31
0.0
  0
LINE
  5
2E7A
  8
1
 10
150.1500000000000057
 20
192.0500000000000966
 30
0.0
 11
150.1500000000000057
 21
154.9499999999999034
 31
0.0
  0
CIRCLE
  5
2E7B
  8
0
 10
150.1500000000000057
 20
173.5
 30
0.0
 40
4.0
  0
ARC
  5
2E7C
  8
3
 10
150.1500000000000057
 20
173.5
 30
0.0
 40
3.323499999999739
 50
100.4007820932386039
 51
259.5992179067612824
  0
ARC
  5
2E7D
  8
3
 10
150.1500000000000057
 20
173.5
 30
0.0
 40
3.323499999999739
 50
280.4007820932384902
 51
79.5992179067614245
  0
LINE
  5
2E7E
  8
0
 10
150.75
 20
177.4547439866570073
 30
0.0
 11
150.75
 21
169.5452560133429927
 31
0.0
  0
LINE
  5
2E7F
  8
0
 10
149.5500000000000114
 20
177.4547439866570073
 30
0.0
 11
149.5500000000000114
 21
169.5452560133429927
 31
0.0
  0
LINE
  5
2E8E
  8
0
 10
63.1112179774396722
 20
100.0
 30
0.0
 11
62.6452560132082326
 21
99.5400000000000631
 31
0.0
  0
LINE
  5
2E8F
  8
0
 10
70.5547439865223112
 20
99.5400000000000631
 30
0.0
 11
70.0887820222908715
 21
100.0
 31
0.0
  0
LINE
  5
2E90
  8
0
 10
70.0887820222908431
 20
100.0
 30
0.0
 11
63.1112179774396509
 21
100.0
 31
0.0
  0
LINE
  5
2E91
  8
0
 10
62.6452560132082326
 20
99.5400000000000631
 30
0.0
 11
62.6452560132082326
 21
98.7884839940338111
 31
0.0
  0
LINE
  5
2E92
  8
0
 10
70.554743986522297
 20
98.7892679044924051
 30
0.0
 11
70.5547439865223112
 21
99.5400000000000631
 31
0.0
  0
LINE
  5
2E93
  8
0
 10
70.5547439865223112
 20
99.5400000000000631
 30
0.0
 11
62.6452560132082326
 21
99.5400000000000631
 31
0.0
  0
LINE
  5
2E94
  8
0
 10
62.149999999865237
 20
87.8000000000000398
 30
0.0
 11
62.149999999865237
 21
83.0
 31
0.0
  0
LINE
  5
2E95
  8
0
 10
71.0499999998652356
 20
83.0
 30
0.0
 11
71.0499999998652356
 21
87.8000000000000398
 31
0.0
  0
LINE
  5
2E96
  8
3
 10
63.2764999998655071
 20
100.0
 30
0.0
 11
63.2764999998655
 21
98.5341870256449965
 31
0.0
  0
LINE
  5
2E97
  8
3
 10
69.9234999998649869
 20
100.0
 30
0.0
 11
69.9234999998649869
 21
98.5311823663411133
 31
0.0
  0
POLYLINE
  5
2E98
  8
0
 66
     1
 10
0.0
 20
0.0
 30
0.0
  0
VERTEX
  5
2F53
  8
0
 10
70.0887820222908715
 20
100.0
 30
0.0
  0
VERTEX
  5
2F54
  8
0
 10
70.4154494104494546
 20
100.0308129440888933
 30
0.0
  0
VERTEX
  5
2F55
  8
0
 10
70.5616344556007675
 20
100.0537974462488933
 30
0.0
  0
VERTEX
  5
2F56
  8
0
 10
70.6951545600766167
 20
100.0850086421491056
 30
0.0
  0
VERTEX
  5
2F57
  8
0
 10
70.8152036199412578
 20
100.1247350771608069
 30
0.0
  0
VERTEX
  5
2F58
  8
0
 10
70.9161562261280096
 20
100.1712517122374067
 30
0.0
  0
VERTEX
  5
2F59
  8
0
 10
70.9998913000954985
 20
100.226743586577598
 30
0.0
  0
VERTEX
  5
2F5A
  8
0
 10
71.058839175800756
 20
100.2872802728038977
 30
0.0
  0
VERTEX
  5
2F5B
  8
0
 10
71.099999999865247
 20
100.4034960225085058
 30
0.0
  0
SEQEND
  5
2F5C
  8
0
  0
POLYLINE
  5
2E99
  8
0
 66
     1
 10
0.0
 20
0.0
 30
0.0
  0
VERTEX
  5
2F5D
  8
0
 10
62.0999999998652399
 20
100.4034960225085058
 30
0.0
  0
VERTEX
  5
2F5E
  8
0
 10
62.1159072235227967
 20
100.3305385463847017
 30
0.0
  0
VERTEX
  5
2F5F
  8
0
 10
62.1632009893064392
 20
100.2608808105726013
 30
0.0
  0
VERTEX
  5
2F60
  8
0
 10
62.2419869761225399
 20
100.1963373280782008
 30
0.0
  0
VERTEX
  5
2F61
  8
0
 10
62.3503523851599795
 20
100.1388709528062009
 30
0.0
  0
VERTEX
  5
2F62
  8
0
 10
62.4791183317504775
 20
100.092504232508503
 30
0.0
  0
VERTEX
  5
2F63
  8
0
 10
62.6291304974129801
 20
100.0555733815282053
 30
0.0
  0
VERTEX
  5
2F64
  8
0
 10
62.7841116627868701
 20
100.0309123360205064
 30
0.0
  0
VERTEX
  5
2F65
  8
0
 10
63.1112179774396722
 20
100.0
 30
0.0
  0
SEQEND
  5
2F66
  8
0
  0
LINE
  5
2E9A
  8
0
 10
62.6211920424219883
 20
98.8000000000000398
 30
0.0
 11
62.0999999998652683
 21
98.8000000000000398
 31
0.0
  0
LINE
  5
2E9B
  8
0
 10
71.0999999998652754
 20
98.8000000000000398
 30
0.0
 11
70.5788079573085554
 21
98.8000000000000398
 31
0.0
  0
POLYLINE
  5
2E9C
  8
0
 66
     1
 10
0.0
 20
0.0
 30
0.0
 70
   128
  0
VERTEX
  5
2F67
  8
0
 10
70.5958183500689245
 20
87.801760100425426
 30
0.0
  0
VERTEX
  5
2F68
  8
0
 10
70.5958183500689245
 20
87.801760100425426
 30
0.0
  0
VERTEX
  5
2F69
  8
0
 10
70.4391447823617511
 20
87.8668369310385486
 30
0.0
  0
VERTEX
  5
2F6A
  8
0
 10
70.0810309453237608
 20
88.0089331405913669
 30
0.0
  0
VERTEX
  5
2F6B
  8
0
 10
69.5352464971802817
 20
88.2060000000000457
 30
0.0
  0
SEQEND
  5
2F6C
  8
0
  0
ARC
  5
2E9D
  8
0
 10
66.5999999998652754
 20
83.8015313754137452
 30
0.0
 40
5.2929212978245861
 50
56.319533132280398
 51
123.6804668677192041
  0
ARC
  5
2E9E
  8
0
 10
68.8133722929925113
 20
73.1074622684055413
 30
0.0
 40
15.9522448916031205
 50
108.8294355059542937
 51
112.9224877817914034
  0
POLYLINE
  5
2E9F
  8
0
 66
     1
 10
0.0
 20
0.0
 30
0.0
 70
   128
  0
VERTEX
  5
2F6D
  8
0
 10
62.6211920424219883
 20
98.8000000000000398
 30
0.0
  0
VERTEX
  5
2F6E
  8
0
 10
62.6211920424219883
 20
98.8000000000000398
 30
0.0
  0
VERTEX
  5
2F6F
  8
0
 10
62.7608552173687926
 20
98.7331630689615736
 30
0.0
  0
VERTEX
  5
2F70
  8
0
 10
63.118969054406783
 20
98.5910668594087269
 30
0.0
  0
VERTEX
  5
2F71
  8
0
 10
63.664753502550262
 20
98.3940000000000339
 30
0.0
  0
SEQEND
  5
2F72
  8
0
  0
ARC
  5
2EA0
  8
0
 10
66.5999999998652754
 20
102.7984686245864054
 30
0.0
 40
5.2929212978246607
 50
236.3195331322808102
 51
303.6804668677189056
  0
ARC
  5
2EA1
  8
0
 10
65.9710949419504118
 20
109.0992696099221035
 30
0.0
 40
11.2829948918613301
 50
288.4143702634253259
 51
294.1029067751509842
  0
LINE
  5
2EA2
  8
3
 10
63.2764999998655
 20
88.0679823894200666
 30
0.0
 11
63.2764999998655
 21
87.8000000000000398
 31
0.0
  0
LINE
  5
2EA3
  8
3
 10
69.9234999998649869
 20
88.0658129743551257
 30
0.0
 11
69.9234999998649869
 21
87.8000000000000398
 31
0.0
  0
LINE
  5
2EA4
  8
0
 10
62.0999999998652399
 20
87.8000000000000398
 30
0.0
 11
71.099999999865247
 21
87.8000000000000398
 31
0.0
  0
ENDSEC
  0
EOF
