  0
SECTION
  2
HEADER
  9
$ACADVER
  1
AC1009
  9
$INSBASE
 10
0.0
 20
0.0
 30
0.0
  9
$EXTMIN
 10
0.0
 20
-2.960436562073669
 30
0.0
  9
$EXTMAX
 10
251.1500000000000909
 20
192.0500000000000114
 30
0.0
  9
$LIMMIN
 10
0.0
 20
0.0
  9
$LIMMAX
 10
375.0
 20
270.0
  9
$ORTHOMODE
 70
     0
  9
$REGENMODE
 70
     1
  9
$FILLMODE
 70
     1
  9
$QTEXTMODE
 70
     0
  9
$MIRRTEXT
 70
     0
  9
$DRAGMODE
 70
     2
  9
$LTSCALE
 40
5.0
  9
$OSMODE
 70
    37
  9
$ATTMODE
 70
     1
  9
$TEXTSIZE
 40
0.2
  9
$TRACEWID
 40
0.05
  9
$TEXTSTYLE
  7
STANDARD
  9
$CLAYER
  8
0
  9
$CELTYPE
  6
BYLAYER
  9
$CECOLOR
 62
   256
  9
$DIMSCALE
 40
1.0
  9
$DIMASZ
 40
3.0
  9
$DIMEXO
 40
2.0
  9
$DIMDLI
 40
10.0
  9
$DIMRND
 40
0.0
  9
$DIMDLE
 40
0.0
  9
$DIMEXE
 40
2.0
  9
$DIMTP
 40
0.0
  9
$DIMTM
 40
0.0
  9
$DIMTXT
 40
3.2000000000000002
  9
$DIMCEN
 40
0.0
  9
$DIMTSZ
 40
0.0
  9
$DIMTOL
 70
     0
  9
$DIMLIM
 70
     0
  9
$DIMTIH
 70
     0
  9
$DIMTOH
 70
     0
  9
$DIMSE1
 70
     0
  9
$DIMSE2
 70
     0
  9
$DIMTAD
 70
     1
  9
$DIMZIN
 70
     8
  9
$DIMBLK
  1

  9
$DIMASO
 70
     0
  9
$DIMSHO
 70
     0
  9
$DIMPOST
  1

  9
$DIMAPOST
  1

  9
$DIMALT
 70
     0
  9
$DIMALTD
 70
     2
  9
$DIMALTF
 40
25.3999999999999986
  9
$DIMLFAC
 40
1.0
  9
$DIMTOFL
 70
     1
  9
$DIMTVP
 40
1.6000000000000001
  9
$DIMTIX
 70
     0
  9
$DIMSOXD
 70
     0
  9
$DIMSAH
 70
     0
  9
$DIMBLK1
  1

  9
$DIMBLK2
  1

  9
$DIMSTYLE
  2
STANDARD
  9
$DIMCLRD
 70
   256
  9
$DIMCLRE
 70
   256
  9
$DIMCLRT
 70
   256
  9
$DIMTFAC
 40
1.0
  9
$DIMGAP
 40
0.5
  9
$LUNITS
 70
     2
  9
$LUPREC
 70
     1
  9
$SKETCHINC
 40
0.1
  9
$FILLETRAD
 40
0.0
  9
$AUNITS
 70
     0
  9
$AUPREC
 70
     1
  9
$MENU
  1
E:\r13\win\SUPPORT\ACAD
  9
$ELEVATION
 40
0.0
  9
$PELEVATION
 40
0.0
  9
$THICKNESS
 40
0.0
  9
$LIMCHECK
 70
     0
  9
$BLIPMODE
 70
     0
  9
$CHAMFERA
 40
0.0
  9
$CHAMFERB
 40
0.0
  9
$SKPOLY
 70
     0
  9
$TDCREATE
 40
2449840.6171180559322238
  9
$TDUPDATE
 40
2460566.5209722220897675
  9
$TDINDWG
 40
0.2694282986
  9
$TDUSRTIMER
 40
0.2694282986
  9
$USRTIMER
 70
     1
  9
$ANGBASE
 50
0.0
  9
$ANGDIR
 70
     0
  9
$PDMODE
 70
     0
  9
$PDSIZE
 40
0.0
  9
$PLINEWID
 40
0.0
  9
$COORDS
 70
     1
  9
$SPLFRAME
 70
     0
  9
$SPLINETYPE
 70
     6
  9
$SPLINESEGS
 70
     8
  9
$ATTDIA
 70
     1
  9
$ATTREQ
 70
     1
  9
$HANDLING
 70
     1
  9
$HANDSEED
  5
2A1F
  9
$SURFTAB1
 70
     6
  9
$SURFTAB2
 70
     6
  9
$SURFTYPE
 70
     6
  9
$SURFU
 70
     6
  9
$SURFV
 70
     6
  9
$UCSNAME
  2

  9
$UCSORG
 10
0.0
 20
0.0
 30
0.0
  9
$UCSXDIR
 10
1.0
 20
0.0
 30
0.0
  9
$UCSYDIR
 10
0.0
 20
1.0
 30
0.0
  9
$PUCSNAME
  2

  9
$PUCSORG
 10
0.0
 20
0.0
 30
0.0
  9
$PUCSXDIR
 10
1.0
 20
0.0
 30
0.0
  9
$PUCSYDIR
 10
0.0
 20
1.0
 30
0.0
  9
$USERI1
 70
     0
  9
$USERI2
 70
     1
  9
$USERI3
 70
     0
  9
$USERI4
 70
     0
  9
$USERI5
 70
     0
  9
$USERR1
 40
0.0
  9
$USERR2
 40
0.0
  9
$USERR3
 40
0.0
  9
$USERR4
 40
0.0
  9
$USERR5
 40
0.0
  9
$WORLDVIEW
 70
     1
  9
$SHADEDGE
 70
     3
  9
$SHADEDIF
 70
    70
  9
$TILEMODE
 70
     1
  9
$MAXACTVP
 70
    16
  9
$PLIMCHECK
 70
     0
  9
$PEXTMIN
 10
1.0000000000000000E+20
 20
1.0000000000000000E+20
 30
1.0000000000000000E+20
  9
$PEXTMAX
 10
-1.0000000000000000E+20
 20
-1.0000000000000000E+20
 30
-1.0000000000000000E+20
  9
$PLIMMIN
 10
0.0
 20
0.0
  9
$PLIMMAX
 10
12.0
 20
9.0
  9
$UNITMODE
 70
     0
  9
$VISRETAIN
 70
     0
  9
$PLINEGEN
 70
     0
  9
$PSLTSCALE
 70
     0
  0
ENDSEC
  0
SECTION
  2
TABLES
  0
TABLE
  2
VPORT
 70
     1
  0
VPORT
  2
*ACTIVE
 70
     0
 10
0.0
 20
0.0
 11
1.0
 21
1.0
 12
165.4481076992460089
 22
94.5400129056862539
 13
0.0
 23
0.0
 14
10.0
 24
10.0
 15
10.0
 25
10.0
 16
0.0
 26
0.0
 36
1.0
 17
0.0
 27
0.0
 37
0.0
 40
196.5559406792689003
 41
2.3485221674876842
 42
50.0
 43
0.0
 44
0.0
 50
0.0
 51
0.0
 71
     0
 72
   100
 73
     1
 74
     0
 75
     0
 76
     0
 77
     0
 78
     0
  0
ENDTAB
  0
TABLE
  2
LTYPE
 70
     4
  0
LTYPE
  2
CONTINUOUS
 70
     0
  3
Solid Line
 72
    65
 73
     0
 40
0.0
  0
LTYPE
  2
CENTER
 70
     0
  3
____ _ ____ _ ____ _ ____ _ ____ _ ____ _ ____
 72
    65
 73
     4
 40
2.0
 49
1.25
 49
-0.25
 49
0.25
 49
-0.25
  0
LTYPE
  2
PHANTOM2
 70
     0
  3
___ _ _ ___ _ _ ___ _ _ ___ _ _
 72
    65
 73
     6
 40
1.25
 49
0.625
 49
-0.125
 49
0.125
 49
-0.125
 49
0.125
 49
-0.125
  0
LTYPE
  2
HIDDEN
 70
     0
  3
Hidden __ __ __ __ __ __ __ __ __ __ __ __ __ _
 72
    65
 73
     2
 40
0.375
 49
0.25
 49
-0.125
  0
ENDTAB
  0
TABLE
  2
LAYER
 70
     5
  0
LAYER
  2
0
 70
     0
 62
     7
  6
CONTINUOUS
  0
LAYER
  2
1
 70
     0
 62
     1
  6
CENTER
  0
LAYER
  2
3
 70
     0
 62
     3
  6
CONTINUOUS
  0
LAYER
  2
DEFPOINTS
 70
     0
 62
     7
  6
CONTINUOUS
  0
LAYER
  2
2
 70
     0
 62
     2
  6
HIDDEN
  0
ENDTAB
  0
TABLE
  2
STYLE
 70
     2
  0
STYLE
  2
STANDARD
 70
     0
 40
0.0
 41
1.0
 50
0.0
 71
     0
 42
0.2
  3
TXT
  4
BIGFONT
  0
STYLE
  2
STANDARD1
 70
     0
 40
0.0
 41
1.0
 50
0.0
 71
     0
 42
3.0
  3
txt
  4

  0
ENDTAB
  0
TABLE
  2
VIEW
 70
     1
  0
VIEW
  2
ALL
 70
     0
 40
270.0
 10
220.9915970000000129
 20
135.0
 41
0.0
 11
0.0
 21
0.0
 31
1.0
 12
0.0
 22
0.0
 32
0.0
 42
0.0
 43
0.0
 44
0.0
 50
0.0
 71
     0
  0
ENDTAB
  0
TABLE
  2
UCS
 70
     0
  0
ENDTAB
  0
TABLE
  2
APPID
 70
     6
  0
APPID
  2
ACAD
 70
     0
  0
APPID
  2
ACAD_EXEMPT_FROM_CAD_STANDARDS
 70
     0
  0
APPID
  2
ACAD_MLEADERVER
 70
     0
  0
APPID
  2
ACAD_NAV_VCDISPLAY
 70
     0
  0
APPID
  2
ACAD_DSTYLE_DIMJAG
 70
     0
  0
APPID
  2
ACAD_DSTYLE_DIMTALN
 70
     0
  0
ENDTAB
  0
TABLE
  2
DIMSTYLE
 70
     1
  0
DIMSTYLE
  2
STANDARD
 70
     0
  3

  4

  5

  6

  7

 40
1.0
 41
0.18
 42
0.0625
 43
0.38
 44
0.18
 45
0.0
 46
0.0
 47
0.0
 48
0.0
140
0.18
141
0.09
142
0.0
143
25.3999999999999986
144
1.0
145
0.0
146
1.0
147
0.09
 71
     0
 72
     0
 73
     1
 74
     1
 75
     0
 76
     0
 77
     0
 78
     0
170
     0
171
     2
172
     0
173
     0
174
     0
175
     0
176
     0
177
     0
178
     0
  0
ENDTAB
  0
ENDSEC
  0
SECTION
  2
BLOCKS
  0
BLOCK
  8
0
  2
$MODEL_SPACE
 70
     0
 10
0.0
 20
0.0
 30
0.0
  3
$MODEL_SPACE
  1

  0
ENDBLK
  5
E8
  8
0
  0
BLOCK
 67
     1
  8
0
  2
$PAPER_SPACE
 70
     0
 10
0.0
 20
0.0
 30
0.0
  3
$PAPER_SPACE
  1

  0
ENDBLK
  5
E6
 67
     1
  8
0
  0
ENDSEC
  0
SECTION
  2
ENTITIES
  0
TEXT
  5
110F
  8
0
 62
     3
 10
0.0
 20
0.0
 30
0.0
 40
10.0
  1
KCL08X30
  7
STANDARD1
  0
LINE
  5
15C8
  8
1
 10
150.1500000000000909
 20
108.7999999999998977
 30
0.0
 11
150.1500000000000057
 21
40.0
 31
0.0
  0
LINE
  5
15EB
  8
0
 10
153.3830000000000098
 20
45.0
 30
0.0
 11
154.1500000000000057
 21
45.7669999999999888
 31
0.0
  0
LINE
  5
15EC
  8
0
 10
146.1500000000000057
 20
45.7669999999999888
 30
0.0
 11
146.9170000000000016
 21
45.0
 31
0.0
  0
LINE
  5
15ED
  8
0
 10
153.3830000000000098
 20
45.0
 30
0.0
 11
146.9170000000000016
 21
45.0
 31
0.0
  0
LINE
  5
15EE
  8
0
 10
146.1500000000000057
 20
75.0
 30
0.0
 11
146.1500000000000057
 21
45.7669999999999888
 31
0.0
  0
LINE
  5
15EF
  8
0
 10
154.1500000000000057
 20
45.7669999999999888
 30
0.0
 11
154.1500000000000057
 21
75.0
 31
0.0
  0
LINE
  5
15F0
  8
0
 10
154.1500000000000057
 20
45.7669999999999888
 30
0.0
 11
146.1500000000000057
 21
45.7669999999999888
 31
0.0
  0
LINE
  5
15F4
  8
3
 10
153.4734999999996887
 20
45.0904999999997287
 30
0.0
 11
153.4734999999996887
 21
75.0
 31
0.0
  0
LINE
  5
15F6
  8
3
 10
146.8265000000002942
 20
45.0904999999997287
 30
0.0
 11
146.8265000000002942
 21
75.0
 31
0.0
  0
POLYLINE
  5
164F
  8
0
 66
     1
 10
0.0
 20
0.0
 30
0.0
  0
VERTEX
  5
2385
  8
0
 10
69.5352464973149438
 20
98.0940000000040442
 30
0.0
  0
VERTEX
  5
2386
  8
0
 10
69.8479625050126742
 20
98.2038893359647602
 30
0.0
  0
VERTEX
  5
2387
  8
0
 10
70.1247095830782712
 20
98.3078820544809133
 30
0.0
  0
VERTEX
  5
2388
  8
0
 10
70.3346377991676093
 20
98.3907175895031543
 30
0.0
  0
VERTEX
  5
2389
  8
0
 10
70.4929256336956485
 20
98.4553092347667445
 30
0.0
  0
VERTEX
  5
238A
  8
0
 10
70.581331384940853
 20
98.4921513892321343
 30
0.0
  0
VERTEX
  5
238B
  8
0
 10
70.59999999940473
 20
98.4999999997534843
 30
0.0
  0
SEQEND
  5
238C
  8
0
  0
POLYLINE
  5
1650
  8
0
 66
     1
 10
0.0
 20
0.0
 30
0.0
  0
VERTEX
  5
238D
  8
0
 10
63.664753502685052
 20
98.094000000004101
 30
0.0
  0
VERTEX
  5
238E
  8
0
 10
63.9299700612741901
 20
97.9458234696858341
 30
0.0
  0
VERTEX
  5
238F
  8
0
 10
64.2314498694092038
 20
97.7898039660515934
 30
0.0
  0
VERTEX
  5
2390
  8
0
 10
64.5646551366119752
 20
97.6341981736820941
 30
0.0
  0
VERTEX
  5
2391
  8
0
 10
64.9300654114465772
 20
97.4858635483507925
 30
0.0
  0
VERTEX
  5
2392
  8
0
 10
65.3253934014794311
 20
97.3542153742629068
 30
0.0
  0
VERTEX
  5
2393
  8
0
 10
65.7441984541416389
 20
97.2503600183900545
 30
0.0
  0
VERTEX
  5
2394
  8
0
 10
66.204739033290835
 20
97.1824420446198047
 30
0.0
  0
VERTEX
  5
2395
  8
0
 10
66.676208563847382
 20
97.1640090952396065
 30
0.0
  0
VERTEX
  5
2396
  8
0
 10
67.1456266874290861
 20
97.1992730297365171
 30
0.0
  0
VERTEX
  5
2397
  8
0
 10
67.6003389151734382
 20
97.2818035855519412
 30
0.0
  0
VERTEX
  5
2398
  8
0
 10
67.963429711415543
 20
97.3809442680822173
 30
0.0
  0
VERTEX
  5
2399
  8
0
 10
68.307326416950616
 20
97.4998397272418771
 30
0.0
  0
VERTEX
  5
239A
  8
0
 10
68.6279512957055999
 20
97.6309556743497353
 30
0.0
  0
VERTEX
  5
239B
  8
0
 10
69.0707536985525792
 20
97.8411713417019371
 30
0.0
  0
VERTEX
  5
239C
  8
0
 10
69.452706795152352
 20
98.046890137416284
 30
0.0
  0
VERTEX
  5
239D
  8
0
 10
69.5352464973150433
 20
98.094000000004101
 30
0.0
  0
SEQEND
  5
239E
  8
0
  0
POLYLINE
  5
1658
  8
0
 66
     1
 10
0.0
 20
0.0
 30
0.0
  0
VERTEX
  5
239F
  8
0
 10
62.6000000005953723
 20
98.4999999997534843
 30
0.0
  0
VERTEX
  5
23A0
  8
0
 10
62.6041816497963381
 20
98.4982398995787349
 30
0.0
  0
VERTEX
  5
23A1
  8
0
 10
62.6541068698173476
 20
98.4773180871875553
 30
0.0
  0
VERTEX
  5
23A2
  8
0
 10
62.7608552175035683
 20
98.4331630689656123
 30
0.0
  0
VERTEX
  5
23A3
  8
0
 10
62.9168467326141823
 20
98.3700983750961342
 30
0.0
  0
VERTEX
  5
23A4
  8
0
 10
63.1189690545415587
 20
98.2910668594127657
 30
0.0
  0
VERTEX
  5
23A5
  8
0
 10
63.3731591368834586
 20
98.1962063580063642
 30
0.0
  0
VERTEX
  5
23A6
  8
0
 10
63.664753502685052
 20
98.094000000004101
 30
0.0
  0
SEQEND
  5
23A7
  8
0
  0
LINE
  5
168C
  8
1
 10
66.6000000000000227
 20
106.7900000000039995
 30
0.0
 11
66.6000000000000227
 21
39.9999999999999503
 31
0.0
  0
LINE
  5
16A1
  8
0
 10
62.6000000000000512
 20
87.5000000000045048
 30
0.0
 11
62.6000000000000512
 21
83.0000000000041211
 31
0.0
  0
LINE
  5
16A2
  8
0
 10
70.6000000000000512
 20
83.0000000000041211
 30
0.0
 11
70.6000000000000654
 21
87.5000000000041211
 31
0.0
  0
LINE
  5
16A3
  8
0
 10
62.6452560133430225
 20
99.5400000000041132
 30
0.0
 11
62.6452560133430225
 21
98.4811790166347549
 31
0.0
  0
LINE
  5
16A4
  8
0
 10
70.5547439866570869
 20
98.4811021487871017
 30
0.0
 11
70.5547439866570869
 21
99.5400000000041132
 31
0.0
  0
LINE
  5
16A5
  8
0
 10
70.5547439866570869
 20
99.5400000000041132
 30
0.0
 11
62.6452560133430225
 21
99.5400000000041132
 31
0.0
  0
LINE
  5
16A6
  8
0
 10
70.0887820224256046
 20
100.0000000000041069
 30
0.0
 11
63.1112179775744622
 21
100.0000000000041069
 31
0.0
  0
LINE
  5
16A8
  8
0
 10
70.5547439866570869
 20
99.5400000000041132
 30
0.0
 11
70.0887820224256473
 21
100.0000000000041069
 31
0.0
  0
LINE
  5
16A9
  8
0
 10
69.8330000000000268
 20
45.0
 30
0.0
 11
63.3670000000000186
 21
45.0
 31
0.0
  0
LINE
  5
16AA
  8
0
 10
69.8330000000000268
 20
45.0
 30
0.0
 11
70.6000000000000227
 21
45.7669999999999888
 31
0.0
  0
LINE
  5
16AB
  8
0
 10
62.6000000000000227
 20
45.7669999999999888
 30
0.0
 11
63.3670000000000186
 21
45.0
 31
0.0
  0
LINE
  5
16AC
  8
0
 10
70.6000000000000227
 20
45.7669999999999888
 30
0.0
 11
62.6000000000000227
 21
45.7669999999999888
 31
0.0
  0
LINE
  5
16AD
  8
0
 10
62.6000000000000227
 20
75.0
 30
0.0
 11
62.6000000000000227
 21
45.7669999999999888
 31
0.0
  0
LINE
  5
16AE
  8
0
 10
70.6000000000000227
 20
45.7669999999999888
 30
0.0
 11
70.6000000000000227
 21
75.0
 31
0.0
  0
LINE
  5
16B0
  8
3
 10
63.2765000000002829
 20
45.0904999999997287
 30
0.0
 11
63.2765000000002829
 21
75.0
 31
0.0
  0
LINE
  5
16B2
  8
3
 10
69.9234999999997626
 20
45.0904999999997429
 30
0.0
 11
69.9234999999997626
 21
75.0
 31
0.0
  0
POLYLINE
  5
16B3
  8
0
 66
     1
 10
0.0
 20
0.0
 30
0.0
  0
VERTEX
  5
23A8
  8
0
 10
63.6647535026851514
 20
87.9060000000042265
 30
0.0
  0
VERTEX
  5
23A9
  8
0
 10
63.352037494987421
 20
87.7961106640434679
 30
0.0
  0
VERTEX
  5
23AA
  8
0
 10
63.0752904169218311
 20
87.6921179455272863
 30
0.0
  0
VERTEX
  5
23AB
  8
0
 10
62.865362200832493
 20
87.6092824105050454
 30
0.0
  0
VERTEX
  5
23AC
  8
0
 10
62.7070743663044468
 20
87.5446907652415263
 30
0.0
  0
VERTEX
  5
23AD
  8
0
 10
62.6186686150592493
 20
87.5078486107760938
 30
0.0
  0
VERTEX
  5
23AE
  8
0
 10
62.6000000005953723
 20
87.5000000002547864
 30
0.0
  0
SEQEND
  5
23AF
  8
0
  0
POLYLINE
  5
16B4
  8
0
 66
     1
 10
0.0
 20
0.0
 30
0.0
  0
VERTEX
  5
23B0
  8
0
 10
69.5352464973150433
 20
87.9060000000041128
 30
0.0
  0
VERTEX
  5
23B1
  8
0
 10
69.2700299387259122
 20
88.0541765303224366
 30
0.0
  0
VERTEX
  5
23B2
  8
0
 10
68.9685501305908986
 20
88.2101960339566205
 30
0.0
  0
VERTEX
  5
23B3
  8
0
 10
68.6353448633881271
 20
88.3658018263261766
 30
0.0
  0
VERTEX
  5
23B4
  8
0
 10
68.2699345885535251
 20
88.5141364516574214
 30
0.0
  0
VERTEX
  5
23B5
  8
0
 10
67.8746065985206712
 20
88.6457846257453355
 30
0.0
  0
VERTEX
  5
23B6
  8
0
 10
67.4558015458584634
 20
88.7496399816181452
 30
0.0
  0
VERTEX
  5
23B7
  8
0
 10
66.9952609667092531
 20
88.8175579553884091
 30
0.0
  0
VERTEX
  5
23B8
  8
0
 10
66.5237914361527203
 20
88.8359909047686074
 30
0.0
  0
VERTEX
  5
23B9
  8
0
 10
66.0543733125710162
 20
88.8007269702716968
 30
0.0
  0
VERTEX
  5
23BA
  8
0
 10
65.5996610848266641
 20
88.7181964144562727
 30
0.0
  0
VERTEX
  5
23BB
  8
0
 10
65.2365702885845451
 20
88.6190557319259966
 30
0.0
  0
VERTEX
  5
23BC
  8
0
 10
64.8926735830494863
 20
88.5001602727663368
 30
0.0
  0
VERTEX
  5
23BD
  8
0
 10
64.5720487042945024
 20
88.369044325658507
 30
0.0
  0
VERTEX
  5
23BE
  8
0
 10
64.1292463014475231
 20
88.1588286583062768
 30
0.0
  0
VERTEX
  5
23BF
  8
0
 10
63.7472932048477503
 20
87.9531098625919441
 30
0.0
  0
VERTEX
  5
23C0
  8
0
 10
63.664753502685052
 20
87.9060000000041128
 30
0.0
  0
SEQEND
  5
23C1
  8
0
  0
LINE
  5
16B5
  8
0
 10
71.1000000000000512
 20
98.5000000000041069
 30
0.0
 11
70.6000000000000512
 21
98.5000000000041069
 31
0.0
  0
LINE
  5
16B6
  8
0
 10
62.6000000000000512
 20
98.5000000000041069
 30
0.0
 11
62.1000000000000512
 21
98.5000000000041069
 31
0.0
  0
LINE
  5
16B7
  8
0
 10
62.1000000000000512
 20
87.5000000000041069
 30
0.0
 11
71.1000000000000512
 21
87.5000000000041069
 31
0.0
  0
POLYLINE
  5
16B9
  8
0
 66
     1
 10
0.0
 20
0.0
 30
0.0
  0
VERTEX
  5
23C2
  8
0
 10
70.59999999940473
 20
87.5000000002547864
 30
0.0
  0
VERTEX
  5
23C3
  8
0
 10
70.5958183502037571
 20
87.5017601004295358
 30
0.0
  0
VERTEX
  5
23C4
  8
0
 10
70.5458931301827477
 20
87.5226819128207154
 30
0.0
  0
VERTEX
  5
23C5
  8
0
 10
70.4391447824965269
 20
87.5668369310426016
 30
0.0
  0
VERTEX
  5
23C6
  8
0
 10
70.283153267385913
 20
87.6299016249121365
 30
0.0
  0
VERTEX
  5
23C7
  8
0
 10
70.0810309454585365
 20
87.7089331405954482
 30
0.0
  0
VERTEX
  5
23C8
  8
0
 10
69.8268408631166437
 20
87.8037936420018355
 30
0.0
  0
VERTEX
  5
23C9
  8
0
 10
69.5352464973150433
 20
87.9060000000041128
 30
0.0
  0
SEQEND
  5
23CA
  8
0
  0
POLYLINE
  5
16DE
  8
0
 66
     1
 10
0.0
 20
0.0
 30
0.0
  0
VERTEX
  5
23CB
  8
0
 10
70.3659810395009657
 20
99.7263477329892112
 30
0.0
  0
VERTEX
  5
23CC
  8
0
 10
70.415449410584273
 20
99.7308129440929889
 30
0.0
  0
VERTEX
  5
23CD
  8
0
 10
70.5616344557355717
 20
99.7537974462530457
 30
0.0
  0
VERTEX
  5
23CE
  8
0
 10
70.6951545602114209
 20
99.7850086421532012
 30
0.0
  0
VERTEX
  5
23CF
  8
0
 10
70.815203620076062
 20
99.8247350771649309
 30
0.0
  0
VERTEX
  5
23D0
  8
0
 10
70.9161562262628138
 20
99.8712517122415449
 30
0.0
  0
VERTEX
  5
23D1
  8
0
 10
70.9998913002303027
 20
99.9267435865816793
 30
0.0
  0
VERTEX
  5
23D2
  8
0
 10
71.0588391759355602
 20
99.9872802728080643
 30
0.0
  0
VERTEX
  5
23D3
  8
0
 10
71.1000000000000512
 20
100.1034960225126014
 30
0.0
  0
SEQEND
  5
23D4
  8
0
  0
POLYLINE
  5
16E0
  8
0
 66
     1
 10
0.0
 20
0.0
 30
0.0
  0
VERTEX
  5
23D5
  8
0
 10
62.1000000000000512
 20
100.1034960225126014
 30
0.0
  0
VERTEX
  5
23D6
  8
0
 10
62.1159072236576222
 20
100.0305385463887973
 30
0.0
  0
VERTEX
  5
23D7
  8
0
 10
62.1632009894412718
 20
99.9608808105767963
 30
0.0
  0
VERTEX
  5
23D8
  8
0
 10
62.2419869762573512
 20
99.8963373280823959
 30
0.0
  0
VERTEX
  5
23D9
  8
0
 10
62.3503523852947978
 20
99.8388709528102964
 30
0.0
  0
VERTEX
  5
23DA
  8
0
 10
62.479118331885303
 20
99.792504232512627
 30
0.0
  0
VERTEX
  5
23DB
  8
0
 10
62.6291304975477772
 20
99.7555733815323862
 30
0.0
  0
VERTEX
  5
23DC
  8
0
 10
62.7841116629216671
 20
99.7309123360247014
 30
0.0
  0
VERTEX
  5
23DD
  8
0
 10
62.8341311745730167
 20
99.7264585112886266
 30
0.0
  0
SEQEND
  5
23DE
  8
0
  0
POLYLINE
  5
16E2
  8
0
 66
     1
 10
0.0
 20
0.0
 30
0.0
  0
VERTEX
  5
23DF
  8
0
 10
70.6000000000000512
 20
84.2991999684594759
 30
0.0
  0
VERTEX
  5
23E0
  8
0
 10
70.6960610196318555
 20
84.2259398774409789
 30
0.0
  0
VERTEX
  5
23E1
  8
0
 10
70.8118661042151416
 20
84.1053862314060581
 30
0.0
  0
VERTEX
  5
23E2
  8
0
 10
70.946418353134618
 20
83.9087249404237951
 30
0.0
  0
VERTEX
  5
23E3
  8
0
 10
71.0379938817393537
 20
83.7018235538498061
 30
0.0
  0
VERTEX
  5
23E4
  8
0
 10
71.0843313296151109
 20
83.520036614834126
 30
0.0
  0
VERTEX
  5
23E5
  8
0
 10
71.1000000000000512
 20
83.3388405026037731
 30
0.0
  0
SEQEND
  5
23E6
  8
0
  0
POLYLINE
  5
16E3
  8
0
 66
     1
 10
0.0
 20
0.0
 30
0.0
  0
VERTEX
  5
23E7
  8
0
 10
62.1000000000000512
 20
83.3388405026037731
 30
0.0
  0
VERTEX
  5
23E8
  8
0
 10
62.1288439297025192
 20
83.5857308491678879
 30
0.0
  0
VERTEX
  5
23E9
  8
0
 10
62.214308150930492
 20
83.8315898284228638
 30
0.0
  0
VERTEX
  5
23EA
  8
0
 10
62.3156927172248132
 20
84.009526686293114
 30
0.0
  0
VERTEX
  5
23EB
  8
0
 10
62.4518744977584888
 20
84.1759561183205989
 30
0.0
  0
VERTEX
  5
23EC
  8
0
 10
62.5592895031088787
 20
84.2725358959877013
 30
0.0
  0
VERTEX
  5
23ED
  8
0
 10
62.6000000000000512
 20
84.3000138480809511
 30
0.0
  0
SEQEND
  5
23EE
  8
0
  0
LINE
  5
1932
  8
3
 10
63.2765000000003113
 20
98.232278316856096
 30
0.0
 11
63.2765000000002971
 21
100.0000000000041069
 31
0.0
  0
LINE
  5
1933
  8
3
 10
69.923499999999791
 20
98.2322739155184621
 30
0.0
 11
69.9234999999998053
 21
100.0000000000041069
 31
0.0
  0
LINE
  5
1EEB
  8
0
 10
150.75
 20
177.4547439866570073
 30
0.0
 11
150.75
 21
169.5452560133429074
 31
0.0
  0
LINE
  5
1EEC
  8
0
 10
149.5500000000000114
 20
177.4547439866570073
 30
0.0
 11
149.5500000000000114
 21
169.5452560133429074
 31
0.0
  0
LINE
  5
2014
  8
0
 10
62.6452560133430225
 20
99.5400000000041132
 30
0.0
 11
63.111217977574448
 21
100.0000000000041069
 31
0.0
  0
LINE
  5
20B1
  8
3
 10
63.2765000000002971
 20
87.5000000000041069
 30
0.0
 11
63.2765000000002971
 21
87.7677260844897518
 31
0.0
  0
LINE
  5
20B2
  8
3
 10
69.923499999999791
 20
87.5000000000041069
 30
0.0
 11
69.9234999999998053
 21
87.7677216831521037
 31
0.0
  0
LINE
  5
2279
  8
0
 10
162.6500000000000909
 20
76.1999999999999886
 30
0.0
 11
162.6500000000000909
 21
81.7999999999999829
 31
0.0
  0
LINE
  5
227A
  8
0
 10
137.6500000000000909
 20
81.7999999999999829
 30
0.0
 11
137.6500000000000909
 21
76.1999999999999886
 31
0.0
  0
LINE
  5
227B
  8
0
 10
137.6500000000000909
 20
76.1999999999999886
 30
0.0
 11
138.8499999999999943
 21
75.0
 31
0.0
  0
LINE
  5
227C
  8
0
 10
161.4500000000001023
 20
75.0
 30
0.0
 11
162.6500000000000909
 21
76.1999999999999886
 31
0.0
  0
LINE
  5
227D
  8
0
 10
138.8499999999999943
 20
82.9999999999999858
 30
0.0
 11
137.6500000000000909
 21
81.7999999999999829
 31
0.0
  0
LINE
  5
227E
  8
0
 10
162.6500000000000057
 20
81.7999999999999829
 30
0.0
 11
161.4500000000001023
 21
82.9999999999999858
 31
0.0
  0
LINE
  5
227F
  8
0
 10
162.6500000000000909
 20
81.7999999999999829
 30
0.0
 11
157.3520830320123878
 21
81.7999999999999829
 31
0.0
  0
LINE
  5
2280
  8
0
 10
143.5167504192893091
 20
81.7999999999999829
 30
0.0
 11
137.6500000000000909
 21
81.7999999999999829
 31
0.0
  0
LINE
  5
2281
  8
0
 10
137.6500000000000909
 20
76.1999999999999886
 30
0.0
 11
162.6500000000000057
 21
76.1999999999999886
 31
0.0
  0
LINE
  5
2282
  8
0
 10
138.8499999999999943
 20
75.0
 30
0.0
 11
161.4500000000001023
 21
75.0
 31
0.0
  0
LINE
  5
2283
  8
0
 10
141.9915687782516045
 20
82.9999999999999858
 30
0.0
 11
138.8499999999999943
 21
82.9999999999999858
 31
0.0
  0
LINE
  5
2284
  8
0
 10
161.4500000000001023
 20
82.9999999999999858
 30
0.0
 11
158.9685950404048924
 21
82.9999999999999858
 31
0.0
  0
CIRCLE
  5
2285
  8
0
 10
150.1500000000000909
 20
93.2999999999999972
 30
0.0
 40
5.4999999999999707
  0
LINE
  5
2286
  8
0
 10
246.1500000000000909
 20
86.2456264653802833
 30
0.0
 11
246.1500000000000909
 21
87.0745584801761225
 31
0.0
  0
ARC
  5
2287
  8
0
 10
242.15023800017849
 20
86.2452121602483572
 30
0.0
 40
3.9997620212789409
 50
239.7450321124426011
 51
0.0059348369737331
  0
ARC
  5
2288
  8
0
 10
214.4803290197544072
 20
56.7448756700782582
 30
0.0
 40
45.0548454213313789
 50
47.6240938545623393
 51
69.6799041508567711
  0
ARC
  5
2289
  8
0
 10
242.1500000000035016
 20
87.0745584801776289
 30
0.0
 40
3.9999999999965321
 50
359.9999999999789111
 51
47.6055162546053623
  0
ARC
  5
228A
  8
0
 10
208.6425841796192913
 20
28.7842215130536516
 30
0.0
 40
62.5173659596303821
 50
59.7523805698092403
 51
69.9009777584205523
  0
ARC
  5
228B
  8
0
 10
214.5200000000000955
 20
56.8099999999999881
 30
0.0
 40
44.9799999999999969
 50
69.6984848622356452
 51
70.5761661061481078
  0
ARC
  5
228C
  8
0
 10
208.6500000000000909
 20
28.7999999999999012
 30
0.0
 40
62.5000000000000924
 50
69.9023913788187201
 51
70.533717313291632
  0
ARC
  5
228D
  8
0
 10
214.5200000000000955
 20
56.8099999999999881
 30
0.0
 40
44.9799999999999827
 50
70.5761661061481078
 51
103.9847104878789992
  0
ARC
  5
228E
  8
0
 10
208.6500000000000909
 20
28.7999999999999012
 30
0.0
 40
62.5000000000000924
 50
70.533717313291632
 51
94.5885657357849254
  0
ARC
  5
228F
  8
0
 10
181.2900000000001057
 20
171.8899999999997874
 30
0.0
 40
74.8799999999997681
 50
270.0
 51
284.5006718642745227
  0
ARC
  5
2290
  8
0
 10
183.8600000000000136
 20
153.8699999999996919
 30
0.0
 40
65.0999999999997954
 50
267.7375049431411753
 51
279.0236081160373942
  0
ARC
  5
2291
  8
0
 10
214.5200000000000955
 20
56.8099999999999881
 30
0.0
 40
44.9799999999999969
 50
103.9847104878789992
 51
108.7800651717432032
  0
ARC
  5
2292
  8
0
 10
208.6500000000000909
 20
28.7999999999999012
 30
0.0
 40
62.5000000000000924
 50
94.5885657357849254
 51
103.4899015454239048
  0
ARC
  5
2293
  8
0
 10
171.600000000000108
 20
73.8000000000000966
 30
0.0
 40
15.9899999999999096
 50
86.647953290490932
 51
118.3266634737098002
  0
ARC
  5
2294
  8
0
 10
150.1500000000000909
 20
91.7999999999999829
 30
0.0
 40
12.0
 50
58.9005622838647298
 51
270.0
  0
ARC
  5
2295
  8
0
 10
169.2614222505073087
 20
123.4820696855941975
 30
0.0
 40
25.0000000000005009
 50
238.9005622838647014
 51
256.0455571336796083
  0
ARC
  5
2296
  8
0
 10
168.9717799231063964
 20
79.1799941830316953
 30
0.0
 40
10.0100000000000193
 50
119.6964423578154992
 51
143.7429287487994998
  0
ARC
  5
2297
  8
0
 10
150.4236292330404865
 20
92.7971199518518404
 30
0.0
 40
12.9999999999999893
 50
268.793926302167506
 51
323.6948120829625282
  0
ARC
  5
2298
  8
0
 10
183.8600000000000136
 20
153.8699999999996919
 30
0.0
 40
65.0999999999997954
 50
259.9816302489953159
 51
267.7375049431411753
  0
ARC
  5
2299
  8
0
 10
181.2900000000001057
 20
171.8899999999997874
 30
0.0
 40
74.8799999999997965
 50
256.0455571336796083
 51
270.0
  0
LINE
  5
229A
  8
0
 10
144.6500000000000057
 20
177.9999999999998863
 30
0.0
 11
144.6500000000000057
 21
168.9999999999998863
 31
0.0
  0
LINE
  5
229B
  8
0
 10
155.6500000000000057
 20
168.9999999999998863
 30
0.0
 11
155.6500000000000057
 21
177.9999999999998863
 31
0.0
  0
LINE
  5
229C
  8
0
 10
138.1500000000000057
 20
185.4999999999998863
 30
0.0
 11
138.1500000000000057
 21
177.9999999999998863
 31
0.0
  0
LINE
  5
229D
  8
0
 10
138.1500000000000057
 20
169.0
 30
0.0
 11
138.1500000000000057
 21
161.5
 31
0.0
  0
ARC
  5
229E
  8
0
 10
150.1500000000000057
 20
173.5
 30
0.0
 40
12.5
 50
158.8998039759052858
 51
201.1001960240947142
  0
ARC
  5
229F
  8
0
 10
150.1500000000000057
 20
173.5
 30
0.0
 40
11.3000000000000096
 50
156.5324207029894126
 51
203.4675792970149928
  0
ARC
  5
22A0
  8
0
 10
150.1311724668740908
 20
172.3175004301614024
 30
0.0
 40
11.3386027470344608
 50
252.5619932539181889
 51
287.4380067460818964
  0
ARC
  5
22A1
  8
0
 10
150.1688275331258922
 20
174.6824995698380008
 30
0.0
 40
11.3386027470350204
 50
72.5619932539181463
 51
107.4380067460817969
  0
ARC
  5
22A2
  8
0
 10
159.6500000000000909
 20
169.9999999999998863
 30
0.0
 40
0.9999999999999715
 50
269.9999999999968168
 51
0.0000000000016284
  0
LINE
  5
22A3
  8
0
 10
160.6500000000000057
 20
170.0
 30
0.0
 11
160.6500000000000057
 21
176.9999999999998863
 31
0.0
  0
ARC
  5
22A4
  8
0
 10
159.649999999999693
 20
176.9999999999994884
 30
0.0
 40
1.000000000000397
 50
0.0000000000260551
 51
89.9999999999837144
  0
LINE
  5
22A5
  8
0
 10
138.1500000000000057
 20
169.0
 30
0.0
 11
159.6500000000000057
 21
169.0
 31
0.0
  0
LINE
  5
22A6
  8
0
 10
159.6500000000000057
 20
177.9999999999998863
 30
0.0
 11
138.1500000000000057
 21
177.9999999999998863
 31
0.0
  0
ARC
  5
22A7
  8
0
 10
229.5452466263548956
 20
173.5069093341950861
 30
0.0
 40
16.6170707041975092
 50
272.0038197951852794
 51
337.0493286360753018
  0
LINE
  5
22A8
  8
0
 10
229.478254847645502
 20
156.9000000000000057
 30
0.0
 11
230.126281181368995
 21
156.9000000000000057
 31
0.0
  0
LINE
  5
22A9
  8
0
 10
203.6500000000000057
 20
160.5
 30
0.0
 11
229.478254847645502
 21
156.9000000000000057
 31
0.0
  0
LINE
  5
22AA
  8
0
 10
200.0393047951162089
 20
160.6614801075529044
 30
0.0
 11
203.6500000000000057
 21
160.5
 31
0.0
  0
LINE
  5
22AB
  8
0
 10
203.6500000000000909
 20
186.4999999999998863
 30
0.0
 11
200.0393047951162089
 21
186.3385198924470103
 31
0.0
  0
LINE
  5
22AC
  8
0
 10
229.4782548476453883
 20
190.0999999999999091
 30
0.0
 11
203.6500000000000909
 21
186.4999999999998863
 31
0.0
  0
LINE
  5
22AD
  8
0
 10
230.126281181368995
 20
190.0999999999999091
 30
0.0
 11
229.4782548476453883
 21
190.0999999999999091
 31
0.0
  0
ARC
  5
22AE
  8
0
 10
229.5459784657255113
 20
173.4941544413809993
 30
0.0
 40
16.6159820040372388
 50
22.9482776151785508
 51
87.9985739535614755
  0
LINE
  5
22AF
  8
0
 10
181.289999999999992
 20
161.5
 30
0.0
 11
200.0393047951162941
 21
160.6614801075529044
 31
0.0
  0
LINE
  5
22B0
  8
0
 10
200.0393047951162089
 20
186.3385198924470103
 30
0.0
 11
181.2899999999997931
 21
185.4999999999998863
 31
0.0
  0
LINE
  5
22B1
  8
0
 10
181.289999999999992
 20
161.5
 30
0.0
 11
138.1500000000000057
 21
161.5
 31
0.0
  0
LINE
  5
22B2
  8
0
 10
138.1500000000000057
 20
185.4999999999998863
 30
0.0
 11
181.2899999999997931
 21
185.4999999999998863
 31
0.0
  0
LINE
  5
22B3
  8
0
 10
246.1500000000000909
 20
172.9237188186305048
 30
0.0
 11
246.1500000000000909
 21
174.0762811813688131
 31
0.0
  0
ARC
  5
22B4
  8
0
 10
229.5500000000143075
 20
173.499999999996902
 30
0.0
 40
16.6099999999856216
 50
337.0648818854056117
 51
358.0117334541682226
  0
ARC
  5
22B5
  8
0
 10
229.5500000000209013
 20
173.5000000000044906
 30
0.0
 40
16.6099999999789993
 50
1.988266545827692
 51
22.9351181145962109
  0
LINE
  5
22B6
  8
0
 10
79.1000000000000796
 20
76.2000000000041098
 30
0.0
 11
79.1000000000000796
 21
79.6999821700130724
 31
0.0
  0
LINE
  5
22B7
  8
0
 10
54.1000000000000796
 20
79.6999821700130724
 30
0.0
 11
54.1000000000000796
 21
76.2000000000041098
 31
0.0
  0
LINE
  5
22B8
  8
0
 10
54.1000000000000796
 20
76.2000000000041098
 30
0.0
 11
55.3000000000000682
 21
75.0000000000041211
 31
0.0
  0
LINE
  5
22B9
  8
0
 10
77.9000000000000909
 20
75.0000000000041211
 30
0.0
 11
79.1000000000000796
 21
76.2000000000041098
 31
0.0
  0
LINE
  5
22BE
  8
0
 10
62.1000000000000725
 20
103.8000000000041041
 30
0.0
 11
54.6000000000000725
 21
103.8000000000041041
 31
0.0
  0
LINE
  5
22BF
  8
0
 10
78.6000000000000796
 20
103.8000000000041041
 30
0.0
 11
71.1000000000000796
 21
103.8000000000041041
 31
0.0
  0
LINE
  5
22C0
  8
0
 10
54.4850626118068178
 20
88.7700000000041172
 30
0.0
 11
54.6000000000002501
 21
88.7700000000041172
 31
0.0
  0
LINE
  5
22C1
  8
0
 10
78.6000000000002501
 20
88.7700000000041172
 30
0.0
 11
78.7149373881932775
 21
88.7700000000041172
 31
0.0
  0
LINE
  5
22C2
  8
0
 10
81.1150849420849767
 20
101.790000000004099
 30
0.0
 11
78.600000000000307
 21
101.790000000004099
 31
0.0
  0
LINE
  5
22C3
  8
0
 10
71.100000000000307
 20
101.790000000004099
 30
0.0
 11
62.100000000000307
 21
101.790000000004099
 31
0.0
  0
LINE
  5
22C4
  8
0
 10
54.600000000000307
 20
101.790000000004099
 30
0.0
 11
52.0849150579151114
 21
101.790000000004099
 31
0.0
  0
LINE
  5
22C5
  8
0
 10
76.8166530723129313
 20
81.8000000000041041
 30
0.0
 11
56.383346927687171
 21
81.8000000000041041
 31
0.0
  0
ARC
  5
22C6
  8
0
 10
-62.9067084900761699
 20
-72.4123965634158111
 30
0.0
 40
208.0963263013732103
 50
46.9678578841575813
 51
47.8220083137316578
  0
LINE
  5
22C7
  8
0
 10
54.1000000000000796
 20
76.2000000000041098
 30
0.0
 11
79.1000000000000227
 21
76.2000000000041098
 31
0.0
  0
LINE
  5
22C8
  8
0
 10
66.6000000000000796
 20
75.0000000000041211
 30
0.0
 11
77.9000000000000909
 21
75.0000000000041211
 31
0.0
  0
LINE
  5
22C9
  8
0
 10
55.3000000000000682
 20
75.0000000000041211
 30
0.0
 11
66.6000000000000796
 21
75.0000000000041211
 31
0.0
  0
ARC
  5
22CA
  8
0
 10
61.0092890641708507
 20
45.2165543784369532
 30
0.0
 40
39.8524936538740135
 50
66.6312797029151653
 51
71.132525732169114
  0
ARC
  5
22CB
  8
0
 10
72.1830980534350601
 20
45.2362650852686627
 30
0.0
 40
39.8313801738103805
 50
108.8662806622239003
 51
113.3699139026921046
  0
POLYLINE
  5
22CC
  8
0
 66
     1
 10
0.0
 20
0.0
 30
0.0
 70
   128
  0
VERTEX
  5
23EF
  8
0
 10
59.3031999314123368
 20
82.9277372098345893
 30
0.0
  0
VERTEX
  5
23F0
  8
0
 10
59.5974051852157416
 20
82.9966128005592907
 30
0.0
  0
VERTEX
  5
23F1
  8
0
 10
59.6602593708410609
 20
83.0000000000041211
 30
0.0
  0
SEQEND
  5
23F2
  8
0
  0
LINE
  5
22CD
  8
0
 10
73.5397406291590414
 20
83.0000000000041069
 30
0.0
 11
59.6602593708410609
 21
83.0000000000041069
 31
0.0
  0
POLYLINE
  5
22CE
  8
0
 66
     1
 10
0.0
 20
0.0
 30
0.0
 70
   128
  0
VERTEX
  5
23F3
  8
0
 10
73.5397406291590414
 20
83.0000000000041211
 30
0.0
  0
VERTEX
  5
23F4
  8
0
 10
73.7577571103603304
 20
82.9686431580638271
 30
0.0
  0
VERTEX
  5
23F5
  8
0
 10
73.8968000685877655
 20
82.9277372098346461
 30
0.0
  0
SEQEND
  5
23F6
  8
0
  0
LINE
  5
22D5
  8
0
 10
62.1000000000000725
 20
83.0000000000041069
 30
0.0
 11
62.1000000000000725
 21
103.8000000000041041
 31
0.0
  0
LINE
  5
22D6
  8
0
 10
54.6000000000000725
 20
103.8000000000041041
 30
0.0
 11
54.6000000000000725
 21
80.1652311296119251
 31
0.0
  0
LINE
  5
22D7
  8
0
 10
78.6000000000000796
 20
80.1652311296119251
 30
0.0
 11
78.6000000000000796
 21
103.8000000000041041
 31
0.0
  0
LINE
  5
22D8
  8
0
 10
71.1000000000000796
 20
103.8000000000041041
 30
0.0
 11
71.1000000000000796
 21
83.0000000000041069
 31
0.0
  0
POLYLINE
  5
22DF
  8
0
 10
53.7614801075529698
 20
99.3953245424242908
 30
0.0
 66
     1
 70
     8
  0
VERTEX
  8
0
  5
2407
 10
53.7615
 20
99.3953
 30
0.00000
  70
    32
  0
VERTEX
  8
0
  5
2408
 10
53.7679
 20
99.3584
 30
0.00000
  70
    32
  0
VERTEX
  8
0
  5
2409
 10
53.7743
 20
99.3217
 30
0.00000
  70
    32
  0
VERTEX
  8
0
  5
240A
 10
53.7807
 20
99.2854
 30
0.00000
  70
    32
  0
VERTEX
  8
0
  5
240B
 10
53.7871
 20
99.2493
 30
0.00000
  70
    32
  0
VERTEX
  8
0
  5
240C
 10
53.7936
 20
99.2135
 30
0.00000
  70
    32
  0
VERTEX
  8
0
  5
240D
 10
53.8000
 20
99.1780
 30
0.00000
  70
    32
  0
VERTEX
  8
0
  5
240E
 10
53.8064
 20
99.1428
 30
0.00000
  70
    32
  0
VERTEX
  8
0
  5
240F
 10
53.8129
 20
99.1078
 30
0.00000
  70
    32
  0
VERTEX
  8
0
  5
2410
 10
53.8193
 20
99.0732
 30
0.00000
  70
    32
  0
VERTEX
  8
0
  5
2411
 10
53.8257
 20
99.0388
 30
0.00000
  70
    32
  0
VERTEX
  8
0
  5
2412
 10
53.8322
 20
99.0047
 30
0.00000
  70
    32
  0
VERTEX
  8
0
  5
2413
 10
53.8386
 20
98.9709
 30
0.00000
  70
    32
  0
VERTEX
  8
0
  5
2414
 10
53.8451
 20
98.9374
 30
0.00000
  70
    32
  0
VERTEX
  8
0
  5
2415
 10
53.8515
 20
98.9042
 30
0.00000
  70
    32
  0
VERTEX
  8
0
  5
2416
 10
53.8580
 20
98.8712
 30
0.00000
  70
    32
  0
VERTEX
  8
0
  5
2417
 10
53.8645
 20
98.8386
 30
0.00000
  70
    32
  0
VERTEX
  8
0
  5
2418
 10
53.8709
 20
98.8062
 30
0.00000
  70
    32
  0
VERTEX
  8
0
  5
2419
 10
53.8774
 20
98.7741
 30
0.00000
  70
    32
  0
VERTEX
  8
0
  5
241A
 10
53.8838
 20
98.7423
 30
0.00000
  70
    32
  0
VERTEX
  8
0
  5
241B
 10
53.8903
 20
98.7108
 30
0.00000
  70
    32
  0
VERTEX
  8
0
  5
241C
 10
53.8968
 20
98.6795
 30
0.00000
  70
    32
  0
VERTEX
  8
0
  5
241D
 10
53.9033
 20
98.6486
 30
0.00000
  70
    32
  0
VERTEX
  8
0
  5
241E
 10
53.9097
 20
98.6179
 30
0.00000
  70
    32
  0
VERTEX
  8
0
  5
241F
 10
53.9162
 20
98.5875
 30
0.00000
  70
    32
  0
VERTEX
  8
0
  5
2420
 10
53.9227
 20
98.5575
 30
0.00000
  70
    32
  0
VERTEX
  8
0
  5
2421
 10
53.9292
 20
98.5277
 30
0.00000
  70
    32
  0
VERTEX
  8
0
  5
2422
 10
53.9357
 20
98.4981
 30
0.00000
  70
    32
  0
VERTEX
  8
0
  5
2423
 10
53.9422
 20
98.4689
 30
0.00000
  70
    32
  0
VERTEX
  8
0
  5
2424
 10
53.9487
 20
98.4400
 30
0.00000
  70
    32
  0
VERTEX
  8
0
  5
2425
 10
53.9552
 20
98.4113
 30
0.00000
  70
    32
  0
VERTEX
  8
0
  5
2426
 10
53.9617
 20
98.3830
 30
0.00000
  70
    32
  0
VERTEX
  8
0
  5
2427
 10
53.9682
 20
98.3549
 30
0.00000
  70
    32
  0
VERTEX
  8
0
  5
2428
 10
53.9747
 20
98.3271
 30
0.00000
  70
    32
  0
VERTEX
  8
0
  5
2429
 10
53.9812
 20
98.2996
 30
0.00000
  70
    32
  0
VERTEX
  8
0
  5
242A
 10
53.9877
 20
98.2724
 30
0.00000
  70
    32
  0
VERTEX
  8
0
  5
242B
 10
53.9942
 20
98.2454
 30
0.00000
  70
    32
  0
VERTEX
  8
0
  5
242C
 10
54.0007
 20
98.2188
 30
0.00000
  70
    32
  0
VERTEX
  8
0
  5
242D
 10
54.0072
 20
98.1925
 30
0.00000
  70
    32
  0
VERTEX
  8
0
  5
242E
 10
54.0137
 20
98.1664
 30
0.00000
  70
    32
  0
VERTEX
  8
0
  5
242F
 10
54.0203
 20
98.1406
 30
0.00000
  70
    32
  0
VERTEX
  8
0
  5
2430
 10
54.0268
 20
98.1151
 30
0.00000
  70
    32
  0
VERTEX
  8
0
  5
2431
 10
54.0333
 20
98.0899
 30
0.00000
  70
    32
  0
VERTEX
  8
0
  5
2432
 10
54.0398
 20
98.0650
 30
0.00000
  70
    32
  0
VERTEX
  8
0
  5
2433
 10
54.0464
 20
98.0404
 30
0.00000
  70
    32
  0
VERTEX
  8
0
  5
2434
 10
54.0529
 20
98.0161
 30
0.00000
  70
    32
  0
VERTEX
  8
0
  5
2435
 10
54.0594
 20
97.9920
 30
0.00000
  70
    32
  0
VERTEX
  8
0
  5
2436
 10
54.0660
 20
97.9683
 30
0.00000
  70
    32
  0
VERTEX
  8
0
  5
2437
 10
54.0725
 20
97.9448
 30
0.00000
  70
    32
  0
VERTEX
  8
0
  5
2438
 10
54.0790
 20
97.9216
 30
0.00000
  70
    32
  0
VERTEX
  8
0
  5
2439
 10
54.0856
 20
97.8987
 30
0.00000
  70
    32
  0
VERTEX
  8
0
  5
243A
 10
54.0921
 20
97.8761
 30
0.00000
  70
    32
  0
VERTEX
  8
0
  5
243B
 10
54.0987
 20
97.8538
 30
0.00000
  70
    32
  0
VERTEX
  8
0
  5
243C
 10
54.1052
 20
97.8318
 30
0.00000
  70
    32
  0
VERTEX
  8
0
  5
243D
 10
54.1118
 20
97.8101
 30
0.00000
  70
    32
  0
VERTEX
  8
0
  5
243E
 10
54.1183
 20
97.7886
 30
0.00000
  70
    32
  0
VERTEX
  8
0
  5
243F
 10
54.1249
 20
97.7675
 30
0.00000
  70
    32
  0
VERTEX
  8
0
  5
2440
 10
54.1314
 20
97.7466
 30
0.00000
  70
    32
  0
VERTEX
  8
0
  5
2441
 10
54.1380
 20
97.7261
 30
0.00000
  70
    32
  0
VERTEX
  8
0
  5
2442
 10
54.1445
 20
97.7058
 30
0.00000
  70
    32
  0
VERTEX
  8
0
  5
2443
 10
54.1511
 20
97.6858
 30
0.00000
  70
    32
  0
VERTEX
  8
0
  5
2444
 10
54.1577
 20
97.6661
 30
0.00000
  70
    32
  0
VERTEX
  8
0
  5
2445
 10
54.1642
 20
97.6467
 30
0.00000
  70
    32
  0
VERTEX
  8
0
  5
2446
 10
54.1708
 20
97.6276
 30
0.00000
  70
    32
  0
VERTEX
  8
0
  5
2447
 10
54.1774
 20
97.6087
 30
0.00000
  70
    32
  0
VERTEX
  8
0
  5
2448
 10
54.1839
 20
97.5902
 30
0.00000
  70
    32
  0
VERTEX
  8
0
  5
2449
 10
54.1905
 20
97.5719
 30
0.00000
  70
    32
  0
VERTEX
  8
0
  5
244A
 10
54.1971
 20
97.5540
 30
0.00000
  70
    32
  0
VERTEX
  8
0
  5
244B
 10
54.2036
 20
97.5363
 30
0.00000
  70
    32
  0
VERTEX
  8
0
  5
244C
 10
54.2102
 20
97.5189
 30
0.00000
  70
    32
  0
VERTEX
  8
0
  5
244D
 10
54.2168
 20
97.5018
 30
0.00000
  70
    32
  0
VERTEX
  8
0
  5
244E
 10
54.2234
 20
97.4850
 30
0.00000
  70
    32
  0
VERTEX
  8
0
  5
244F
 10
54.2300
 20
97.4685
 30
0.00000
  70
    32
  0
VERTEX
  8
0
  5
2450
 10
54.2365
 20
97.4523
 30
0.00000
  70
    32
  0
VERTEX
  8
0
  5
2451
 10
54.2431
 20
97.4364
 30
0.00000
  70
    32
  0
VERTEX
  8
0
  5
2452
 10
54.2497
 20
97.4208
 30
0.00000
  70
    32
  0
VERTEX
  8
0
  5
2453
 10
54.2563
 20
97.4054
 30
0.00000
  70
    32
  0
VERTEX
  8
0
  5
2454
 10
54.2629
 20
97.3904
 30
0.00000
  70
    32
  0
VERTEX
  8
0
  5
2455
 10
54.2695
 20
97.3756
 30
0.00000
  70
    32
  0
VERTEX
  8
0
  5
2456
 10
54.2761
 20
97.3612
 30
0.00000
  70
    32
  0
VERTEX
  8
0
  5
2457
 10
54.2826
 20
97.3470
 30
0.00000
  70
    32
  0
VERTEX
  8
0
  5
2458
 10
54.2892
 20
97.3331
 30
0.00000
  70
    32
  0
VERTEX
  8
0
  5
2459
 10
54.2958
 20
97.3195
 30
0.00000
  70
    32
  0
VERTEX
  8
0
  5
245A
 10
54.3024
 20
97.3062
 30
0.00000
  70
    32
  0
VERTEX
  8
0
  5
245B
 10
54.3090
 20
97.2932
 30
0.00000
  70
    32
  0
VERTEX
  8
0
  5
245C
 10
54.3156
 20
97.2805
 30
0.00000
  70
    32
  0
VERTEX
  8
0
  5
245D
 10
54.3222
 20
97.2680
 30
0.00000
  70
    32
  0
VERTEX
  8
0
  5
245E
 10
54.3288
 20
97.2559
 30
0.00000
  70
    32
  0
VERTEX
  8
0
  5
245F
 10
54.3354
 20
97.2441
 30
0.00000
  70
    32
  0
VERTEX
  8
0
  5
2460
 10
54.3420
 20
97.2325
 30
0.00000
  70
    32
  0
VERTEX
  8
0
  5
2461
 10
54.3486
 20
97.2213
 30
0.00000
  70
    32
  0
VERTEX
  8
0
  5
2462
 10
54.3552
 20
97.2103
 30
0.00000
  70
    32
  0
VERTEX
  8
0
  5
2463
 10
54.3618
 20
97.1996
 30
0.00000
  70
    32
  0
VERTEX
  8
0
  5
2464
 10
54.3684
 20
97.1892
 30
0.00000
  70
    32
  0
VERTEX
  8
0
  5
2465
 10
54.3750
 20
97.1791
 30
0.00000
  70
    32
  0
VERTEX
  8
0
  5
2466
 10
54.3816
 20
97.1693
 30
0.00000
  70
    32
  0
VERTEX
  8
0
  5
2467
 10
54.3883
 20
97.1598
 30
0.00000
  70
    32
  0
VERTEX
  8
0
  5
2468
 10
54.3949
 20
97.1506
 30
0.00000
  70
    32
  0
VERTEX
  8
0
  5
2469
 10
54.4015
 20
97.1417
 30
0.00000
  70
    32
  0
VERTEX
  8
0
  5
246A
 10
54.4081
 20
97.1331
 30
0.00000
  70
    32
  0
VERTEX
  8
0
  5
246B
 10
54.4147
 20
97.1247
 30
0.00000
  70
    32
  0
VERTEX
  8
0
  5
246C
 10
54.4213
 20
97.1167
 30
0.00000
  70
    32
  0
VERTEX
  8
0
  5
246D
 10
54.4279
 20
97.1089
 30
0.00000
  70
    32
  0
VERTEX
  8
0
  5
246E
 10
54.4345
 20
97.1015
 30
0.00000
  70
    32
  0
VERTEX
  8
0
  5
246F
 10
54.4411
 20
97.0943
 30
0.00000
  70
    32
  0
VERTEX
  8
0
  5
2470
 10
54.4478
 20
97.0874
 30
0.00000
  70
    32
  0
VERTEX
  8
0
  5
2471
 10
54.4544
 20
97.0808
 30
0.00000
  70
    32
  0
VERTEX
  8
0
  5
2472
 10
54.4610
 20
97.0745
 30
0.00000
  70
    32
  0
VERTEX
  8
0
  5
2473
 10
54.4676
 20
97.0685
 30
0.00000
  70
    32
  0
VERTEX
  8
0
  5
2474
 10
54.4742
 20
97.0628
 30
0.00000
  70
    32
  0
VERTEX
  8
0
  5
2475
 10
54.4808
 20
97.0574
 30
0.00000
  70
    32
  0
VERTEX
  8
0
  5
2476
 10
54.4875
 20
97.0523
 30
0.00000
  70
    32
  0
VERTEX
  8
0
  5
2477
 10
54.4941
 20
97.0475
 30
0.00000
  70
    32
  0
VERTEX
  8
0
  5
2478
 10
54.5007
 20
97.0429
 30
0.00000
  70
    32
  0
VERTEX
  8
0
  5
2479
 10
54.5073
 20
97.0387
 30
0.00000
  70
    32
  0
VERTEX
  8
0
  5
247A
 10
54.5139
 20
97.0347
 30
0.00000
  70
    32
  0
VERTEX
  8
0
  5
247B
 10
54.5206
 20
97.0311
 30
0.00000
  70
    32
  0
VERTEX
  8
0
  5
247C
 10
54.5272
 20
97.0277
 30
0.00000
  70
    32
  0
VERTEX
  8
0
  5
247D
 10
54.5338
 20
97.0246
 30
0.00000
  70
    32
  0
VERTEX
  8
0
  5
247E
 10
54.5404
 20
97.0219
 30
0.00000
  70
    32
  0
VERTEX
  8
0
  5
247F
 10
54.5470
 20
97.0194
 30
0.00000
  70
    32
  0
VERTEX
  8
0
  5
2480
 10
54.5537
 20
97.0172
 30
0.00000
  70
    32
  0
VERTEX
  8
0
  5
2481
 10
54.5603
 20
97.0153
 30
0.00000
  70
    32
  0
VERTEX
  8
0
  5
2482
 10
54.5669
 20
97.0137
 30
0.00000
  70
    32
  0
VERTEX
  8
0
  5
2483
 10
54.5735
 20
97.0123
 30
0.00000
  70
    32
  0
VERTEX
  8
0
  5
2484
 10
54.5801
 20
97.0113
 30
0.00000
  70
    32
  0
VERTEX
  8
0
  5
2485
 10
54.5868
 20
97.0106
 30
0.00000
  70
    32
  0
VERTEX
  8
0
  5
2486
 10
54.5934
 20
97.0101
 30
0.00000
  70
    32
  0
VERTEX
  8
0
  5
2487
 10
54.6000
 20
97.0100
 30
0.00000
  70
    32
  0
SEQEND
  8
0
  5
2488
  0
POLYLINE
  5
22E0
  8
0
 10
78.6000000000000654
 20
97.0100000000041121
 30
0.0
 66
     1
 70
     8
  0
VERTEX
  8
0
  5
2489
 10
78.6000
 20
97.0100
 30
0.00000
  70
    32
  0
VERTEX
  8
0
  5
248A
 10
78.6066
 20
97.0101
 30
0.00000
  70
    32
  0
VERTEX
  8
0
  5
248B
 10
78.6132
 20
97.0106
 30
0.00000
  70
    32
  0
VERTEX
  8
0
  5
248C
 10
78.6199
 20
97.0113
 30
0.00000
  70
    32
  0
VERTEX
  8
0
  5
248D
 10
78.6265
 20
97.0123
 30
0.00000
  70
    32
  0
VERTEX
  8
0
  5
248E
 10
78.6331
 20
97.0137
 30
0.00000
  70
    32
  0
VERTEX
  8
0
  5
248F
 10
78.6397
 20
97.0153
 30
0.00000
  70
    32
  0
VERTEX
  8
0
  5
2490
 10
78.6463
 20
97.0172
 30
0.00000
  70
    32
  0
VERTEX
  8
0
  5
2491
 10
78.6530
 20
97.0194
 30
0.00000
  70
    32
  0
VERTEX
  8
0
  5
2492
 10
78.6596
 20
97.0219
 30
0.00000
  70
    32
  0
VERTEX
  8
0
  5
2493
 10
78.6662
 20
97.0246
 30
0.00000
  70
    32
  0
VERTEX
  8
0
  5
2494
 10
78.6728
 20
97.0277
 30
0.00000
  70
    32
  0
VERTEX
  8
0
  5
2495
 10
78.6794
 20
97.0311
 30
0.00000
  70
    32
  0
VERTEX
  8
0
  5
2496
 10
78.6861
 20
97.0347
 30
0.00000
  70
    32
  0
VERTEX
  8
0
  5
2497
 10
78.6927
 20
97.0387
 30
0.00000
  70
    32
  0
VERTEX
  8
0
  5
2498
 10
78.6993
 20
97.0429
 30
0.00000
  70
    32
  0
VERTEX
  8
0
  5
2499
 10
78.7059
 20
97.0475
 30
0.00000
  70
    32
  0
VERTEX
  8
0
  5
249A
 10
78.7125
 20
97.0523
 30
0.00000
  70
    32
  0
VERTEX
  8
0
  5
249B
 10
78.7192
 20
97.0574
 30
0.00000
  70
    32
  0
VERTEX
  8
0
  5
249C
 10
78.7258
 20
97.0628
 30
0.00000
  70
    32
  0
VERTEX
  8
0
  5
249D
 10
78.7324
 20
97.0685
 30
0.00000
  70
    32
  0
VERTEX
  8
0
  5
249E
 10
78.7390
 20
97.0745
 30
0.00000
  70
    32
  0
VERTEX
  8
0
  5
249F
 10
78.7456
 20
97.0808
 30
0.00000
  70
    32
  0
VERTEX
  8
0
  5
24A0
 10
78.7522
 20
97.0874
 30
0.00000
  70
    32
  0
VERTEX
  8
0
  5
24A1
 10
78.7589
 20
97.0943
 30
0.00000
  70
    32
  0
VERTEX
  8
0
  5
24A2
 10
78.7655
 20
97.1015
 30
0.00000
  70
    32
  0
VERTEX
  8
0
  5
24A3
 10
78.7721
 20
97.1089
 30
0.00000
  70
    32
  0
VERTEX
  8
0
  5
24A4
 10
78.7787
 20
97.1167
 30
0.00000
  70
    32
  0
VERTEX
  8
0
  5
24A5
 10
78.7853
 20
97.1247
 30
0.00000
  70
    32
  0
VERTEX
  8
0
  5
24A6
 10
78.7919
 20
97.1331
 30
0.00000
  70
    32
  0
VERTEX
  8
0
  5
24A7
 10
78.7985
 20
97.1417
 30
0.00000
  70
    32
  0
VERTEX
  8
0
  5
24A8
 10
78.8051
 20
97.1506
 30
0.00000
  70
    32
  0
VERTEX
  8
0
  5
24A9
 10
78.8117
 20
97.1598
 30
0.00000
  70
    32
  0
VERTEX
  8
0
  5
24AA
 10
78.8184
 20
97.1693
 30
0.00000
  70
    32
  0
VERTEX
  8
0
  5
24AB
 10
78.8250
 20
97.1791
 30
0.00000
  70
    32
  0
VERTEX
  8
0
  5
24AC
 10
78.8316
 20
97.1892
 30
0.00000
  70
    32
  0
VERTEX
  8
0
  5
24AD
 10
78.8382
 20
97.1996
 30
0.00000
  70
    32
  0
VERTEX
  8
0
  5
24AE
 10
78.8448
 20
97.2103
 30
0.00000
  70
    32
  0
VERTEX
  8
0
  5
24AF
 10
78.8514
 20
97.2213
 30
0.00000
  70
    32
  0
VERTEX
  8
0
  5
24B0
 10
78.8580
 20
97.2325
 30
0.00000
  70
    32
  0
VERTEX
  8
0
  5
24B1
 10
78.8646
 20
97.2441
 30
0.00000
  70
    32
  0
VERTEX
  8
0
  5
24B2
 10
78.8712
 20
97.2559
 30
0.00000
  70
    32
  0
VERTEX
  8
0
  5
24B3
 10
78.8778
 20
97.2680
 30
0.00000
  70
    32
  0
VERTEX
  8
0
  5
24B4
 10
78.8844
 20
97.2805
 30
0.00000
  70
    32
  0
VERTEX
  8
0
  5
24B5
 10
78.8910
 20
97.2932
 30
0.00000
  70
    32
  0
VERTEX
  8
0
  5
24B6
 10
78.8976
 20
97.3062
 30
0.00000
  70
    32
  0
VERTEX
  8
0
  5
24B7
 10
78.9042
 20
97.3195
 30
0.00000
  70
    32
  0
VERTEX
  8
0
  5
24B8
 10
78.9108
 20
97.3331
 30
0.00000
  70
    32
  0
VERTEX
  8
0
  5
24B9
 10
78.9174
 20
97.3470
 30
0.00000
  70
    32
  0
VERTEX
  8
0
  5
24BA
 10
78.9239
 20
97.3612
 30
0.00000
  70
    32
  0
VERTEX
  8
0
  5
24BB
 10
78.9305
 20
97.3756
 30
0.00000
  70
    32
  0
VERTEX
  8
0
  5
24BC
 10
78.9371
 20
97.3904
 30
0.00000
  70
    32
  0
VERTEX
  8
0
  5
24BD
 10
78.9437
 20
97.4054
 30
0.00000
  70
    32
  0
VERTEX
  8
0
  5
24BE
 10
78.9503
 20
97.4208
 30
0.00000
  70
    32
  0
VERTEX
  8
0
  5
24BF
 10
78.9569
 20
97.4364
 30
0.00000
  70
    32
  0
VERTEX
  8
0
  5
24C0
 10
78.9635
 20
97.4523
 30
0.00000
  70
    32
  0
VERTEX
  8
0
  5
24C1
 10
78.9700
 20
97.4685
 30
0.00000
  70
    32
  0
VERTEX
  8
0
  5
24C2
 10
78.9766
 20
97.4850
 30
0.00000
  70
    32
  0
VERTEX
  8
0
  5
24C3
 10
78.9832
 20
97.5018
 30
0.00000
  70
    32
  0
VERTEX
  8
0
  5
24C4
 10
78.9898
 20
97.5189
 30
0.00000
  70
    32
  0
VERTEX
  8
0
  5
24C5
 10
78.9964
 20
97.5363
 30
0.00000
  70
    32
  0
VERTEX
  8
0
  5
24C6
 10
79.0029
 20
97.5540
 30
0.00000
  70
    32
  0
VERTEX
  8
0
  5
24C7
 10
79.0095
 20
97.5719
 30
0.00000
  70
    32
  0
VERTEX
  8
0
  5
24C8
 10
79.0161
 20
97.5902
 30
0.00000
  70
    32
  0
VERTEX
  8
0
  5
24C9
 10
79.0226
 20
97.6087
 30
0.00000
  70
    32
  0
VERTEX
  8
0
  5
24CA
 10
79.0292
 20
97.6276
 30
0.00000
  70
    32
  0
VERTEX
  8
0
  5
24CB
 10
79.0358
 20
97.6467
 30
0.00000
  70
    32
  0
VERTEX
  8
0
  5
24CC
 10
79.0423
 20
97.6661
 30
0.00000
  70
    32
  0
VERTEX
  8
0
  5
24CD
 10
79.0489
 20
97.6858
 30
0.00000
  70
    32
  0
VERTEX
  8
0
  5
24CE
 10
79.0555
 20
97.7058
 30
0.00000
  70
    32
  0
VERTEX
  8
0
  5
24CF
 10
79.0620
 20
97.7261
 30
0.00000
  70
    32
  0
VERTEX
  8
0
  5
24D0
 10
79.0686
 20
97.7466
 30
0.00000
  70
    32
  0
VERTEX
  8
0
  5
24D1
 10
79.0751
 20
97.7675
 30
0.00000
  70
    32
  0
VERTEX
  8
0
  5
24D2
 10
79.0817
 20
97.7886
 30
0.00000
  70
    32
  0
VERTEX
  8
0
  5
24D3
 10
79.0882
 20
97.8101
 30
0.00000
  70
    32
  0
VERTEX
  8
0
  5
24D4
 10
79.0948
 20
97.8318
 30
0.00000
  70
    32
  0
VERTEX
  8
0
  5
24D5
 10
79.1013
 20
97.8538
 30
0.00000
  70
    32
  0
VERTEX
  8
0
  5
24D6
 10
79.1079
 20
97.8761
 30
0.00000
  70
    32
  0
VERTEX
  8
0
  5
24D7
 10
79.1144
 20
97.8987
 30
0.00000
  70
    32
  0
VERTEX
  8
0
  5
24D8
 10
79.1210
 20
97.9216
 30
0.00000
  70
    32
  0
VERTEX
  8
0
  5
24D9
 10
79.1275
 20
97.9448
 30
0.00000
  70
    32
  0
VERTEX
  8
0
  5
24DA
 10
79.1340
 20
97.9683
 30
0.00000
  70
    32
  0
VERTEX
  8
0
  5
24DB
 10
79.1406
 20
97.9920
 30
0.00000
  70
    32
  0
VERTEX
  8
0
  5
24DC
 10
79.1471
 20
98.0161
 30
0.00000
  70
    32
  0
VERTEX
  8
0
  5
24DD
 10
79.1536
 20
98.0404
 30
0.00000
  70
    32
  0
VERTEX
  8
0
  5
24DE
 10
79.1602
 20
98.0650
 30
0.00000
  70
    32
  0
VERTEX
  8
0
  5
24DF
 10
79.1667
 20
98.0899
 30
0.00000
  70
    32
  0
VERTEX
  8
0
  5
24E0
 10
79.1732
 20
98.1151
 30
0.00000
  70
    32
  0
VERTEX
  8
0
  5
24E1
 10
79.1797
 20
98.1406
 30
0.00000
  70
    32
  0
VERTEX
  8
0
  5
24E2
 10
79.1863
 20
98.1664
 30
0.00000
  70
    32
  0
VERTEX
  8
0
  5
24E3
 10
79.1928
 20
98.1925
 30
0.00000
  70
    32
  0
VERTEX
  8
0
  5
24E4
 10
79.1993
 20
98.2188
 30
0.00000
  70
    32
  0
VERTEX
  8
0
  5
24E5
 10
79.2058
 20
98.2454
 30
0.00000
  70
    32
  0
VERTEX
  8
0
  5
24E6
 10
79.2123
 20
98.2724
 30
0.00000
  70
    32
  0
VERTEX
  8
0
  5
24E7
 10
79.2188
 20
98.2996
 30
0.00000
  70
    32
  0
VERTEX
  8
0
  5
24E8
 10
79.2253
 20
98.3271
 30
0.00000
  70
    32
  0
VERTEX
  8
0
  5
24E9
 10
79.2318
 20
98.3549
 30
0.00000
  70
    32
  0
VERTEX
  8
0
  5
24EA
 10
79.2383
 20
98.3830
 30
0.00000
  70
    32
  0
VERTEX
  8
0
  5
24EB
 10
79.2448
 20
98.4113
 30
0.00000
  70
    32
  0
VERTEX
  8
0
  5
24EC
 10
79.2513
 20
98.4400
 30
0.00000
  70
    32
  0
VERTEX
  8
0
  5
24ED
 10
79.2578
 20
98.4689
 30
0.00000
  70
    32
  0
VERTEX
  8
0
  5
24EE
 10
79.2643
 20
98.4981
 30
0.00000
  70
    32
  0
VERTEX
  8
0
  5
24EF
 10
79.2708
 20
98.5277
 30
0.00000
  70
    32
  0
VERTEX
  8
0
  5
24F0
 10
79.2773
 20
98.5575
 30
0.00000
  70
    32
  0
VERTEX
  8
0
  5
24F1
 10
79.2838
 20
98.5875
 30
0.00000
  70
    32
  0
VERTEX
  8
0
  5
24F2
 10
79.2903
 20
98.6179
 30
0.00000
  70
    32
  0
VERTEX
  8
0
  5
24F3
 10
79.2967
 20
98.6486
 30
0.00000
  70
    32
  0
VERTEX
  8
0
  5
24F4
 10
79.3032
 20
98.6795
 30
0.00000
  70
    32
  0
VERTEX
  8
0
  5
24F5
 10
79.3097
 20
98.7108
 30
0.00000
  70
    32
  0
VERTEX
  8
0
  5
24F6
 10
79.3162
 20
98.7423
 30
0.00000
  70
    32
  0
VERTEX
  8
0
  5
24F7
 10
79.3226
 20
98.7741
 30
0.00000
  70
    32
  0
VERTEX
  8
0
  5
24F8
 10
79.3291
 20
98.8062
 30
0.00000
  70
    32
  0
VERTEX
  8
0
  5
24F9
 10
79.3355
 20
98.8386
 30
0.00000
  70
    32
  0
VERTEX
  8
0
  5
24FA
 10
79.3420
 20
98.8712
 30
0.00000
  70
    32
  0
VERTEX
  8
0
  5
24FB
 10
79.3485
 20
98.9042
 30
0.00000
  70
    32
  0
VERTEX
  8
0
  5
24FC
 10
79.3549
 20
98.9374
 30
0.00000
  70
    32
  0
VERTEX
  8
0
  5
24FD
 10
79.3614
 20
98.9709
 30
0.00000
  70
    32
  0
VERTEX
  8
0
  5
24FE
 10
79.3678
 20
99.0047
 30
0.00000
  70
    32
  0
VERTEX
  8
0
  5
24FF
 10
79.3743
 20
99.0388
 30
0.00000
  70
    32
  0
VERTEX
  8
0
  5
2500
 10
79.3807
 20
99.0732
 30
0.00000
  70
    32
  0
VERTEX
  8
0
  5
2501
 10
79.3871
 20
99.1078
 30
0.00000
  70
    32
  0
VERTEX
  8
0
  5
2502
 10
79.3936
 20
99.1428
 30
0.00000
  70
    32
  0
VERTEX
  8
0
  5
2503
 10
79.4000
 20
99.1780
 30
0.00000
  70
    32
  0
VERTEX
  8
0
  5
2504
 10
79.4064
 20
99.2135
 30
0.00000
  70
    32
  0
VERTEX
  8
0
  5
2505
 10
79.4129
 20
99.2493
 30
0.00000
  70
    32
  0
VERTEX
  8
0
  5
2506
 10
79.4193
 20
99.2854
 30
0.00000
  70
    32
  0
VERTEX
  8
0
  5
2507
 10
79.4257
 20
99.3217
 30
0.00000
  70
    32
  0
VERTEX
  8
0
  5
2508
 10
79.4321
 20
99.3584
 30
0.00000
  70
    32
  0
VERTEX
  8
0
  5
2509
 10
79.4385
 20
99.3953
 30
0.00000
  70
    32
  0
SEQEND
  8
0
  5
250A
  0
POLYLINE
  5
22E1
  8
0
 10
54.0284268190577777
 20
89.5756906461885194
 30
0.0
 66
     1
 70
     8
  0
VERTEX
  8
0
  5
250B
 10
54.0284
 20
89.5757
 30
0.00000
  70
    32
  0
VERTEX
  8
0
  5
250C
 10
54.0329
 20
89.5601
 30
0.00000
  70
    32
  0
VERTEX
  8
0
  5
250D
 10
54.0373
 20
89.5446
 30
0.00000
  70
    32
  0
VERTEX
  8
0
  5
250E
 10
54.0417
 20
89.5292
 30
0.00000
  70
    32
  0
VERTEX
  8
0
  5
250F
 10
54.0461
 20
89.5141
 30
0.00000
  70
    32
  0
VERTEX
  8
0
  5
2510
 10
54.0506
 20
89.4990
 30
0.00000
  70
    32
  0
VERTEX
  8
0
  5
2511
 10
54.0550
 20
89.4842
 30
0.00000
  70
    32
  0
VERTEX
  8
0
  5
2512
 10
54.0594
 20
89.4694
 30
0.00000
  70
    32
  0
VERTEX
  8
0
  5
2513
 10
54.0639
 20
89.4549
 30
0.00000
  70
    32
  0
VERTEX
  8
0
  5
2514
 10
54.0683
 20
89.4404
 30
0.00000
  70
    32
  0
VERTEX
  8
0
  5
2515
 10
54.0727
 20
89.4262
 30
0.00000
  70
    32
  0
VERTEX
  8
0
  5
2516
 10
54.0772
 20
89.4121
 30
0.00000
  70
    32
  0
VERTEX
  8
0
  5
2517
 10
54.0816
 20
89.3981
 30
0.00000
  70
    32
  0
VERTEX
  8
0
  5
2518
 10
54.0860
 20
89.3843
 30
0.00000
  70
    32
  0
VERTEX
  8
0
  5
2519
 10
54.0905
 20
89.3706
 30
0.00000
  70
    32
  0
VERTEX
  8
0
  5
251A
 10
54.0949
 20
89.3571
 30
0.00000
  70
    32
  0
VERTEX
  8
0
  5
251B
 10
54.0994
 20
89.3438
 30
0.00000
  70
    32
  0
VERTEX
  8
0
  5
251C
 10
54.1038
 20
89.3306
 30
0.00000
  70
    32
  0
VERTEX
  8
0
  5
251D
 10
54.1082
 20
89.3176
 30
0.00000
  70
    32
  0
VERTEX
  8
0
  5
251E
 10
54.1127
 20
89.3047
 30
0.00000
  70
    32
  0
VERTEX
  8
0
  5
251F
 10
54.1171
 20
89.2919
 30
0.00000
  70
    32
  0
VERTEX
  8
0
  5
2520
 10
54.1216
 20
89.2794
 30
0.00000
  70
    32
  0
VERTEX
  8
0
  5
2521
 10
54.1260
 20
89.2669
 30
0.00000
  70
    32
  0
VERTEX
  8
0
  5
2522
 10
54.1305
 20
89.2546
 30
0.00000
  70
    32
  0
VERTEX
  8
0
  5
2523
 10
54.1349
 20
89.2425
 30
0.00000
  70
    32
  0
VERTEX
  8
0
  5
2524
 10
54.1394
 20
89.2305
 30
0.00000
  70
    32
  0
VERTEX
  8
0
  5
2525
 10
54.1438
 20
89.2187
 30
0.00000
  70
    32
  0
VERTEX
  8
0
  5
2526
 10
54.1483
 20
89.2071
 30
0.00000
  70
    32
  0
VERTEX
  8
0
  5
2527
 10
54.1527
 20
89.1955
 30
0.00000
  70
    32
  0
VERTEX
  8
0
  5
2528
 10
54.1572
 20
89.1842
 30
0.00000
  70
    32
  0
VERTEX
  8
0
  5
2529
 10
54.1616
 20
89.1730
 30
0.00000
  70
    32
  0
VERTEX
  8
0
  5
252A
 10
54.1661
 20
89.1619
 30
0.00000
  70
    32
  0
VERTEX
  8
0
  5
252B
 10
54.1705
 20
89.1510
 30
0.00000
  70
    32
  0
VERTEX
  8
0
  5
252C
 10
54.1750
 20
89.1403
 30
0.00000
  70
    32
  0
VERTEX
  8
0
  5
252D
 10
54.1794
 20
89.1297
 30
0.00000
  70
    32
  0
VERTEX
  8
0
  5
252E
 10
54.1839
 20
89.1192
 30
0.00000
  70
    32
  0
VERTEX
  8
0
  5
252F
 10
54.1883
 20
89.1090
 30
0.00000
  70
    32
  0
VERTEX
  8
0
  5
2530
 10
54.1928
 20
89.0988
 30
0.00000
  70
    32
  0
VERTEX
  8
0
  5
2531
 10
54.1973
 20
89.0888
 30
0.00000
  70
    32
  0
VERTEX
  8
0
  5
2532
 10
54.2017
 20
89.0790
 30
0.00000
  70
    32
  0
VERTEX
  8
0
  5
2533
 10
54.2062
 20
89.0693
 30
0.00000
  70
    32
  0
VERTEX
  8
0
  5
2534
 10
54.2106
 20
89.0598
 30
0.00000
  70
    32
  0
VERTEX
  8
0
  5
2535
 10
54.2151
 20
89.0505
 30
0.00000
  70
    32
  0
VERTEX
  8
0
  5
2536
 10
54.2196
 20
89.0412
 30
0.00000
  70
    32
  0
VERTEX
  8
0
  5
2537
 10
54.2240
 20
89.0322
 30
0.00000
  70
    32
  0
VERTEX
  8
0
  5
2538
 10
54.2285
 20
89.0233
 30
0.00000
  70
    32
  0
VERTEX
  8
0
  5
2539
 10
54.2329
 20
89.0145
 30
0.00000
  70
    32
  0
VERTEX
  8
0
  5
253A
 10
54.2374
 20
89.0059
 30
0.00000
  70
    32
  0
VERTEX
  8
0
  5
253B
 10
54.2419
 20
88.9975
 30
0.00000
  70
    32
  0
VERTEX
  8
0
  5
253C
 10
54.2463
 20
88.9892
 30
0.00000
  70
    32
  0
VERTEX
  8
0
  5
253D
 10
54.2508
 20
88.9811
 30
0.00000
  70
    32
  0
VERTEX
  8
0
  5
253E
 10
54.2553
 20
88.9731
 30
0.00000
  70
    32
  0
VERTEX
  8
0
  5
253F
 10
54.2597
 20
88.9652
 30
0.00000
  70
    32
  0
VERTEX
  8
0
  5
2540
 10
54.2642
 20
88.9576
 30
0.00000
  70
    32
  0
VERTEX
  8
0
  5
2541
 10
54.2687
 20
88.9500
 30
0.00000
  70
    32
  0
VERTEX
  8
0
  5
2542
 10
54.2731
 20
88.9427
 30
0.00000
  70
    32
  0
VERTEX
  8
0
  5
2543
 10
54.2776
 20
88.9355
 30
0.00000
  70
    32
  0
VERTEX
  8
0
  5
2544
 10
54.2821
 20
88.9284
 30
0.00000
  70
    32
  0
VERTEX
  8
0
  5
2545
 10
54.2866
 20
88.9215
 30
0.00000
  70
    32
  0
VERTEX
  8
0
  5
2546
 10
54.2910
 20
88.9147
 30
0.00000
  70
    32
  0
VERTEX
  8
0
  5
2547
 10
54.2955
 20
88.9081
 30
0.00000
  70
    32
  0
VERTEX
  8
0
  5
2548
 10
54.3000
 20
88.9017
 30
0.00000
  70
    32
  0
VERTEX
  8
0
  5
2549
 10
54.3044
 20
88.8954
 30
0.00000
  70
    32
  0
VERTEX
  8
0
  5
254A
 10
54.3089
 20
88.8893
 30
0.00000
  70
    32
  0
VERTEX
  8
0
  5
254B
 10
54.3134
 20
88.8833
 30
0.00000
  70
    32
  0
VERTEX
  8
0
  5
254C
 10
54.3179
 20
88.8775
 30
0.00000
  70
    32
  0
VERTEX
  8
0
  5
254D
 10
54.3223
 20
88.8718
 30
0.00000
  70
    32
  0
VERTEX
  8
0
  5
254E
 10
54.3268
 20
88.8663
 30
0.00000
  70
    32
  0
VERTEX
  8
0
  5
254F
 10
54.3313
 20
88.8609
 30
0.00000
  70
    32
  0
VERTEX
  8
0
  5
2550
 10
54.3357
 20
88.8557
 30
0.00000
  70
    32
  0
VERTEX
  8
0
  5
2551
 10
54.3402
 20
88.8506
 30
0.00000
  70
    32
  0
VERTEX
  8
0
  5
2552
 10
54.3447
 20
88.8457
 30
0.00000
  70
    32
  0
VERTEX
  8
0
  5
2553
 10
54.3492
 20
88.8409
 30
0.00000
  70
    32
  0
VERTEX
  8
0
  5
2554
 10
54.3537
 20
88.8363
 30
0.00000
  70
    32
  0
VERTEX
  8
0
  5
2555
 10
54.3581
 20
88.8319
 30
0.00000
  70
    32
  0
VERTEX
  8
0
  5
2556
 10
54.3626
 20
88.8276
 30
0.00000
  70
    32
  0
VERTEX
  8
0
  5
2557
 10
54.3671
 20
88.8235
 30
0.00000
  70
    32
  0
VERTEX
  8
0
  5
2558
 10
54.3716
 20
88.8195
 30
0.00000
  70
    32
  0
VERTEX
  8
0
  5
2559
 10
54.3760
 20
88.8157
 30
0.00000
  70
    32
  0
VERTEX
  8
0
  5
255A
 10
54.3805
 20
88.8120
 30
0.00000
  70
    32
  0
VERTEX
  8
0
  5
255B
 10
54.3850
 20
88.8085
 30
0.00000
  70
    32
  0
VERTEX
  8
0
  5
255C
 10
54.3895
 20
88.8051
 30
0.00000
  70
    32
  0
VERTEX
  8
0
  5
255D
 10
54.3939
 20
88.8019
 30
0.00000
  70
    32
  0
VERTEX
  8
0
  5
255E
 10
54.3984
 20
88.7988
 30
0.00000
  70
    32
  0
VERTEX
  8
0
  5
255F
 10
54.4029
 20
88.7959
 30
0.00000
  70
    32
  0
VERTEX
  8
0
  5
2560
 10
54.4074
 20
88.7932
 30
0.00000
  70
    32
  0
VERTEX
  8
0
  5
2561
 10
54.4119
 20
88.7906
 30
0.00000
  70
    32
  0
VERTEX
  8
0
  5
2562
 10
54.4163
 20
88.7881
 30
0.00000
  70
    32
  0
VERTEX
  8
0
  5
2563
 10
54.4208
 20
88.7859
 30
0.00000
  70
    32
  0
VERTEX
  8
0
  5
2564
 10
54.4253
 20
88.7837
 30
0.00000
  70
    32
  0
VERTEX
  8
0
  5
2565
 10
54.4298
 20
88.7817
 30
0.00000
  70
    32
  0
VERTEX
  8
0
  5
2566
 10
54.4343
 20
88.7799
 30
0.00000
  70
    32
  0
VERTEX
  8
0
  5
2567
 10
54.4387
 20
88.7782
 30
0.00000
  70
    32
  0
VERTEX
  8
0
  5
2568
 10
54.4432
 20
88.7767
 30
0.00000
  70
    32
  0
VERTEX
  8
0
  5
2569
 10
54.4477
 20
88.7754
 30
0.00000
  70
    32
  0
VERTEX
  8
0
  5
256A
 10
54.4522
 20
88.7742
 30
0.00000
  70
    32
  0
VERTEX
  8
0
  5
256B
 10
54.4567
 20
88.7731
 30
0.00000
  70
    32
  0
VERTEX
  8
0
  5
256C
 10
54.4611
 20
88.7722
 30
0.00000
  70
    32
  0
VERTEX
  8
0
  5
256D
 10
54.4656
 20
88.7715
 30
0.00000
  70
    32
  0
VERTEX
  8
0
  5
256E
 10
54.4701
 20
88.7709
 30
0.00000
  70
    32
  0
VERTEX
  8
0
  5
256F
 10
54.4746
 20
88.7704
 30
0.00000
  70
    32
  0
VERTEX
  8
0
  5
2570
 10
54.4791
 20
88.7701
 30
0.00000
  70
    32
  0
VERTEX
  8
0
  5
2571
 10
54.4835
 20
88.7700
 30
0.00000
  70
    32
  0
VERTEX
  8
0
  5
2572
 10
54.4880
 20
88.7700
 30
0.00000
  70
    32
  0
VERTEX
  8
0
  5
2573
 10
54.4925
 20
88.7702
 30
0.00000
  70
    32
  0
VERTEX
  8
0
  5
2574
 10
54.4970
 20
88.7705
 30
0.00000
  70
    32
  0
VERTEX
  8
0
  5
2575
 10
54.5015
 20
88.7710
 30
0.00000
  70
    32
  0
VERTEX
  8
0
  5
2576
 10
54.5059
 20
88.7717
 30
0.00000
  70
    32
  0
VERTEX
  8
0
  5
2577
 10
54.5104
 20
88.7725
 30
0.00000
  70
    32
  0
VERTEX
  8
0
  5
2578
 10
54.5149
 20
88.7734
 30
0.00000
  70
    32
  0
VERTEX
  8
0
  5
2579
 10
54.5194
 20
88.7745
 30
0.00000
  70
    32
  0
VERTEX
  8
0
  5
257A
 10
54.5239
 20
88.7758
 30
0.00000
  70
    32
  0
VERTEX
  8
0
  5
257B
 10
54.5283
 20
88.7772
 30
0.00000
  70
    32
  0
VERTEX
  8
0
  5
257C
 10
54.5328
 20
88.7788
 30
0.00000
  70
    32
  0
VERTEX
  8
0
  5
257D
 10
54.5373
 20
88.7805
 30
0.00000
  70
    32
  0
VERTEX
  8
0
  5
257E
 10
54.5418
 20
88.7824
 30
0.00000
  70
    32
  0
VERTEX
  8
0
  5
257F
 10
54.5463
 20
88.7844
 30
0.00000
  70
    32
  0
VERTEX
  8
0
  5
2580
 10
54.5507
 20
88.7866
 30
0.00000
  70
    32
  0
VERTEX
  8
0
  5
2581
 10
54.5552
 20
88.7889
 30
0.00000
  70
    32
  0
VERTEX
  8
0
  5
2582
 10
54.5597
 20
88.7914
 30
0.00000
  70
    32
  0
VERTEX
  8
0
  5
2583
 10
54.5642
 20
88.7940
 30
0.00000
  70
    32
  0
VERTEX
  8
0
  5
2584
 10
54.5687
 20
88.7968
 30
0.00000
  70
    32
  0
VERTEX
  8
0
  5
2585
 10
54.5731
 20
88.7998
 30
0.00000
  70
    32
  0
VERTEX
  8
0
  5
2586
 10
54.5776
 20
88.8029
 30
0.00000
  70
    32
  0
VERTEX
  8
0
  5
2587
 10
54.5821
 20
88.8062
 30
0.00000
  70
    32
  0
VERTEX
  8
0
  5
2588
 10
54.5866
 20
88.8096
 30
0.00000
  70
    32
  0
VERTEX
  8
0
  5
2589
 10
54.5910
 20
88.8131
 30
0.00000
  70
    32
  0
VERTEX
  8
0
  5
258A
 10
54.5955
 20
88.8169
 30
0.00000
  70
    32
  0
VERTEX
  8
0
  5
258B
 10
54.6000
 20
88.8207
 30
0.00000
  70
    32
  0
SEQEND
  8
0
  5
258C
  0
POLYLINE
  5
22E2
  8
0
 10
78.6000000000000796
 20
88.8207486591931143
 30
0.0
 66
     1
 70
     8
  0
VERTEX
  8
0
  5
258D
 10
78.6000
 20
88.8207
 30
0.00000
  70
    32
  0
VERTEX
  8
0
  5
258E
 10
78.6045
 20
88.8169
 30
0.00000
  70
    32
  0
VERTEX
  8
0
  5
258F
 10
78.6090
 20
88.8131
 30
0.00000
  70
    32
  0
VERTEX
  8
0
  5
2590
 10
78.6134
 20
88.8096
 30
0.00000
  70
    32
  0
VERTEX
  8
0
  5
2591
 10
78.6179
 20
88.8062
 30
0.00000
  70
    32
  0
VERTEX
  8
0
  5
2592
 10
78.6224
 20
88.8029
 30
0.00000
  70
    32
  0
VERTEX
  8
0
  5
2593
 10
78.6269
 20
88.7998
 30
0.00000
  70
    32
  0
VERTEX
  8
0
  5
2594
 10
78.6313
 20
88.7968
 30
0.00000
  70
    32
  0
VERTEX
  8
0
  5
2595
 10
78.6358
 20
88.7940
 30
0.00000
  70
    32
  0
VERTEX
  8
0
  5
2596
 10
78.6403
 20
88.7914
 30
0.00000
  70
    32
  0
VERTEX
  8
0
  5
2597
 10
78.6448
 20
88.7889
 30
0.00000
  70
    32
  0
VERTEX
  8
0
  5
2598
 10
78.6493
 20
88.7866
 30
0.00000
  70
    32
  0
VERTEX
  8
0
  5
2599
 10
78.6537
 20
88.7844
 30
0.00000
  70
    32
  0
VERTEX
  8
0
  5
259A
 10
78.6582
 20
88.7824
 30
0.00000
  70
    32
  0
VERTEX
  8
0
  5
259B
 10
78.6627
 20
88.7805
 30
0.00000
  70
    32
  0
VERTEX
  8
0
  5
259C
 10
78.6672
 20
88.7788
 30
0.00000
  70
    32
  0
VERTEX
  8
0
  5
259D
 10
78.6717
 20
88.7772
 30
0.00000
  70
    32
  0
VERTEX
  8
0
  5
259E
 10
78.6761
 20
88.7758
 30
0.00000
  70
    32
  0
VERTEX
  8
0
  5
259F
 10
78.6806
 20
88.7745
 30
0.00000
  70
    32
  0
VERTEX
  8
0
  5
25A0
 10
78.6851
 20
88.7734
 30
0.00000
  70
    32
  0
VERTEX
  8
0
  5
25A1
 10
78.6896
 20
88.7725
 30
0.00000
  70
    32
  0
VERTEX
  8
0
  5
25A2
 10
78.6941
 20
88.7717
 30
0.00000
  70
    32
  0
VERTEX
  8
0
  5
25A3
 10
78.6985
 20
88.7710
 30
0.00000
  70
    32
  0
VERTEX
  8
0
  5
25A4
 10
78.7030
 20
88.7705
 30
0.00000
  70
    32
  0
VERTEX
  8
0
  5
25A5
 10
78.7075
 20
88.7702
 30
0.00000
  70
    32
  0
VERTEX
  8
0
  5
25A6
 10
78.7120
 20
88.7700
 30
0.00000
  70
    32
  0
VERTEX
  8
0
  5
25A7
 10
78.7165
 20
88.7700
 30
0.00000
  70
    32
  0
VERTEX
  8
0
  5
25A8
 10
78.7209
 20
88.7701
 30
0.00000
  70
    32
  0
VERTEX
  8
0
  5
25A9
 10
78.7254
 20
88.7704
 30
0.00000
  70
    32
  0
VERTEX
  8
0
  5
25AA
 10
78.7299
 20
88.7709
 30
0.00000
  70
    32
  0
VERTEX
  8
0
  5
25AB
 10
78.7344
 20
88.7715
 30
0.00000
  70
    32
  0
VERTEX
  8
0
  5
25AC
 10
78.7389
 20
88.7722
 30
0.00000
  70
    32
  0
VERTEX
  8
0
  5
25AD
 10
78.7433
 20
88.7731
 30
0.00000
  70
    32
  0
VERTEX
  8
0
  5
25AE
 10
78.7478
 20
88.7742
 30
0.00000
  70
    32
  0
VERTEX
  8
0
  5
25AF
 10
78.7523
 20
88.7754
 30
0.00000
  70
    32
  0
VERTEX
  8
0
  5
25B0
 10
78.7568
 20
88.7767
 30
0.00000
  70
    32
  0
VERTEX
  8
0
  5
25B1
 10
78.7613
 20
88.7782
 30
0.00000
  70
    32
  0
VERTEX
  8
0
  5
25B2
 10
78.7657
 20
88.7799
 30
0.00000
  70
    32
  0
VERTEX
  8
0
  5
25B3
 10
78.7702
 20
88.7817
 30
0.00000
  70
    32
  0
VERTEX
  8
0
  5
25B4
 10
78.7747
 20
88.7837
 30
0.00000
  70
    32
  0
VERTEX
  8
0
  5
25B5
 10
78.7792
 20
88.7859
 30
0.00000
  70
    32
  0
VERTEX
  8
0
  5
25B6
 10
78.7837
 20
88.7881
 30
0.00000
  70
    32
  0
VERTEX
  8
0
  5
25B7
 10
78.7881
 20
88.7906
 30
0.00000
  70
    32
  0
VERTEX
  8
0
  5
25B8
 10
78.7926
 20
88.7932
 30
0.00000
  70
    32
  0
VERTEX
  8
0
  5
25B9
 10
78.7971
 20
88.7959
 30
0.00000
  70
    32
  0
VERTEX
  8
0
  5
25BA
 10
78.8016
 20
88.7988
 30
0.00000
  70
    32
  0
VERTEX
  8
0
  5
25BB
 10
78.8061
 20
88.8019
 30
0.00000
  70
    32
  0
VERTEX
  8
0
  5
25BC
 10
78.8105
 20
88.8051
 30
0.00000
  70
    32
  0
VERTEX
  8
0
  5
25BD
 10
78.8150
 20
88.8085
 30
0.00000
  70
    32
  0
VERTEX
  8
0
  5
25BE
 10
78.8195
 20
88.8120
 30
0.00000
  70
    32
  0
VERTEX
  8
0
  5
25BF
 10
78.8240
 20
88.8157
 30
0.00000
  70
    32
  0
VERTEX
  8
0
  5
25C0
 10
78.8284
 20
88.8195
 30
0.00000
  70
    32
  0
VERTEX
  8
0
  5
25C1
 10
78.8329
 20
88.8235
 30
0.00000
  70
    32
  0
VERTEX
  8
0
  5
25C2
 10
78.8374
 20
88.8276
 30
0.00000
  70
    32
  0
VERTEX
  8
0
  5
25C3
 10
78.8419
 20
88.8319
 30
0.00000
  70
    32
  0
VERTEX
  8
0
  5
25C4
 10
78.8463
 20
88.8363
 30
0.00000
  70
    32
  0
VERTEX
  8
0
  5
25C5
 10
78.8508
 20
88.8409
 30
0.00000
  70
    32
  0
VERTEX
  8
0
  5
25C6
 10
78.8553
 20
88.8457
 30
0.00000
  70
    32
  0
VERTEX
  8
0
  5
25C7
 10
78.8598
 20
88.8506
 30
0.00000
  70
    32
  0
VERTEX
  8
0
  5
25C8
 10
78.8643
 20
88.8557
 30
0.00000
  70
    32
  0
VERTEX
  8
0
  5
25C9
 10
78.8687
 20
88.8609
 30
0.00000
  70
    32
  0
VERTEX
  8
0
  5
25CA
 10
78.8732
 20
88.8663
 30
0.00000
  70
    32
  0
VERTEX
  8
0
  5
25CB
 10
78.8777
 20
88.8718
 30
0.00000
  70
    32
  0
VERTEX
  8
0
  5
25CC
 10
78.8821
 20
88.8775
 30
0.00000
  70
    32
  0
VERTEX
  8
0
  5
25CD
 10
78.8866
 20
88.8833
 30
0.00000
  70
    32
  0
VERTEX
  8
0
  5
25CE
 10
78.8911
 20
88.8893
 30
0.00000
  70
    32
  0
VERTEX
  8
0
  5
25CF
 10
78.8956
 20
88.8954
 30
0.00000
  70
    32
  0
VERTEX
  8
0
  5
25D0
 10
78.9000
 20
88.9017
 30
0.00000
  70
    32
  0
VERTEX
  8
0
  5
25D1
 10
78.9045
 20
88.9081
 30
0.00000
  70
    32
  0
VERTEX
  8
0
  5
25D2
 10
78.9090
 20
88.9147
 30
0.00000
  70
    32
  0
VERTEX
  8
0
  5
25D3
 10
78.9134
 20
88.9215
 30
0.00000
  70
    32
  0
VERTEX
  8
0
  5
25D4
 10
78.9179
 20
88.9284
 30
0.00000
  70
    32
  0
VERTEX
  8
0
  5
25D5
 10
78.9224
 20
88.9355
 30
0.00000
  70
    32
  0
VERTEX
  8
0
  5
25D6
 10
78.9269
 20
88.9427
 30
0.00000
  70
    32
  0
VERTEX
  8
0
  5
25D7
 10
78.9313
 20
88.9500
 30
0.00000
  70
    32
  0
VERTEX
  8
0
  5
25D8
 10
78.9358
 20
88.9576
 30
0.00000
  70
    32
  0
VERTEX
  8
0
  5
25D9
 10
78.9403
 20
88.9652
 30
0.00000
  70
    32
  0
VERTEX
  8
0
  5
25DA
 10
78.9447
 20
88.9731
 30
0.00000
  70
    32
  0
VERTEX
  8
0
  5
25DB
 10
78.9492
 20
88.9811
 30
0.00000
  70
    32
  0
VERTEX
  8
0
  5
25DC
 10
78.9537
 20
88.9892
 30
0.00000
  70
    32
  0
VERTEX
  8
0
  5
25DD
 10
78.9581
 20
88.9975
 30
0.00000
  70
    32
  0
VERTEX
  8
0
  5
25DE
 10
78.9626
 20
89.0059
 30
0.00000
  70
    32
  0
VERTEX
  8
0
  5
25DF
 10
78.9671
 20
89.0145
 30
0.00000
  70
    32
  0
VERTEX
  8
0
  5
25E0
 10
78.9715
 20
89.0233
 30
0.00000
  70
    32
  0
VERTEX
  8
0
  5
25E1
 10
78.9760
 20
89.0322
 30
0.00000
  70
    32
  0
VERTEX
  8
0
  5
25E2
 10
78.9804
 20
89.0412
 30
0.00000
  70
    32
  0
VERTEX
  8
0
  5
25E3
 10
78.9849
 20
89.0505
 30
0.00000
  70
    32
  0
VERTEX
  8
0
  5
25E4
 10
78.9894
 20
89.0598
 30
0.00000
  70
    32
  0
VERTEX
  8
0
  5
25E5
 10
78.9938
 20
89.0693
 30
0.00000
  70
    32
  0
VERTEX
  8
0
  5
25E6
 10
78.9983
 20
89.0790
 30
0.00000
  70
    32
  0
VERTEX
  8
0
  5
25E7
 10
79.0027
 20
89.0888
 30
0.00000
  70
    32
  0
VERTEX
  8
0
  5
25E8
 10
79.0072
 20
89.0988
 30
0.00000
  70
    32
  0
VERTEX
  8
0
  5
25E9
 10
79.0117
 20
89.1090
 30
0.00000
  70
    32
  0
VERTEX
  8
0
  5
25EA
 10
79.0161
 20
89.1192
 30
0.00000
  70
    32
  0
VERTEX
  8
0
  5
25EB
 10
79.0206
 20
89.1297
 30
0.00000
  70
    32
  0
VERTEX
  8
0
  5
25EC
 10
79.0250
 20
89.1403
 30
0.00000
  70
    32
  0
VERTEX
  8
0
  5
25ED
 10
79.0295
 20
89.1510
 30
0.00000
  70
    32
  0
VERTEX
  8
0
  5
25EE
 10
79.0339
 20
89.1619
 30
0.00000
  70
    32
  0
VERTEX
  8
0
  5
25EF
 10
79.0384
 20
89.1730
 30
0.00000
  70
    32
  0
VERTEX
  8
0
  5
25F0
 10
79.0428
 20
89.1842
 30
0.00000
  70
    32
  0
VERTEX
  8
0
  5
25F1
 10
79.0473
 20
89.1955
 30
0.00000
  70
    32
  0
VERTEX
  8
0
  5
25F2
 10
79.0517
 20
89.2071
 30
0.00000
  70
    32
  0
VERTEX
  8
0
  5
25F3
 10
79.0562
 20
89.2187
 30
0.00000
  70
    32
  0
VERTEX
  8
0
  5
25F4
 10
79.0606
 20
89.2305
 30
0.00000
  70
    32
  0
VERTEX
  8
0
  5
25F5
 10
79.0651
 20
89.2425
 30
0.00000
  70
    32
  0
VERTEX
  8
0
  5
25F6
 10
79.0695
 20
89.2546
 30
0.00000
  70
    32
  0
VERTEX
  8
0
  5
25F7
 10
79.0740
 20
89.2669
 30
0.00000
  70
    32
  0
VERTEX
  8
0
  5
25F8
 10
79.0784
 20
89.2794
 30
0.00000
  70
    32
  0
VERTEX
  8
0
  5
25F9
 10
79.0829
 20
89.2919
 30
0.00000
  70
    32
  0
VERTEX
  8
0
  5
25FA
 10
79.0873
 20
89.3047
 30
0.00000
  70
    32
  0
VERTEX
  8
0
  5
25FB
 10
79.0918
 20
89.3176
 30
0.00000
  70
    32
  0
VERTEX
  8
0
  5
25FC
 10
79.0962
 20
89.3306
 30
0.00000
  70
    32
  0
VERTEX
  8
0
  5
25FD
 10
79.1006
 20
89.3438
 30
0.00000
  70
    32
  0
VERTEX
  8
0
  5
25FE
 10
79.1051
 20
89.3571
 30
0.00000
  70
    32
  0
VERTEX
  8
0
  5
25FF
 10
79.1095
 20
89.3706
 30
0.00000
  70
    32
  0
VERTEX
  8
0
  5
2600
 10
79.1140
 20
89.3843
 30
0.00000
  70
    32
  0
VERTEX
  8
0
  5
2601
 10
79.1184
 20
89.3981
 30
0.00000
  70
    32
  0
VERTEX
  8
0
  5
2602
 10
79.1228
 20
89.4121
 30
0.00000
  70
    32
  0
VERTEX
  8
0
  5
2603
 10
79.1273
 20
89.4262
 30
0.00000
  70
    32
  0
VERTEX
  8
0
  5
2604
 10
79.1317
 20
89.4404
 30
0.00000
  70
    32
  0
VERTEX
  8
0
  5
2605
 10
79.1361
 20
89.4549
 30
0.00000
  70
    32
  0
VERTEX
  8
0
  5
2606
 10
79.1406
 20
89.4694
 30
0.00000
  70
    32
  0
VERTEX
  8
0
  5
2607
 10
79.1450
 20
89.4842
 30
0.00000
  70
    32
  0
VERTEX
  8
0
  5
2608
 10
79.1494
 20
89.4990
 30
0.00000
  70
    32
  0
VERTEX
  8
0
  5
2609
 10
79.1539
 20
89.5141
 30
0.00000
  70
    32
  0
VERTEX
  8
0
  5
260A
 10
79.1583
 20
89.5292
 30
0.00000
  70
    32
  0
VERTEX
  8
0
  5
260B
 10
79.1627
 20
89.5446
 30
0.00000
  70
    32
  0
VERTEX
  8
0
  5
260C
 10
79.1671
 20
89.5601
 30
0.00000
  70
    32
  0
VERTEX
  8
0
  5
260D
 10
79.1716
 20
89.5757
 30
0.00000
  70
    32
  0
SEQEND
  8
0
  5
260E
  0
POLYLINE
  5
22E3
  8
0
 10
54.0284268190570032
 20
89.5756906461928111
 30
0.0
 66
     1
 70
     8
  0
VERTEX
  8
0
  5
260F
 10
54.0284
 20
89.5757
 30
0.00000
  70
    32
  0
VERTEX
  8
0
  5
2610
 10
54.0251
 20
89.5933
 30
0.00000
  70
    32
  0
VERTEX
  8
0
  5
2611
 10
54.0218
 20
89.6109
 30
0.00000
  70
    32
  0
VERTEX
  8
0
  5
2612
 10
54.0185
 20
89.6284
 30
0.00000
  70
    32
  0
VERTEX
  8
0
  5
2613
 10
54.0152
 20
89.6458
 30
0.00000
  70
    32
  0
VERTEX
  8
0
  5
2614
 10
54.0119
 20
89.6630
 30
0.00000
  70
    32
  0
VERTEX
  8
0
  5
2615
 10
54.0086
 20
89.6803
 30
0.00000
  70
    32
  0
VERTEX
  8
0
  5
2616
 10
54.0053
 20
89.6974
 30
0.00000
  70
    32
  0
VERTEX
  8
0
  5
2617
 10
54.0020
 20
89.7144
 30
0.00000
  70
    32
  0
VERTEX
  8
0
  5
2618
 10
53.9987
 20
89.7313
 30
0.00000
  70
    32
  0
VERTEX
  8
0
  5
2619
 10
53.9954
 20
89.7482
 30
0.00000
  70
    32
  0
VERTEX
  8
0
  5
261A
 10
53.9921
 20
89.7649
 30
0.00000
  70
    32
  0
VERTEX
  8
0
  5
261B
 10
53.9888
 20
89.7816
 30
0.00000
  70
    32
  0
VERTEX
  8
0
  5
261C
 10
53.9855
 20
89.7982
 30
0.00000
  70
    32
  0
VERTEX
  8
0
  5
261D
 10
53.9821
 20
89.8146
 30
0.00000
  70
    32
  0
VERTEX
  8
0
  5
261E
 10
53.9788
 20
89.8310
 30
0.00000
  70
    32
  0
VERTEX
  8
0
  5
261F
 10
53.9755
 20
89.8473
 30
0.00000
  70
    32
  0
VERTEX
  8
0
  5
2620
 10
53.9722
 20
89.8636
 30
0.00000
  70
    32
  0
VERTEX
  8
0
  5
2621
 10
53.9689
 20
89.8797
 30
0.00000
  70
    32
  0
VERTEX
  8
0
  5
2622
 10
53.9656
 20
89.8957
 30
0.00000
  70
    32
  0
VERTEX
  8
0
  5
2623
 10
53.9623
 20
89.9117
 30
0.00000
  70
    32
  0
VERTEX
  8
0
  5
2624
 10
53.9589
 20
89.9275
 30
0.00000
  70
    32
  0
VERTEX
  8
0
  5
2625
 10
53.9556
 20
89.9433
 30
0.00000
  70
    32
  0
VERTEX
  8
0
  5
2626
 10
53.9523
 20
89.9590
 30
0.00000
  70
    32
  0
VERTEX
  8
0
  5
2627
 10
53.9490
 20
89.9745
 30
0.00000
  70
    32
  0
VERTEX
  8
0
  5
2628
 10
53.9457
 20
89.9900
 30
0.00000
  70
    32
  0
VERTEX
  8
0
  5
2629
 10
53.9423
 20
90.0054
 30
0.00000
  70
    32
  0
VERTEX
  8
0
  5
262A
 10
53.9390
 20
90.0208
 30
0.00000
  70
    32
  0
VERTEX
  8
0
  5
262B
 10
53.9357
 20
90.0360
 30
0.00000
  70
    32
  0
VERTEX
  8
0
  5
262C
 10
53.9324
 20
90.0511
 30
0.00000
  70
    32
  0
VERTEX
  8
0
  5
262D
 10
53.9290
 20
90.0662
 30
0.00000
  70
    32
  0
VERTEX
  8
0
  5
262E
 10
53.9257
 20
90.0811
 30
0.00000
  70
    32
  0
VERTEX
  8
0
  5
262F
 10
53.9224
 20
90.0960
 30
0.00000
  70
    32
  0
VERTEX
  8
0
  5
2630
 10
53.9191
 20
90.1108
 30
0.00000
  70
    32
  0
VERTEX
  8
0
  5
2631
 10
53.9157
 20
90.1254
 30
0.00000
  70
    32
  0
VERTEX
  8
0
  5
2632
 10
53.9124
 20
90.1400
 30
0.00000
  70
    32
  0
VERTEX
  8
0
  5
2633
 10
53.9091
 20
90.1545
 30
0.00000
  70
    32
  0
VERTEX
  8
0
  5
2634
 10
53.9057
 20
90.1689
 30
0.00000
  70
    32
  0
VERTEX
  8
0
  5
2635
 10
53.9024
 20
90.1833
 30
0.00000
  70
    32
  0
VERTEX
  8
0
  5
2636
 10
53.8991
 20
90.1975
 30
0.00000
  70
    32
  0
VERTEX
  8
0
  5
2637
 10
53.8958
 20
90.2116
 30
0.00000
  70
    32
  0
VERTEX
  8
0
  5
2638
 10
53.8924
 20
90.2257
 30
0.00000
  70
    32
  0
VERTEX
  8
0
  5
2639
 10
53.8891
 20
90.2396
 30
0.00000
  70
    32
  0
VERTEX
  8
0
  5
263A
 10
53.8857
 20
90.2535
 30
0.00000
  70
    32
  0
VERTEX
  8
0
  5
263B
 10
53.8824
 20
90.2673
 30
0.00000
  70
    32
  0
VERTEX
  8
0
  5
263C
 10
53.8791
 20
90.2810
 30
0.00000
  70
    32
  0
VERTEX
  8
0
  5
263D
 10
53.8757
 20
90.2946
 30
0.00000
  70
    32
  0
VERTEX
  8
0
  5
263E
 10
53.8724
 20
90.3081
 30
0.00000
  70
    32
  0
VERTEX
  8
0
  5
263F
 10
53.8691
 20
90.3215
 30
0.00000
  70
    32
  0
VERTEX
  8
0
  5
2640
 10
53.8657
 20
90.3348
 30
0.00000
  70
    32
  0
VERTEX
  8
0
  5
2641
 10
53.8624
 20
90.3481
 30
0.00000
  70
    32
  0
VERTEX
  8
0
  5
2642
 10
53.8590
 20
90.3612
 30
0.00000
  70
    32
  0
VERTEX
  8
0
  5
2643
 10
53.8557
 20
90.3743
 30
0.00000
  70
    32
  0
VERTEX
  8
0
  5
2644
 10
53.8524
 20
90.3872
 30
0.00000
  70
    32
  0
VERTEX
  8
0
  5
2645
 10
53.8490
 20
90.4001
 30
0.00000
  70
    32
  0
VERTEX
  8
0
  5
2646
 10
53.8457
 20
90.4129
 30
0.00000
  70
    32
  0
VERTEX
  8
0
  5
2647
 10
53.8423
 20
90.4256
 30
0.00000
  70
    32
  0
VERTEX
  8
0
  5
2648
 10
53.8390
 20
90.4382
 30
0.00000
  70
    32
  0
VERTEX
  8
0
  5
2649
 10
53.8356
 20
90.4507
 30
0.00000
  70
    32
  0
VERTEX
  8
0
  5
264A
 10
53.8323
 20
90.4631
 30
0.00000
  70
    32
  0
VERTEX
  8
0
  5
264B
 10
53.8289
 20
90.4754
 30
0.00000
  70
    32
  0
VERTEX
  8
0
  5
264C
 10
53.8256
 20
90.4876
 30
0.00000
  70
    32
  0
VERTEX
  8
0
  5
264D
 10
53.8222
 20
90.4998
 30
0.00000
  70
    32
  0
VERTEX
  8
0
  5
264E
 10
53.8189
 20
90.5118
 30
0.00000
  70
    32
  0
VERTEX
  8
0
  5
264F
 10
53.8155
 20
90.5238
 30
0.00000
  70
    32
  0
VERTEX
  8
0
  5
2650
 10
53.8122
 20
90.5357
 30
0.00000
  70
    32
  0
VERTEX
  8
0
  5
2651
 10
53.8088
 20
90.5475
 30
0.00000
  70
    32
  0
VERTEX
  8
0
  5
2652
 10
53.8055
 20
90.5592
 30
0.00000
  70
    32
  0
VERTEX
  8
0
  5
2653
 10
53.8021
 20
90.5708
 30
0.00000
  70
    32
  0
VERTEX
  8
0
  5
2654
 10
53.7988
 20
90.5823
 30
0.00000
  70
    32
  0
VERTEX
  8
0
  5
2655
 10
53.7954
 20
90.5937
 30
0.00000
  70
    32
  0
VERTEX
  8
0
  5
2656
 10
53.7921
 20
90.6050
 30
0.00000
  70
    32
  0
VERTEX
  8
0
  5
2657
 10
53.7887
 20
90.6162
 30
0.00000
  70
    32
  0
VERTEX
  8
0
  5
2658
 10
53.7854
 20
90.6274
 30
0.00000
  70
    32
  0
VERTEX
  8
0
  5
2659
 10
53.7820
 20
90.6384
 30
0.00000
  70
    32
  0
VERTEX
  8
0
  5
265A
 10
53.7786
 20
90.6494
 30
0.00000
  70
    32
  0
VERTEX
  8
0
  5
265B
 10
53.7753
 20
90.6603
 30
0.00000
  70
    32
  0
VERTEX
  8
0
  5
265C
 10
53.7719
 20
90.6711
 30
0.00000
  70
    32
  0
VERTEX
  8
0
  5
265D
 10
53.7686
 20
90.6817
 30
0.00000
  70
    32
  0
VERTEX
  8
0
  5
265E
 10
53.7652
 20
90.6923
 30
0.00000
  70
    32
  0
VERTEX
  8
0
  5
265F
 10
53.7619
 20
90.7029
 30
0.00000
  70
    32
  0
VERTEX
  8
0
  5
2660
 10
53.7585
 20
90.7133
 30
0.00000
  70
    32
  0
VERTEX
  8
0
  5
2661
 10
53.7551
 20
90.7236
 30
0.00000
  70
    32
  0
VERTEX
  8
0
  5
2662
 10
53.7518
 20
90.7338
 30
0.00000
  70
    32
  0
VERTEX
  8
0
  5
2663
 10
53.7484
 20
90.7440
 30
0.00000
  70
    32
  0
VERTEX
  8
0
  5
2664
 10
53.7450
 20
90.7540
 30
0.00000
  70
    32
  0
VERTEX
  8
0
  5
2665
 10
53.7417
 20
90.7640
 30
0.00000
  70
    32
  0
VERTEX
  8
0
  5
2666
 10
53.7383
 20
90.7738
 30
0.00000
  70
    32
  0
VERTEX
  8
0
  5
2667
 10
53.7350
 20
90.7836
 30
0.00000
  70
    32
  0
VERTEX
  8
0
  5
2668
 10
53.7316
 20
90.7933
 30
0.00000
  70
    32
  0
VERTEX
  8
0
  5
2669
 10
53.7282
 20
90.8029
 30
0.00000
  70
    32
  0
VERTEX
  8
0
  5
266A
 10
53.7249
 20
90.8124
 30
0.00000
  70
    32
  0
VERTEX
  8
0
  5
266B
 10
53.7215
 20
90.8218
 30
0.00000
  70
    32
  0
VERTEX
  8
0
  5
266C
 10
53.7181
 20
90.8311
 30
0.00000
  70
    32
  0
VERTEX
  8
0
  5
266D
 10
53.7148
 20
90.8404
 30
0.00000
  70
    32
  0
VERTEX
  8
0
  5
266E
 10
53.7114
 20
90.8495
 30
0.00000
  70
    32
  0
VERTEX
  8
0
  5
266F
 10
53.7080
 20
90.8585
 30
0.00000
  70
    32
  0
VERTEX
  8
0
  5
2670
 10
53.7047
 20
90.8675
 30
0.00000
  70
    32
  0
VERTEX
  8
0
  5
2671
 10
53.7013
 20
90.8764
 30
0.00000
  70
    32
  0
VERTEX
  8
0
  5
2672
 10
53.6979
 20
90.8851
 30
0.00000
  70
    32
  0
VERTEX
  8
0
  5
2673
 10
53.6945
 20
90.8938
 30
0.00000
  70
    32
  0
VERTEX
  8
0
  5
2674
 10
53.6912
 20
90.9024
 30
0.00000
  70
    32
  0
VERTEX
  8
0
  5
2675
 10
53.6878
 20
90.9109
 30
0.00000
  70
    32
  0
VERTEX
  8
0
  5
2676
 10
53.6844
 20
90.9193
 30
0.00000
  70
    32
  0
VERTEX
  8
0
  5
2677
 10
53.6811
 20
90.9276
 30
0.00000
  70
    32
  0
VERTEX
  8
0
  5
2678
 10
53.6777
 20
90.9358
 30
0.00000
  70
    32
  0
VERTEX
  8
0
  5
2679
 10
53.6743
 20
90.9440
 30
0.00000
  70
    32
  0
VERTEX
  8
0
  5
267A
 10
53.6709
 20
90.9520
 30
0.00000
  70
    32
  0
VERTEX
  8
0
  5
267B
 10
53.6676
 20
90.9600
 30
0.00000
  70
    32
  0
VERTEX
  8
0
  5
267C
 10
53.6642
 20
90.9678
 30
0.00000
  70
    32
  0
VERTEX
  8
0
  5
267D
 10
53.6608
 20
90.9756
 30
0.00000
  70
    32
  0
VERTEX
  8
0
  5
267E
 10
53.6574
 20
90.9833
 30
0.00000
  70
    32
  0
VERTEX
  8
0
  5
267F
 10
53.6541
 20
90.9908
 30
0.00000
  70
    32
  0
VERTEX
  8
0
  5
2680
 10
53.6507
 20
90.9983
 30
0.00000
  70
    32
  0
VERTEX
  8
0
  5
2681
 10
53.6473
 20
91.0057
 30
0.00000
  70
    32
  0
VERTEX
  8
0
  5
2682
 10
53.6439
 20
91.0130
 30
0.00000
  70
    32
  0
VERTEX
  8
0
  5
2683
 10
53.6406
 20
91.0202
 30
0.00000
  70
    32
  0
VERTEX
  8
0
  5
2684
 10
53.6372
 20
91.0274
 30
0.00000
  70
    32
  0
VERTEX
  8
0
  5
2685
 10
53.6338
 20
91.0344
 30
0.00000
  70
    32
  0
VERTEX
  8
0
  5
2686
 10
53.6304
 20
91.0413
 30
0.00000
  70
    32
  0
VERTEX
  8
0
  5
2687
 10
53.6270
 20
91.0482
 30
0.00000
  70
    32
  0
VERTEX
  8
0
  5
2688
 10
53.6237
 20
91.0550
 30
0.00000
  70
    32
  0
VERTEX
  8
0
  5
2689
 10
53.6203
 20
91.0616
 30
0.00000
  70
    32
  0
VERTEX
  8
0
  5
268A
 10
53.6169
 20
91.0682
 30
0.00000
  70
    32
  0
VERTEX
  8
0
  5
268B
 10
53.6135
 20
91.0747
 30
0.00000
  70
    32
  0
VERTEX
  8
0
  5
268C
 10
53.6101
 20
91.0811
 30
0.00000
  70
    32
  0
VERTEX
  8
0
  5
268D
 10
53.6068
 20
91.0874
 30
0.00000
  70
    32
  0
VERTEX
  8
0
  5
268E
 10
53.6034
 20
91.0936
 30
0.00000
  70
    32
  0
VERTEX
  8
0
  5
268F
 10
53.6000
 20
91.0997
 30
0.00000
  70
    32
  0
SEQEND
  8
0
  5
2690
  0
POLYLINE
  5
22E4
  8
0
 10
53.7614801075524582
 20
99.3953245424282841
 30
0.0
 66
     1
 70
     8
  0
VERTEX
  8
0
  5
2691
 10
53.7615
 20
99.3953
 30
0.00000
  70
    32
  0
VERTEX
  8
0
  5
2692
 10
53.7602
 20
99.4048
 30
0.00000
  70
    32
  0
VERTEX
  8
0
  5
2693
 10
53.7590
 20
99.4142
 30
0.00000
  70
    32
  0
VERTEX
  8
0
  5
2694
 10
53.7577
 20
99.4236
 30
0.00000
  70
    32
  0
VERTEX
  8
0
  5
2695
 10
53.7565
 20
99.4331
 30
0.00000
  70
    32
  0
VERTEX
  8
0
  5
2696
 10
53.7553
 20
99.4424
 30
0.00000
  70
    32
  0
VERTEX
  8
0
  5
2697
 10
53.7540
 20
99.4518
 30
0.00000
  70
    32
  0
VERTEX
  8
0
  5
2698
 10
53.7528
 20
99.4612
 30
0.00000
  70
    32
  0
VERTEX
  8
0
  5
2699
 10
53.7515
 20
99.4705
 30
0.00000
  70
    32
  0
VERTEX
  8
0
  5
269A
 10
53.7503
 20
99.4798
 30
0.00000
  70
    32
  0
VERTEX
  8
0
  5
269B
 10
53.7490
 20
99.4891
 30
0.00000
  70
    32
  0
VERTEX
  8
0
  5
269C
 10
53.7478
 20
99.4984
 30
0.00000
  70
    32
  0
VERTEX
  8
0
  5
269D
 10
53.7465
 20
99.5076
 30
0.00000
  70
    32
  0
VERTEX
  8
0
  5
269E
 10
53.7453
 20
99.5169
 30
0.00000
  70
    32
  0
VERTEX
  8
0
  5
269F
 10
53.7440
 20
99.5261
 30
0.00000
  70
    32
  0
VERTEX
  8
0
  5
26A0
 10
53.7428
 20
99.5353
 30
0.00000
  70
    32
  0
VERTEX
  8
0
  5
26A1
 10
53.7415
 20
99.5445
 30
0.00000
  70
    32
  0
VERTEX
  8
0
  5
26A2
 10
53.7403
 20
99.5537
 30
0.00000
  70
    32
  0
VERTEX
  8
0
  5
26A3
 10
53.7390
 20
99.5628
 30
0.00000
  70
    32
  0
VERTEX
  8
0
  5
26A4
 10
53.7378
 20
99.5719
 30
0.00000
  70
    32
  0
VERTEX
  8
0
  5
26A5
 10
53.7365
 20
99.5810
 30
0.00000
  70
    32
  0
VERTEX
  8
0
  5
26A6
 10
53.7353
 20
99.5901
 30
0.00000
  70
    32
  0
VERTEX
  8
0
  5
26A7
 10
53.7340
 20
99.5992
 30
0.00000
  70
    32
  0
VERTEX
  8
0
  5
26A8
 10
53.7328
 20
99.6083
 30
0.00000
  70
    32
  0
VERTEX
  8
0
  5
26A9
 10
53.7315
 20
99.6173
 30
0.00000
  70
    32
  0
VERTEX
  8
0
  5
26AA
 10
53.7303
 20
99.6263
 30
0.00000
  70
    32
  0
VERTEX
  8
0
  5
26AB
 10
53.7290
 20
99.6353
 30
0.00000
  70
    32
  0
VERTEX
  8
0
  5
26AC
 10
53.7278
 20
99.6443
 30
0.00000
  70
    32
  0
VERTEX
  8
0
  5
26AD
 10
53.7265
 20
99.6533
 30
0.00000
  70
    32
  0
VERTEX
  8
0
  5
26AE
 10
53.7253
 20
99.6622
 30
0.00000
  70
    32
  0
VERTEX
  8
0
  5
26AF
 10
53.7240
 20
99.6712
 30
0.00000
  70
    32
  0
VERTEX
  8
0
  5
26B0
 10
53.7227
 20
99.6801
 30
0.00000
  70
    32
  0
VERTEX
  8
0
  5
26B1
 10
53.7215
 20
99.6890
 30
0.00000
  70
    32
  0
VERTEX
  8
0
  5
26B2
 10
53.7202
 20
99.6978
 30
0.00000
  70
    32
  0
VERTEX
  8
0
  5
26B3
 10
53.7190
 20
99.7067
 30
0.00000
  70
    32
  0
VERTEX
  8
0
  5
26B4
 10
53.7177
 20
99.7155
 30
0.00000
  70
    32
  0
VERTEX
  8
0
  5
26B5
 10
53.7165
 20
99.7244
 30
0.00000
  70
    32
  0
VERTEX
  8
0
  5
26B6
 10
53.7152
 20
99.7332
 30
0.00000
  70
    32
  0
VERTEX
  8
0
  5
26B7
 10
53.7140
 20
99.7419
 30
0.00000
  70
    32
  0
VERTEX
  8
0
  5
26B8
 10
53.7127
 20
99.7507
 30
0.00000
  70
    32
  0
VERTEX
  8
0
  5
26B9
 10
53.7115
 20
99.7595
 30
0.00000
  70
    32
  0
VERTEX
  8
0
  5
26BA
 10
53.7102
 20
99.7682
 30
0.00000
  70
    32
  0
VERTEX
  8
0
  5
26BB
 10
53.7089
 20
99.7769
 30
0.00000
  70
    32
  0
VERTEX
  8
0
  5
26BC
 10
53.7077
 20
99.7856
 30
0.00000
  70
    32
  0
VERTEX
  8
0
  5
26BD
 10
53.7064
 20
99.7943
 30
0.00000
  70
    32
  0
VERTEX
  8
0
  5
26BE
 10
53.7052
 20
99.8029
 30
0.00000
  70
    32
  0
VERTEX
  8
0
  5
26BF
 10
53.7039
 20
99.8115
 30
0.00000
  70
    32
  0
VERTEX
  8
0
  5
26C0
 10
53.7027
 20
99.8202
 30
0.00000
  70
    32
  0
VERTEX
  8
0
  5
26C1
 10
53.7014
 20
99.8288
 30
0.00000
  70
    32
  0
VERTEX
  8
0
  5
26C2
 10
53.7001
 20
99.8373
 30
0.00000
  70
    32
  0
VERTEX
  8
0
  5
26C3
 10
53.6989
 20
99.8459
 30
0.00000
  70
    32
  0
VERTEX
  8
0
  5
26C4
 10
53.6976
 20
99.8544
 30
0.00000
  70
    32
  0
VERTEX
  8
0
  5
26C5
 10
53.6964
 20
99.8630
 30
0.00000
  70
    32
  0
VERTEX
  8
0
  5
26C6
 10
53.6951
 20
99.8715
 30
0.00000
  70
    32
  0
VERTEX
  8
0
  5
26C7
 10
53.6938
 20
99.8800
 30
0.00000
  70
    32
  0
VERTEX
  8
0
  5
26C8
 10
53.6926
 20
99.8884
 30
0.00000
  70
    32
  0
VERTEX
  8
0
  5
26C9
 10
53.6913
 20
99.8969
 30
0.00000
  70
    32
  0
VERTEX
  8
0
  5
26CA
 10
53.6901
 20
99.9053
 30
0.00000
  70
    32
  0
VERTEX
  8
0
  5
26CB
 10
53.6888
 20
99.9137
 30
0.00000
  70
    32
  0
VERTEX
  8
0
  5
26CC
 10
53.6875
 20
99.9221
 30
0.00000
  70
    32
  0
VERTEX
  8
0
  5
26CD
 10
53.6863
 20
99.9305
 30
0.00000
  70
    32
  0
VERTEX
  8
0
  5
26CE
 10
53.6850
 20
99.9389
 30
0.00000
  70
    32
  0
VERTEX
  8
0
  5
26CF
 10
53.6838
 20
99.9472
 30
0.00000
  70
    32
  0
VERTEX
  8
0
  5
26D0
 10
53.6825
 20
99.9555
 30
0.00000
  70
    32
  0
VERTEX
  8
0
  5
26D1
 10
53.6812
 20
99.9638
 30
0.00000
  70
    32
  0
VERTEX
  8
0
  5
26D2
 10
53.6800
 20
99.9721
 30
0.00000
  70
    32
  0
VERTEX
  8
0
  5
26D3
 10
53.6787
 20
99.9804
 30
0.00000
  70
    32
  0
VERTEX
  8
0
  5
26D4
 10
53.6774
 20
99.9886
 30
0.00000
  70
    32
  0
VERTEX
  8
0
  5
26D5
 10
53.6762
 20
99.9969
 30
0.00000
  70
    32
  0
VERTEX
  8
0
  5
26D6
 10
53.6749
 20
100.005
 30
0.00000
  70
    32
  0
VERTEX
  8
0
  5
26D7
 10
53.6737
 20
100.013
 30
0.00000
  70
    32
  0
VERTEX
  8
0
  5
26D8
 10
53.6724
 20
100.021
 30
0.00000
  70
    32
  0
VERTEX
  8
0
  5
26D9
 10
53.6711
 20
100.030
 30
0.00000
  70
    32
  0
VERTEX
  8
0
  5
26DA
 10
53.6699
 20
100.038
 30
0.00000
  70
    32
  0
VERTEX
  8
0
  5
26DB
 10
53.6686
 20
100.046
 30
0.00000
  70
    32
  0
VERTEX
  8
0
  5
26DC
 10
53.6673
 20
100.054
 30
0.00000
  70
    32
  0
VERTEX
  8
0
  5
26DD
 10
53.6661
 20
100.062
 30
0.00000
  70
    32
  0
VERTEX
  8
0
  5
26DE
 10
53.6648
 20
100.070
 30
0.00000
  70
    32
  0
VERTEX
  8
0
  5
26DF
 10
53.6635
 20
100.078
 30
0.00000
  70
    32
  0
VERTEX
  8
0
  5
26E0
 10
53.6623
 20
100.086
 30
0.00000
  70
    32
  0
VERTEX
  8
0
  5
26E1
 10
53.6610
 20
100.094
 30
0.00000
  70
    32
  0
VERTEX
  8
0
  5
26E2
 10
53.6597
 20
100.102
 30
0.00000
  70
    32
  0
VERTEX
  8
0
  5
26E3
 10
53.6585
 20
100.110
 30
0.00000
  70
    32
  0
VERTEX
  8
0
  5
26E4
 10
53.6572
 20
100.118
 30
0.00000
  70
    32
  0
VERTEX
  8
0
  5
26E5
 10
53.6560
 20
100.126
 30
0.00000
  70
    32
  0
VERTEX
  8
0
  5
26E6
 10
53.6547
 20
100.134
 30
0.00000
  70
    32
  0
VERTEX
  8
0
  5
26E7
 10
53.6534
 20
100.142
 30
0.00000
  70
    32
  0
VERTEX
  8
0
  5
26E8
 10
53.6521
 20
100.150
 30
0.00000
  70
    32
  0
VERTEX
  8
0
  5
26E9
 10
53.6509
 20
100.158
 30
0.00000
  70
    32
  0
VERTEX
  8
0
  5
26EA
 10
53.6496
 20
100.165
 30
0.00000
  70
    32
  0
VERTEX
  8
0
  5
26EB
 10
53.6483
 20
100.173
 30
0.00000
  70
    32
  0
VERTEX
  8
0
  5
26EC
 10
53.6471
 20
100.181
 30
0.00000
  70
    32
  0
VERTEX
  8
0
  5
26ED
 10
53.6458
 20
100.189
 30
0.00000
  70
    32
  0
VERTEX
  8
0
  5
26EE
 10
53.6445
 20
100.197
 30
0.00000
  70
    32
  0
VERTEX
  8
0
  5
26EF
 10
53.6433
 20
100.204
 30
0.00000
  70
    32
  0
VERTEX
  8
0
  5
26F0
 10
53.6420
 20
100.212
 30
0.00000
  70
    32
  0
VERTEX
  8
0
  5
26F1
 10
53.6407
 20
100.220
 30
0.00000
  70
    32
  0
VERTEX
  8
0
  5
26F2
 10
53.6395
 20
100.228
 30
0.00000
  70
    32
  0
VERTEX
  8
0
  5
26F3
 10
53.6382
 20
100.235
 30
0.00000
  70
    32
  0
VERTEX
  8
0
  5
26F4
 10
53.6369
 20
100.243
 30
0.00000
  70
    32
  0
VERTEX
  8
0
  5
26F5
 10
53.6357
 20
100.250
 30
0.00000
  70
    32
  0
VERTEX
  8
0
  5
26F6
 10
53.6344
 20
100.258
 30
0.00000
  70
    32
  0
VERTEX
  8
0
  5
26F7
 10
53.6331
 20
100.266
 30
0.00000
  70
    32
  0
VERTEX
  8
0
  5
26F8
 10
53.6318
 20
100.273
 30
0.00000
  70
    32
  0
VERTEX
  8
0
  5
26F9
 10
53.6306
 20
100.281
 30
0.00000
  70
    32
  0
VERTEX
  8
0
  5
26FA
 10
53.6293
 20
100.288
 30
0.00000
  70
    32
  0
VERTEX
  8
0
  5
26FB
 10
53.6280
 20
100.296
 30
0.00000
  70
    32
  0
VERTEX
  8
0
  5
26FC
 10
53.6268
 20
100.303
 30
0.00000
  70
    32
  0
VERTEX
  8
0
  5
26FD
 10
53.6255
 20
100.311
 30
0.00000
  70
    32
  0
VERTEX
  8
0
  5
26FE
 10
53.6242
 20
100.318
 30
0.00000
  70
    32
  0
VERTEX
  8
0
  5
26FF
 10
53.6229
 20
100.326
 30
0.00000
  70
    32
  0
VERTEX
  8
0
  5
2700
 10
53.6217
 20
100.333
 30
0.00000
  70
    32
  0
VERTEX
  8
0
  5
2701
 10
53.6204
 20
100.341
 30
0.00000
  70
    32
  0
VERTEX
  8
0
  5
2702
 10
53.6191
 20
100.348
 30
0.00000
  70
    32
  0
VERTEX
  8
0
  5
2703
 10
53.6178
 20
100.355
 30
0.00000
  70
    32
  0
VERTEX
  8
0
  5
2704
 10
53.6166
 20
100.363
 30
0.00000
  70
    32
  0
VERTEX
  8
0
  5
2705
 10
53.6153
 20
100.370
 30
0.00000
  70
    32
  0
VERTEX
  8
0
  5
2706
 10
53.6140
 20
100.377
 30
0.00000
  70
    32
  0
VERTEX
  8
0
  5
2707
 10
53.6128
 20
100.385
 30
0.00000
  70
    32
  0
VERTEX
  8
0
  5
2708
 10
53.6115
 20
100.392
 30
0.00000
  70
    32
  0
VERTEX
  8
0
  5
2709
 10
53.6102
 20
100.399
 30
0.00000
  70
    32
  0
VERTEX
  8
0
  5
270A
 10
53.6089
 20
100.407
 30
0.00000
  70
    32
  0
VERTEX
  8
0
  5
270B
 10
53.6077
 20
100.414
 30
0.00000
  70
    32
  0
VERTEX
  8
0
  5
270C
 10
53.6064
 20
100.421
 30
0.00000
  70
    32
  0
VERTEX
  8
0
  5
270D
 10
53.6051
 20
100.428
 30
0.00000
  70
    32
  0
VERTEX
  8
0
  5
270E
 10
53.6038
 20
100.435
 30
0.00000
  70
    32
  0
VERTEX
  8
0
  5
270F
 10
53.6026
 20
100.443
 30
0.00000
  70
    32
  0
VERTEX
  8
0
  5
2710
 10
53.6013
 20
100.450
 30
0.00000
  70
    32
  0
VERTEX
  8
0
  5
2711
 10
53.6000
 20
100.457
 30
0.00000
  70
    32
  0
SEQEND
  8
0
  5
2712
  0
POLYLINE
  5
22E5
  8
0
 10
79.6000000000000512
 20
100.4568040067123746
 30
0.0
 66
     1
 70
     8
  0
VERTEX
  8
0
  5
2713
 10
79.6000
 20
100.457
 30
0.00000
  70
    32
  0
VERTEX
  8
0
  5
2714
 10
79.5987
 20
100.450
 30
0.00000
  70
    32
  0
VERTEX
  8
0
  5
2715
 10
79.5974
 20
100.443
 30
0.00000
  70
    32
  0
VERTEX
  8
0
  5
2716
 10
79.5962
 20
100.435
 30
0.00000
  70
    32
  0
VERTEX
  8
0
  5
2717
 10
79.5949
 20
100.428
 30
0.00000
  70
    32
  0
VERTEX
  8
0
  5
2718
 10
79.5936
 20
100.421
 30
0.00000
  70
    32
  0
VERTEX
  8
0
  5
2719
 10
79.5923
 20
100.414
 30
0.00000
  70
    32
  0
VERTEX
  8
0
  5
271A
 10
79.5911
 20
100.407
 30
0.00000
  70
    32
  0
VERTEX
  8
0
  5
271B
 10
79.5898
 20
100.399
 30
0.00000
  70
    32
  0
VERTEX
  8
0
  5
271C
 10
79.5885
 20
100.392
 30
0.00000
  70
    32
  0
VERTEX
  8
0
  5
271D
 10
79.5872
 20
100.385
 30
0.00000
  70
    32
  0
VERTEX
  8
0
  5
271E
 10
79.5860
 20
100.377
 30
0.00000
  70
    32
  0
VERTEX
  8
0
  5
271F
 10
79.5847
 20
100.370
 30
0.00000
  70
    32
  0
VERTEX
  8
0
  5
2720
 10
79.5834
 20
100.363
 30
0.00000
  70
    32
  0
VERTEX
  8
0
  5
2721
 10
79.5822
 20
100.355
 30
0.00000
  70
    32
  0
VERTEX
  8
0
  5
2722
 10
79.5809
 20
100.348
 30
0.00000
  70
    32
  0
VERTEX
  8
0
  5
2723
 10
79.5796
 20
100.341
 30
0.00000
  70
    32
  0
VERTEX
  8
0
  5
2724
 10
79.5783
 20
100.333
 30
0.00000
  70
    32
  0
VERTEX
  8
0
  5
2725
 10
79.5771
 20
100.326
 30
0.00000
  70
    32
  0
VERTEX
  8
0
  5
2726
 10
79.5758
 20
100.318
 30
0.00000
  70
    32
  0
VERTEX
  8
0
  5
2727
 10
79.5745
 20
100.311
 30
0.00000
  70
    32
  0
VERTEX
  8
0
  5
2728
 10
79.5732
 20
100.303
 30
0.00000
  70
    32
  0
VERTEX
  8
0
  5
2729
 10
79.5720
 20
100.296
 30
0.00000
  70
    32
  0
VERTEX
  8
0
  5
272A
 10
79.5707
 20
100.288
 30
0.00000
  70
    32
  0
VERTEX
  8
0
  5
272B
 10
79.5694
 20
100.281
 30
0.00000
  70
    32
  0
VERTEX
  8
0
  5
272C
 10
79.5682
 20
100.273
 30
0.00000
  70
    32
  0
VERTEX
  8
0
  5
272D
 10
79.5669
 20
100.266
 30
0.00000
  70
    32
  0
VERTEX
  8
0
  5
272E
 10
79.5656
 20
100.258
 30
0.00000
  70
    32
  0
VERTEX
  8
0
  5
272F
 10
79.5643
 20
100.250
 30
0.00000
  70
    32
  0
VERTEX
  8
0
  5
2730
 10
79.5631
 20
100.243
 30
0.00000
  70
    32
  0
VERTEX
  8
0
  5
2731
 10
79.5618
 20
100.235
 30
0.00000
  70
    32
  0
VERTEX
  8
0
  5
2732
 10
79.5605
 20
100.228
 30
0.00000
  70
    32
  0
VERTEX
  8
0
  5
2733
 10
79.5593
 20
100.220
 30
0.00000
  70
    32
  0
VERTEX
  8
0
  5
2734
 10
79.5580
 20
100.212
 30
0.00000
  70
    32
  0
VERTEX
  8
0
  5
2735
 10
79.5567
 20
100.204
 30
0.00000
  70
    32
  0
VERTEX
  8
0
  5
2736
 10
79.5555
 20
100.197
 30
0.00000
  70
    32
  0
VERTEX
  8
0
  5
2737
 10
79.5542
 20
100.189
 30
0.00000
  70
    32
  0
VERTEX
  8
0
  5
2738
 10
79.5529
 20
100.181
 30
0.00000
  70
    32
  0
VERTEX
  8
0
  5
2739
 10
79.5517
 20
100.173
 30
0.00000
  70
    32
  0
VERTEX
  8
0
  5
273A
 10
79.5504
 20
100.165
 30
0.00000
  70
    32
  0
VERTEX
  8
0
  5
273B
 10
79.5491
 20
100.158
 30
0.00000
  70
    32
  0
VERTEX
  8
0
  5
273C
 10
79.5479
 20
100.150
 30
0.00000
  70
    32
  0
VERTEX
  8
0
  5
273D
 10
79.5466
 20
100.142
 30
0.00000
  70
    32
  0
VERTEX
  8
0
  5
273E
 10
79.5453
 20
100.134
 30
0.00000
  70
    32
  0
VERTEX
  8
0
  5
273F
 10
79.5440
 20
100.126
 30
0.00000
  70
    32
  0
VERTEX
  8
0
  5
2740
 10
79.5428
 20
100.118
 30
0.00000
  70
    32
  0
VERTEX
  8
0
  5
2741
 10
79.5415
 20
100.110
 30
0.00000
  70
    32
  0
VERTEX
  8
0
  5
2742
 10
79.5403
 20
100.102
 30
0.00000
  70
    32
  0
VERTEX
  8
0
  5
2743
 10
79.5390
 20
100.094
 30
0.00000
  70
    32
  0
VERTEX
  8
0
  5
2744
 10
79.5377
 20
100.086
 30
0.00000
  70
    32
  0
VERTEX
  8
0
  5
2745
 10
79.5365
 20
100.078
 30
0.00000
  70
    32
  0
VERTEX
  8
0
  5
2746
 10
79.5352
 20
100.070
 30
0.00000
  70
    32
  0
VERTEX
  8
0
  5
2747
 10
79.5339
 20
100.062
 30
0.00000
  70
    32
  0
VERTEX
  8
0
  5
2748
 10
79.5327
 20
100.054
 30
0.00000
  70
    32
  0
VERTEX
  8
0
  5
2749
 10
79.5314
 20
100.046
 30
0.00000
  70
    32
  0
VERTEX
  8
0
  5
274A
 10
79.5301
 20
100.038
 30
0.00000
  70
    32
  0
VERTEX
  8
0
  5
274B
 10
79.5289
 20
100.030
 30
0.00000
  70
    32
  0
VERTEX
  8
0
  5
274C
 10
79.5276
 20
100.021
 30
0.00000
  70
    32
  0
VERTEX
  8
0
  5
274D
 10
79.5263
 20
100.013
 30
0.00000
  70
    32
  0
VERTEX
  8
0
  5
274E
 10
79.5251
 20
100.005
 30
0.00000
  70
    32
  0
VERTEX
  8
0
  5
274F
 10
79.5238
 20
99.9969
 30
0.00000
  70
    32
  0
VERTEX
  8
0
  5
2750
 10
79.5226
 20
99.9886
 30
0.00000
  70
    32
  0
VERTEX
  8
0
  5
2751
 10
79.5213
 20
99.9804
 30
0.00000
  70
    32
  0
VERTEX
  8
0
  5
2752
 10
79.5200
 20
99.9721
 30
0.00000
  70
    32
  0
VERTEX
  8
0
  5
2753
 10
79.5188
 20
99.9638
 30
0.00000
  70
    32
  0
VERTEX
  8
0
  5
2754
 10
79.5175
 20
99.9555
 30
0.00000
  70
    32
  0
VERTEX
  8
0
  5
2755
 10
79.5162
 20
99.9472
 30
0.00000
  70
    32
  0
VERTEX
  8
0
  5
2756
 10
79.5150
 20
99.9389
 30
0.00000
  70
    32
  0
VERTEX
  8
0
  5
2757
 10
79.5137
 20
99.9305
 30
0.00000
  70
    32
  0
VERTEX
  8
0
  5
2758
 10
79.5125
 20
99.9221
 30
0.00000
  70
    32
  0
VERTEX
  8
0
  5
2759
 10
79.5112
 20
99.9137
 30
0.00000
  70
    32
  0
VERTEX
  8
0
  5
275A
 10
79.5099
 20
99.9053
 30
0.00000
  70
    32
  0
VERTEX
  8
0
  5
275B
 10
79.5087
 20
99.8969
 30
0.00000
  70
    32
  0
VERTEX
  8
0
  5
275C
 10
79.5074
 20
99.8884
 30
0.00000
  70
    32
  0
VERTEX
  8
0
  5
275D
 10
79.5062
 20
99.8800
 30
0.00000
  70
    32
  0
VERTEX
  8
0
  5
275E
 10
79.5049
 20
99.8715
 30
0.00000
  70
    32
  0
VERTEX
  8
0
  5
275F
 10
79.5036
 20
99.8630
 30
0.00000
  70
    32
  0
VERTEX
  8
0
  5
2760
 10
79.5024
 20
99.8544
 30
0.00000
  70
    32
  0
VERTEX
  8
0
  5
2761
 10
79.5011
 20
99.8459
 30
0.00000
  70
    32
  0
VERTEX
  8
0
  5
2762
 10
79.4999
 20
99.8373
 30
0.00000
  70
    32
  0
VERTEX
  8
0
  5
2763
 10
79.4986
 20
99.8288
 30
0.00000
  70
    32
  0
VERTEX
  8
0
  5
2764
 10
79.4973
 20
99.8202
 30
0.00000
  70
    32
  0
VERTEX
  8
0
  5
2765
 10
79.4961
 20
99.8115
 30
0.00000
  70
    32
  0
VERTEX
  8
0
  5
2766
 10
79.4948
 20
99.8029
 30
0.00000
  70
    32
  0
VERTEX
  8
0
  5
2767
 10
79.4936
 20
99.7943
 30
0.00000
  70
    32
  0
VERTEX
  8
0
  5
2768
 10
79.4923
 20
99.7856
 30
0.00000
  70
    32
  0
VERTEX
  8
0
  5
2769
 10
79.4911
 20
99.7769
 30
0.00000
  70
    32
  0
VERTEX
  8
0
  5
276A
 10
79.4898
 20
99.7682
 30
0.00000
  70
    32
  0
VERTEX
  8
0
  5
276B
 10
79.4885
 20
99.7595
 30
0.00000
  70
    32
  0
VERTEX
  8
0
  5
276C
 10
79.4873
 20
99.7507
 30
0.00000
  70
    32
  0
VERTEX
  8
0
  5
276D
 10
79.4860
 20
99.7419
 30
0.00000
  70
    32
  0
VERTEX
  8
0
  5
276E
 10
79.4848
 20
99.7332
 30
0.00000
  70
    32
  0
VERTEX
  8
0
  5
276F
 10
79.4835
 20
99.7244
 30
0.00000
  70
    32
  0
VERTEX
  8
0
  5
2770
 10
79.4823
 20
99.7155
 30
0.00000
  70
    32
  0
VERTEX
  8
0
  5
2771
 10
79.4810
 20
99.7067
 30
0.00000
  70
    32
  0
VERTEX
  8
0
  5
2772
 10
79.4798
 20
99.6978
 30
0.00000
  70
    32
  0
VERTEX
  8
0
  5
2773
 10
79.4785
 20
99.6890
 30
0.00000
  70
    32
  0
VERTEX
  8
0
  5
2774
 10
79.4773
 20
99.6801
 30
0.00000
  70
    32
  0
VERTEX
  8
0
  5
2775
 10
79.4760
 20
99.6712
 30
0.00000
  70
    32
  0
VERTEX
  8
0
  5
2776
 10
79.4747
 20
99.6622
 30
0.00000
  70
    32
  0
VERTEX
  8
0
  5
2777
 10
79.4735
 20
99.6533
 30
0.00000
  70
    32
  0
VERTEX
  8
0
  5
2778
 10
79.4722
 20
99.6443
 30
0.00000
  70
    32
  0
VERTEX
  8
0
  5
2779
 10
79.4710
 20
99.6353
 30
0.00000
  70
    32
  0
VERTEX
  8
0
  5
277A
 10
79.4697
 20
99.6263
 30
0.00000
  70
    32
  0
VERTEX
  8
0
  5
277B
 10
79.4685
 20
99.6173
 30
0.00000
  70
    32
  0
VERTEX
  8
0
  5
277C
 10
79.4672
 20
99.6083
 30
0.00000
  70
    32
  0
VERTEX
  8
0
  5
277D
 10
79.4660
 20
99.5992
 30
0.00000
  70
    32
  0
VERTEX
  8
0
  5
277E
 10
79.4647
 20
99.5901
 30
0.00000
  70
    32
  0
VERTEX
  8
0
  5
277F
 10
79.4635
 20
99.5810
 30
0.00000
  70
    32
  0
VERTEX
  8
0
  5
2780
 10
79.4622
 20
99.5719
 30
0.00000
  70
    32
  0
VERTEX
  8
0
  5
2781
 10
79.4610
 20
99.5628
 30
0.00000
  70
    32
  0
VERTEX
  8
0
  5
2782
 10
79.4597
 20
99.5537
 30
0.00000
  70
    32
  0
VERTEX
  8
0
  5
2783
 10
79.4585
 20
99.5445
 30
0.00000
  70
    32
  0
VERTEX
  8
0
  5
2784
 10
79.4572
 20
99.5353
 30
0.00000
  70
    32
  0
VERTEX
  8
0
  5
2785
 10
79.4560
 20
99.5261
 30
0.00000
  70
    32
  0
VERTEX
  8
0
  5
2786
 10
79.4547
 20
99.5169
 30
0.00000
  70
    32
  0
VERTEX
  8
0
  5
2787
 10
79.4535
 20
99.5076
 30
0.00000
  70
    32
  0
VERTEX
  8
0
  5
2788
 10
79.4522
 20
99.4984
 30
0.00000
  70
    32
  0
VERTEX
  8
0
  5
2789
 10
79.4510
 20
99.4891
 30
0.00000
  70
    32
  0
VERTEX
  8
0
  5
278A
 10
79.4497
 20
99.4798
 30
0.00000
  70
    32
  0
VERTEX
  8
0
  5
278B
 10
79.4485
 20
99.4705
 30
0.00000
  70
    32
  0
VERTEX
  8
0
  5
278C
 10
79.4472
 20
99.4612
 30
0.00000
  70
    32
  0
VERTEX
  8
0
  5
278D
 10
79.4460
 20
99.4518
 30
0.00000
  70
    32
  0
VERTEX
  8
0
  5
278E
 10
79.4447
 20
99.4424
 30
0.00000
  70
    32
  0
VERTEX
  8
0
  5
278F
 10
79.4435
 20
99.4331
 30
0.00000
  70
    32
  0
VERTEX
  8
0
  5
2790
 10
79.4423
 20
99.4236
 30
0.00000
  70
    32
  0
VERTEX
  8
0
  5
2791
 10
79.4410
 20
99.4142
 30
0.00000
  70
    32
  0
VERTEX
  8
0
  5
2792
 10
79.4398
 20
99.4048
 30
0.00000
  70
    32
  0
VERTEX
  8
0
  5
2793
 10
79.4385
 20
99.3953
 30
0.00000
  70
    32
  0
SEQEND
  8
0
  5
2794
  0
POLYLINE
  5
22E6
  8
0
 10
79.6000000000000796
 20
91.0996789718896451
 30
0.0
 66
     1
 70
     8
  0
VERTEX
  8
0
  5
2795
 10
79.6000
 20
91.0997
 30
0.00000
  70
    32
  0
VERTEX
  8
0
  5
2796
 10
79.5966
 20
91.0936
 30
0.00000
  70
    32
  0
VERTEX
  8
0
  5
2797
 10
79.5932
 20
91.0874
 30
0.00000
  70
    32
  0
VERTEX
  8
0
  5
2798
 10
79.5899
 20
91.0811
 30
0.00000
  70
    32
  0
VERTEX
  8
0
  5
2799
 10
79.5865
 20
91.0747
 30
0.00000
  70
    32
  0
VERTEX
  8
0
  5
279A
 10
79.5831
 20
91.0682
 30
0.00000
  70
    32
  0
VERTEX
  8
0
  5
279B
 10
79.5797
 20
91.0616
 30
0.00000
  70
    32
  0
VERTEX
  8
0
  5
279C
 10
79.5763
 20
91.0550
 30
0.00000
  70
    32
  0
VERTEX
  8
0
  5
279D
 10
79.5730
 20
91.0482
 30
0.00000
  70
    32
  0
VERTEX
  8
0
  5
279E
 10
79.5696
 20
91.0413
 30
0.00000
  70
    32
  0
VERTEX
  8
0
  5
279F
 10
79.5662
 20
91.0344
 30
0.00000
  70
    32
  0
VERTEX
  8
0
  5
27A0
 10
79.5628
 20
91.0274
 30
0.00000
  70
    32
  0
VERTEX
  8
0
  5
27A1
 10
79.5594
 20
91.0202
 30
0.00000
  70
    32
  0
VERTEX
  8
0
  5
27A2
 10
79.5561
 20
91.0130
 30
0.00000
  70
    32
  0
VERTEX
  8
0
  5
27A3
 10
79.5527
 20
91.0057
 30
0.00000
  70
    32
  0
VERTEX
  8
0
  5
27A4
 10
79.5493
 20
90.9983
 30
0.00000
  70
    32
  0
VERTEX
  8
0
  5
27A5
 10
79.5459
 20
90.9908
 30
0.00000
  70
    32
  0
VERTEX
  8
0
  5
27A6
 10
79.5426
 20
90.9833
 30
0.00000
  70
    32
  0
VERTEX
  8
0
  5
27A7
 10
79.5392
 20
90.9756
 30
0.00000
  70
    32
  0
VERTEX
  8
0
  5
27A8
 10
79.5358
 20
90.9678
 30
0.00000
  70
    32
  0
VERTEX
  8
0
  5
27A9
 10
79.5324
 20
90.9600
 30
0.00000
  70
    32
  0
VERTEX
  8
0
  5
27AA
 10
79.5291
 20
90.9520
 30
0.00000
  70
    32
  0
VERTEX
  8
0
  5
27AB
 10
79.5257
 20
90.9440
 30
0.00000
  70
    32
  0
VERTEX
  8
0
  5
27AC
 10
79.5223
 20
90.9358
 30
0.00000
  70
    32
  0
VERTEX
  8
0
  5
27AD
 10
79.5189
 20
90.9276
 30
0.00000
  70
    32
  0
VERTEX
  8
0
  5
27AE
 10
79.5156
 20
90.9193
 30
0.00000
  70
    32
  0
VERTEX
  8
0
  5
27AF
 10
79.5122
 20
90.9109
 30
0.00000
  70
    32
  0
VERTEX
  8
0
  5
27B0
 10
79.5088
 20
90.9024
 30
0.00000
  70
    32
  0
VERTEX
  8
0
  5
27B1
 10
79.5055
 20
90.8938
 30
0.00000
  70
    32
  0
VERTEX
  8
0
  5
27B2
 10
79.5021
 20
90.8851
 30
0.00000
  70
    32
  0
VERTEX
  8
0
  5
27B3
 10
79.4987
 20
90.8764
 30
0.00000
  70
    32
  0
VERTEX
  8
0
  5
27B4
 10
79.4953
 20
90.8675
 30
0.00000
  70
    32
  0
VERTEX
  8
0
  5
27B5
 10
79.4920
 20
90.8585
 30
0.00000
  70
    32
  0
VERTEX
  8
0
  5
27B6
 10
79.4886
 20
90.8495
 30
0.00000
  70
    32
  0
VERTEX
  8
0
  5
27B7
 10
79.4852
 20
90.8404
 30
0.00000
  70
    32
  0
VERTEX
  8
0
  5
27B8
 10
79.4819
 20
90.8311
 30
0.00000
  70
    32
  0
VERTEX
  8
0
  5
27B9
 10
79.4785
 20
90.8218
 30
0.00000
  70
    32
  0
VERTEX
  8
0
  5
27BA
 10
79.4751
 20
90.8124
 30
0.00000
  70
    32
  0
VERTEX
  8
0
  5
27BB
 10
79.4718
 20
90.8029
 30
0.00000
  70
    32
  0
VERTEX
  8
0
  5
27BC
 10
79.4684
 20
90.7933
 30
0.00000
  70
    32
  0
VERTEX
  8
0
  5
27BD
 10
79.4650
 20
90.7836
 30
0.00000
  70
    32
  0
VERTEX
  8
0
  5
27BE
 10
79.4617
 20
90.7738
 30
0.00000
  70
    32
  0
VERTEX
  8
0
  5
27BF
 10
79.4583
 20
90.7640
 30
0.00000
  70
    32
  0
VERTEX
  8
0
  5
27C0
 10
79.4550
 20
90.7540
 30
0.00000
  70
    32
  0
VERTEX
  8
0
  5
27C1
 10
79.4516
 20
90.7440
 30
0.00000
  70
    32
  0
VERTEX
  8
0
  5
27C2
 10
79.4482
 20
90.7338
 30
0.00000
  70
    32
  0
VERTEX
  8
0
  5
27C3
 10
79.4449
 20
90.7236
 30
0.00000
  70
    32
  0
VERTEX
  8
0
  5
27C4
 10
79.4415
 20
90.7133
 30
0.00000
  70
    32
  0
VERTEX
  8
0
  5
27C5
 10
79.4381
 20
90.7029
 30
0.00000
  70
    32
  0
VERTEX
  8
0
  5
27C6
 10
79.4348
 20
90.6923
 30
0.00000
  70
    32
  0
VERTEX
  8
0
  5
27C7
 10
79.4314
 20
90.6817
 30
0.00000
  70
    32
  0
VERTEX
  8
0
  5
27C8
 10
79.4281
 20
90.6711
 30
0.00000
  70
    32
  0
VERTEX
  8
0
  5
27C9
 10
79.4247
 20
90.6603
 30
0.00000
  70
    32
  0
VERTEX
  8
0
  5
27CA
 10
79.4214
 20
90.6494
 30
0.00000
  70
    32
  0
VERTEX
  8
0
  5
27CB
 10
79.4180
 20
90.6384
 30
0.00000
  70
    32
  0
VERTEX
  8
0
  5
27CC
 10
79.4146
 20
90.6274
 30
0.00000
  70
    32
  0
VERTEX
  8
0
  5
27CD
 10
79.4113
 20
90.6162
 30
0.00000
  70
    32
  0
VERTEX
  8
0
  5
27CE
 10
79.4079
 20
90.6050
 30
0.00000
  70
    32
  0
VERTEX
  8
0
  5
27CF
 10
79.4046
 20
90.5937
 30
0.00000
  70
    32
  0
VERTEX
  8
0
  5
27D0
 10
79.4012
 20
90.5823
 30
0.00000
  70
    32
  0
VERTEX
  8
0
  5
27D1
 10
79.3979
 20
90.5708
 30
0.00000
  70
    32
  0
VERTEX
  8
0
  5
27D2
 10
79.3945
 20
90.5592
 30
0.00000
  70
    32
  0
VERTEX
  8
0
  5
27D3
 10
79.3912
 20
90.5475
 30
0.00000
  70
    32
  0
VERTEX
  8
0
  5
27D4
 10
79.3878
 20
90.5357
 30
0.00000
  70
    32
  0
VERTEX
  8
0
  5
27D5
 10
79.3845
 20
90.5238
 30
0.00000
  70
    32
  0
VERTEX
  8
0
  5
27D6
 10
79.3811
 20
90.5118
 30
0.00000
  70
    32
  0
VERTEX
  8
0
  5
27D7
 10
79.3778
 20
90.4998
 30
0.00000
  70
    32
  0
VERTEX
  8
0
  5
27D8
 10
79.3744
 20
90.4876
 30
0.00000
  70
    32
  0
VERTEX
  8
0
  5
27D9
 10
79.3711
 20
90.4754
 30
0.00000
  70
    32
  0
VERTEX
  8
0
  5
27DA
 10
79.3677
 20
90.4631
 30
0.00000
  70
    32
  0
VERTEX
  8
0
  5
27DB
 10
79.3644
 20
90.4507
 30
0.00000
  70
    32
  0
VERTEX
  8
0
  5
27DC
 10
79.3610
 20
90.4382
 30
0.00000
  70
    32
  0
VERTEX
  8
0
  5
27DD
 10
79.3577
 20
90.4256
 30
0.00000
  70
    32
  0
VERTEX
  8
0
  5
27DE
 10
79.3543
 20
90.4129
 30
0.00000
  70
    32
  0
VERTEX
  8
0
  5
27DF
 10
79.3510
 20
90.4001
 30
0.00000
  70
    32
  0
VERTEX
  8
0
  5
27E0
 10
79.3476
 20
90.3872
 30
0.00000
  70
    32
  0
VERTEX
  8
0
  5
27E1
 10
79.3443
 20
90.3743
 30
0.00000
  70
    32
  0
VERTEX
  8
0
  5
27E2
 10
79.3410
 20
90.3612
 30
0.00000
  70
    32
  0
VERTEX
  8
0
  5
27E3
 10
79.3376
 20
90.3481
 30
0.00000
  70
    32
  0
VERTEX
  8
0
  5
27E4
 10
79.3343
 20
90.3348
 30
0.00000
  70
    32
  0
VERTEX
  8
0
  5
27E5
 10
79.3309
 20
90.3215
 30
0.00000
  70
    32
  0
VERTEX
  8
0
  5
27E6
 10
79.3276
 20
90.3081
 30
0.00000
  70
    32
  0
VERTEX
  8
0
  5
27E7
 10
79.3243
 20
90.2946
 30
0.00000
  70
    32
  0
VERTEX
  8
0
  5
27E8
 10
79.3209
 20
90.2810
 30
0.00000
  70
    32
  0
VERTEX
  8
0
  5
27E9
 10
79.3176
 20
90.2673
 30
0.00000
  70
    32
  0
VERTEX
  8
0
  5
27EA
 10
79.3143
 20
90.2535
 30
0.00000
  70
    32
  0
VERTEX
  8
0
  5
27EB
 10
79.3109
 20
90.2396
 30
0.00000
  70
    32
  0
VERTEX
  8
0
  5
27EC
 10
79.3076
 20
90.2257
 30
0.00000
  70
    32
  0
VERTEX
  8
0
  5
27ED
 10
79.3042
 20
90.2116
 30
0.00000
  70
    32
  0
VERTEX
  8
0
  5
27EE
 10
79.3009
 20
90.1975
 30
0.00000
  70
    32
  0
VERTEX
  8
0
  5
27EF
 10
79.2976
 20
90.1833
 30
0.00000
  70
    32
  0
VERTEX
  8
0
  5
27F0
 10
79.2943
 20
90.1689
 30
0.00000
  70
    32
  0
VERTEX
  8
0
  5
27F1
 10
79.2909
 20
90.1545
 30
0.00000
  70
    32
  0
VERTEX
  8
0
  5
27F2
 10
79.2876
 20
90.1400
 30
0.00000
  70
    32
  0
VERTEX
  8
0
  5
27F3
 10
79.2843
 20
90.1254
 30
0.00000
  70
    32
  0
VERTEX
  8
0
  5
27F4
 10
79.2809
 20
90.1108
 30
0.00000
  70
    32
  0
VERTEX
  8
0
  5
27F5
 10
79.2776
 20
90.0960
 30
0.00000
  70
    32
  0
VERTEX
  8
0
  5
27F6
 10
79.2743
 20
90.0811
 30
0.00000
  70
    32
  0
VERTEX
  8
0
  5
27F7
 10
79.2710
 20
90.0662
 30
0.00000
  70
    32
  0
VERTEX
  8
0
  5
27F8
 10
79.2676
 20
90.0511
 30
0.00000
  70
    32
  0
VERTEX
  8
0
  5
27F9
 10
79.2643
 20
90.0360
 30
0.00000
  70
    32
  0
VERTEX
  8
0
  5
27FA
 10
79.2610
 20
90.0208
 30
0.00000
  70
    32
  0
VERTEX
  8
0
  5
27FB
 10
79.2577
 20
90.0054
 30
0.00000
  70
    32
  0
VERTEX
  8
0
  5
27FC
 10
79.2543
 20
89.9900
 30
0.00000
  70
    32
  0
VERTEX
  8
0
  5
27FD
 10
79.2510
 20
89.9745
 30
0.00000
  70
    32
  0
VERTEX
  8
0
  5
27FE
 10
79.2477
 20
89.9590
 30
0.00000
  70
    32
  0
VERTEX
  8
0
  5
27FF
 10
79.2444
 20
89.9433
 30
0.00000
  70
    32
  0
VERTEX
  8
0
  5
2800
 10
79.2411
 20
89.9275
 30
0.00000
  70
    32
  0
VERTEX
  8
0
  5
2801
 10
79.2377
 20
89.9117
 30
0.00000
  70
    32
  0
VERTEX
  8
0
  5
2802
 10
79.2344
 20
89.8957
 30
0.00000
  70
    32
  0
VERTEX
  8
0
  5
2803
 10
79.2311
 20
89.8797
 30
0.00000
  70
    32
  0
VERTEX
  8
0
  5
2804
 10
79.2278
 20
89.8636
 30
0.00000
  70
    32
  0
VERTEX
  8
0
  5
2805
 10
79.2245
 20
89.8473
 30
0.00000
  70
    32
  0
VERTEX
  8
0
  5
2806
 10
79.2212
 20
89.8310
 30
0.00000
  70
    32
  0
VERTEX
  8
0
  5
2807
 10
79.2179
 20
89.8146
 30
0.00000
  70
    32
  0
VERTEX
  8
0
  5
2808
 10
79.2145
 20
89.7982
 30
0.00000
  70
    32
  0
VERTEX
  8
0
  5
2809
 10
79.2112
 20
89.7816
 30
0.00000
  70
    32
  0
VERTEX
  8
0
  5
280A
 10
79.2079
 20
89.7649
 30
0.00000
  70
    32
  0
VERTEX
  8
0
  5
280B
 10
79.2046
 20
89.7482
 30
0.00000
  70
    32
  0
VERTEX
  8
0
  5
280C
 10
79.2013
 20
89.7313
 30
0.00000
  70
    32
  0
VERTEX
  8
0
  5
280D
 10
79.1980
 20
89.7144
 30
0.00000
  70
    32
  0
VERTEX
  8
0
  5
280E
 10
79.1947
 20
89.6974
 30
0.00000
  70
    32
  0
VERTEX
  8
0
  5
280F
 10
79.1914
 20
89.6803
 30
0.00000
  70
    32
  0
VERTEX
  8
0
  5
2810
 10
79.1881
 20
89.6630
 30
0.00000
  70
    32
  0
VERTEX
  8
0
  5
2811
 10
79.1848
 20
89.6458
 30
0.00000
  70
    32
  0
VERTEX
  8
0
  5
2812
 10
79.1815
 20
89.6284
 30
0.00000
  70
    32
  0
VERTEX
  8
0
  5
2813
 10
79.1782
 20
89.6109
 30
0.00000
  70
    32
  0
VERTEX
  8
0
  5
2814
 10
79.1749
 20
89.5933
 30
0.00000
  70
    32
  0
VERTEX
  8
0
  5
2815
 10
79.1716
 20
89.5757
 30
0.00000
  70
    32
  0
SEQEND
  8
0
  5
2816
  0
POLYLINE
  5
22E7
  8
0
 10
83.1999999999993349
 20
87.7273603685268881
 30
0.0
 66
     1
 70
     8
  0
VERTEX
  8
0
  5
2817
 10
83.2000
 20
87.7274
 30
0.00000
  70
    32
  0
VERTEX
  8
0
  5
2818
 10
83.1730
 20
87.7954
 30
0.00000
  70
    32
  0
VERTEX
  8
0
  5
2819
 10
83.1461
 20
87.8627
 30
0.00000
  70
    32
  0
VERTEX
  8
0
  5
281A
 10
83.1190
 20
87.9295
 30
0.00000
  70
    32
  0
VERTEX
  8
0
  5
281B
 10
83.0920
 20
87.9955
 30
0.00000
  70
    32
  0
VERTEX
  8
0
  5
281C
 10
83.0649
 20
88.0610
 30
0.00000
  70
    32
  0
VERTEX
  8
0
  5
281D
 10
83.0378
 20
88.1258
 30
0.00000
  70
    32
  0
VERTEX
  8
0
  5
281E
 10
83.0107
 20
88.1900
 30
0.00000
  70
    32
  0
VERTEX
  8
0
  5
281F
 10
82.9835
 20
88.2535
 30
0.00000
  70
    32
  0
VERTEX
  8
0
  5
2820
 10
82.9563
 20
88.3164
 30
0.00000
  70
    32
  0
VERTEX
  8
0
  5
2821
 10
82.9291
 20
88.3787
 30
0.00000
  70
    32
  0
VERTEX
  8
0
  5
2822
 10
82.9018
 20
88.4403
 30
0.00000
  70
    32
  0
VERTEX
  8
0
  5
2823
 10
82.8746
 20
88.5013
 30
0.00000
  70
    32
  0
VERTEX
  8
0
  5
2824
 10
82.8472
 20
88.5616
 30
0.00000
  70
    32
  0
VERTEX
  8
0
  5
2825
 10
82.8199
 20
88.6213
 30
0.00000
  70
    32
  0
VERTEX
  8
0
  5
2826
 10
82.7926
 20
88.6804
 30
0.00000
  70
    32
  0
VERTEX
  8
0
  5
2827
 10
82.7652
 20
88.7388
 30
0.00000
  70
    32
  0
VERTEX
  8
0
  5
2828
 10
82.7377
 20
88.7965
 30
0.00000
  70
    32
  0
VERTEX
  8
0
  5
2829
 10
82.7103
 20
88.8537
 30
0.00000
  70
    32
  0
VERTEX
  8
0
  5
282A
 10
82.6828
 20
88.9101
 30
0.00000
  70
    32
  0
VERTEX
  8
0
  5
282B
 10
82.6553
 20
88.9660
 30
0.00000
  70
    32
  0
VERTEX
  8
0
  5
282C
 10
82.6278
 20
89.0211
 30
0.00000
  70
    32
  0
VERTEX
  8
0
  5
282D
 10
82.6003
 20
89.0757
 30
0.00000
  70
    32
  0
VERTEX
  8
0
  5
282E
 10
82.5727
 20
89.1295
 30
0.00000
  70
    32
  0
VERTEX
  8
0
  5
282F
 10
82.5451
 20
89.1828
 30
0.00000
  70
    32
  0
VERTEX
  8
0
  5
2830
 10
82.5175
 20
89.2353
 30
0.00000
  70
    32
  0
VERTEX
  8
0
  5
2831
 10
82.4899
 20
89.2873
 30
0.00000
  70
    32
  0
VERTEX
  8
0
  5
2832
 10
82.4622
 20
89.3386
 30
0.00000
  70
    32
  0
VERTEX
  8
0
  5
2833
 10
82.4345
 20
89.3892
 30
0.00000
  70
    32
  0
VERTEX
  8
0
  5
2834
 10
82.4068
 20
89.4392
 30
0.00000
  70
    32
  0
VERTEX
  8
0
  5
2835
 10
82.3791
 20
89.4885
 30
0.00000
  70
    32
  0
VERTEX
  8
0
  5
2836
 10
82.3513
 20
89.5372
 30
0.00000
  70
    32
  0
VERTEX
  8
0
  5
2837
 10
82.3235
 20
89.5852
 30
0.00000
  70
    32
  0
VERTEX
  8
0
  5
2838
 10
82.2957
 20
89.6325
 30
0.00000
  70
    32
  0
VERTEX
  8
0
  5
2839
 10
82.2679
 20
89.6793
 30
0.00000
  70
    32
  0
VERTEX
  8
0
  5
283A
 10
82.2401
 20
89.7253
 30
0.00000
  70
    32
  0
VERTEX
  8
0
  5
283B
 10
82.2122
 20
89.7707
 30
0.00000
  70
    32
  0
VERTEX
  8
0
  5
283C
 10
82.1843
 20
89.8154
 30
0.00000
  70
    32
  0
VERTEX
  8
0
  5
283D
 10
82.1564
 20
89.8595
 30
0.00000
  70
    32
  0
VERTEX
  8
0
  5
283E
 10
82.1285
 20
89.9030
 30
0.00000
  70
    32
  0
VERTEX
  8
0
  5
283F
 10
82.1005
 20
89.9457
 30
0.00000
  70
    32
  0
VERTEX
  8
0
  5
2840
 10
82.0726
 20
89.9878
 30
0.00000
  70
    32
  0
VERTEX
  8
0
  5
2841
 10
82.0446
 20
90.0293
 30
0.00000
  70
    32
  0
VERTEX
  8
0
  5
2842
 10
82.0166
 20
90.0701
 30
0.00000
  70
    32
  0
VERTEX
  8
0
  5
2843
 10
81.9886
 20
90.1102
 30
0.00000
  70
    32
  0
VERTEX
  8
0
  5
2844
 10
81.9605
 20
90.1497
 30
0.00000
  70
    32
  0
VERTEX
  8
0
  5
2845
 10
81.9325
 20
90.1885
 30
0.00000
  70
    32
  0
VERTEX
  8
0
  5
2846
 10
81.9044
 20
90.2267
 30
0.00000
  70
    32
  0
VERTEX
  8
0
  5
2847
 10
81.8763
 20
90.2642
 30
0.00000
  70
    32
  0
VERTEX
  8
0
  5
2848
 10
81.8482
 20
90.3010
 30
0.00000
  70
    32
  0
VERTEX
  8
0
  5
2849
 10
81.8201
 20
90.3372
 30
0.00000
  70
    32
  0
VERTEX
  8
0
  5
284A
 10
81.7919
 20
90.3727
 30
0.00000
  70
    32
  0
VERTEX
  8
0
  5
284B
 10
81.7638
 20
90.4076
 30
0.00000
  70
    32
  0
VERTEX
  8
0
  5
284C
 10
81.7356
 20
90.4418
 30
0.00000
  70
    32
  0
VERTEX
  8
0
  5
284D
 10
81.7074
 20
90.4753
 30
0.00000
  70
    32
  0
VERTEX
  8
0
  5
284E
 10
81.6792
 20
90.5081
 30
0.00000
  70
    32
  0
VERTEX
  8
0
  5
284F
 10
81.6510
 20
90.5403
 30
0.00000
  70
    32
  0
VERTEX
  8
0
  5
2850
 10
81.6228
 20
90.5719
 30
0.00000
  70
    32
  0
VERTEX
  8
0
  5
2851
 10
81.5945
 20
90.6027
 30
0.00000
  70
    32
  0
VERTEX
  8
0
  5
2852
 10
81.5663
 20
90.6329
 30
0.00000
  70
    32
  0
VERTEX
  8
0
  5
2853
 10
81.5380
 20
90.6625
 30
0.00000
  70
    32
  0
VERTEX
  8
0
  5
2854
 10
81.5097
 20
90.6914
 30
0.00000
  70
    32
  0
VERTEX
  8
0
  5
2855
 10
81.4814
 20
90.7196
 30
0.00000
  70
    32
  0
VERTEX
  8
0
  5
2856
 10
81.4531
 20
90.7471
 30
0.00000
  70
    32
  0
VERTEX
  8
0
  5
2857
 10
81.4248
 20
90.7740
 30
0.00000
  70
    32
  0
VERTEX
  8
0
  5
2858
 10
81.3964
 20
90.8002
 30
0.00000
  70
    32
  0
VERTEX
  8
0
  5
2859
 10
81.3681
 20
90.8257
 30
0.00000
  70
    32
  0
VERTEX
  8
0
  5
285A
 10
81.3397
 20
90.8506
 30
0.00000
  70
    32
  0
VERTEX
  8
0
  5
285B
 10
81.3113
 20
90.8748
 30
0.00000
  70
    32
  0
VERTEX
  8
0
  5
285C
 10
81.2830
 20
90.8983
 30
0.00000
  70
    32
  0
VERTEX
  8
0
  5
285D
 10
81.2546
 20
90.9212
 30
0.00000
  70
    32
  0
VERTEX
  8
0
  5
285E
 10
81.2262
 20
90.9434
 30
0.00000
  70
    32
  0
VERTEX
  8
0
  5
285F
 10
81.1977
 20
90.9649
 30
0.00000
  70
    32
  0
VERTEX
  8
0
  5
2860
 10
81.1693
 20
90.9858
 30
0.00000
  70
    32
  0
VERTEX
  8
0
  5
2861
 10
81.1409
 20
91.0060
 30
0.00000
  70
    32
  0
VERTEX
  8
0
  5
2862
 10
81.1124
 20
91.0255
 30
0.00000
  70
    32
  0
VERTEX
  8
0
  5
2863
 10
81.0840
 20
91.0444
 30
0.00000
  70
    32
  0
VERTEX
  8
0
  5
2864
 10
81.0555
 20
91.0626
 30
0.00000
  70
    32
  0
VERTEX
  8
0
  5
2865
 10
81.0271
 20
91.0801
 30
0.00000
  70
    32
  0
VERTEX
  8
0
  5
2866
 10
80.9986
 20
91.0969
 30
0.00000
  70
    32
  0
VERTEX
  8
0
  5
2867
 10
80.9701
 20
91.1131
 30
0.00000
  70
    32
  0
VERTEX
  8
0
  5
2868
 10
80.9416
 20
91.1286
 30
0.00000
  70
    32
  0
VERTEX
  8
0
  5
2869
 10
80.9131
 20
91.1435
 30
0.00000
  70
    32
  0
VERTEX
  8
0
  5
286A
 10
80.8846
 20
91.1576
 30
0.00000
  70
    32
  0
VERTEX
  8
0
  5
286B
 10
80.8561
 20
91.1711
 30
0.00000
  70
    32
  0
VERTEX
  8
0
  5
286C
 10
80.8276
 20
91.1839
 30
0.00000
  70
    32
  0
VERTEX
  8
0
  5
286D
 10
80.7990
 20
91.1961
 30
0.00000
  70
    32
  0
VERTEX
  8
0
  5
286E
 10
80.7705
 20
91.2076
 30
0.00000
  70
    32
  0
VERTEX
  8
0
  5
286F
 10
80.7420
 20
91.2184
 30
0.00000
  70
    32
  0
VERTEX
  8
0
  5
2870
 10
80.7134
 20
91.2285
 30
0.00000
  70
    32
  0
VERTEX
  8
0
  5
2871
 10
80.6849
 20
91.2380
 30
0.00000
  70
    32
  0
VERTEX
  8
0
  5
2872
 10
80.6564
 20
91.2468
 30
0.00000
  70
    32
  0
VERTEX
  8
0
  5
2873
 10
80.6278
 20
91.2549
 30
0.00000
  70
    32
  0
VERTEX
  8
0
  5
2874
 10
80.5993
 20
91.2623
 30
0.00000
  70
    32
  0
VERTEX
  8
0
  5
2875
 10
80.5707
 20
91.2691
 30
0.00000
  70
    32
  0
VERTEX
  8
0
  5
2876
 10
80.5421
 20
91.2752
 30
0.00000
  70
    32
  0
VERTEX
  8
0
  5
2877
 10
80.5136
 20
91.2807
 30
0.00000
  70
    32
  0
VERTEX
  8
0
  5
2878
 10
80.4850
 20
91.2854
 30
0.00000
  70
    32
  0
VERTEX
  8
0
  5
2879
 10
80.4564
 20
91.2895
 30
0.00000
  70
    32
  0
VERTEX
  8
0
  5
287A
 10
80.4279
 20
91.2929
 30
0.00000
  70
    32
  0
VERTEX
  8
0
  5
287B
 10
80.3993
 20
91.2957
 30
0.00000
  70
    32
  0
VERTEX
  8
0
  5
287C
 10
80.3707
 20
91.2978
 30
0.00000
  70
    32
  0
VERTEX
  8
0
  5
287D
 10
80.3422
 20
91.2992
 30
0.00000
  70
    32
  0
VERTEX
  8
0
  5
287E
 10
80.3136
 20
91.2999
 30
0.00000
  70
    32
  0
VERTEX
  8
0
  5
287F
 10
80.2850
 20
91.2999
 30
0.00000
  70
    32
  0
VERTEX
  8
0
  5
2880
 10
80.2564
 20
91.2993
 30
0.00000
  70
    32
  0
VERTEX
  8
0
  5
2881
 10
80.2279
 20
91.2980
 30
0.00000
  70
    32
  0
VERTEX
  8
0
  5
2882
 10
80.1993
 20
91.2961
 30
0.00000
  70
    32
  0
VERTEX
  8
0
  5
2883
 10
80.1707
 20
91.2934
 30
0.00000
  70
    32
  0
VERTEX
  8
0
  5
2884
 10
80.1422
 20
91.2901
 30
0.00000
  70
    32
  0
VERTEX
  8
0
  5
2885
 10
80.1136
 20
91.2862
 30
0.00000
  70
    32
  0
VERTEX
  8
0
  5
2886
 10
80.0850
 20
91.2815
 30
0.00000
  70
    32
  0
VERTEX
  8
0
  5
2887
 10
80.0565
 20
91.2762
 30
0.00000
  70
    32
  0
VERTEX
  8
0
  5
2888
 10
80.0279
 20
91.2702
 30
0.00000
  70
    32
  0
VERTEX
  8
0
  5
2889
 10
79.9993
 20
91.2635
 30
0.00000
  70
    32
  0
VERTEX
  8
0
  5
288A
 10
79.9708
 20
91.2562
 30
0.00000
  70
    32
  0
VERTEX
  8
0
  5
288B
 10
79.9422
 20
91.2482
 30
0.00000
  70
    32
  0
VERTEX
  8
0
  5
288C
 10
79.9137
 20
91.2395
 30
0.00000
  70
    32
  0
VERTEX
  8
0
  5
288D
 10
79.8851
 20
91.2301
 30
0.00000
  70
    32
  0
VERTEX
  8
0
  5
288E
 10
79.8566
 20
91.2201
 30
0.00000
  70
    32
  0
VERTEX
  8
0
  5
288F
 10
79.8281
 20
91.2094
 30
0.00000
  70
    32
  0
VERTEX
  8
0
  5
2890
 10
79.7995
 20
91.1980
 30
0.00000
  70
    32
  0
VERTEX
  8
0
  5
2891
 10
79.7710
 20
91.1860
 30
0.00000
  70
    32
  0
VERTEX
  8
0
  5
2892
 10
79.7425
 20
91.1733
 30
0.00000
  70
    32
  0
VERTEX
  8
0
  5
2893
 10
79.7140
 20
91.1599
 30
0.00000
  70
    32
  0
VERTEX
  8
0
  5
2894
 10
79.6855
 20
91.1459
 30
0.00000
  70
    32
  0
VERTEX
  8
0
  5
2895
 10
79.6570
 20
91.1311
 30
0.00000
  70
    32
  0
VERTEX
  8
0
  5
2896
 10
79.6285
 20
91.1157
 30
0.00000
  70
    32
  0
VERTEX
  8
0
  5
2897
 10
79.6000
 20
91.0997
 30
0.00000
  70
    32
  0
SEQEND
  8
0
  5
2898
  0
LINE
  5
22E8
  8
0
 10
83.2000000000000455
 20
87.7273603685250549
 30
0.0
 11
83.2000000000000455
 21
87.494287171915289
 31
0.0
  0
POLYLINE
  5
22E9
  8
0
 66
     1
 10
0.0
 20
0.0
 30
0.0
 70
   128
  0
VERTEX
  5
23F7
  8
0
 10
83.2000000000000455
 20
87.494287171915289
 30
0.0
  0
VERTEX
  5
23F8
  8
0
 10
83.0810305200786274
 20
86.9278806935797945
 30
0.0
  0
VERTEX
  5
23F9
  8
0
 10
82.8316539609897404
 20
86.3297329560052589
 30
0.0
  0
VERTEX
  5
23FA
  8
0
 10
82.4430822542504416
 20
85.6860580493082438
 30
0.0
  0
VERTEX
  5
23FB
  8
0
 10
81.9264972748743929
 20
85.0212555031241948
 30
0.0
  0
VERTEX
  5
23FC
  8
0
 10
80.8293775519209561
 20
83.9168335575212154
 30
0.0
  0
VERTEX
  5
23FD
  8
0
 10
79.4004168238088823
 20
82.7902504373916202
 30
0.0
  0
SEQEND
  5
23FE
  8
0
  0
ARC
  5
22EA
  8
0
 10
57.991582255408332
 20
90.062779982324642
 30
0.0
 40
8.3941969396768883
 50
197.8173939542085122
 51
240.0401830822725913
  0
LINE
  5
22EB
  8
0
 10
50.0000000000000568
 20
87.7273603685250549
 30
0.0
 11
50.0000000000000568
 21
87.494287171915289
 31
0.0
  0
POLYLINE
  5
22EC
  8
0
 10
53.5999999999991843
 20
91.0996789718901425
 30
0.0
 66
     1
 70
     8
  0
VERTEX
  8
0
  5
2899
 10
53.6000
 20
91.0997
 30
0.00000
  70
    32
  0
VERTEX
  8
0
  5
289A
 10
53.5715
 20
91.1157
 30
0.00000
  70
    32
  0
VERTEX
  8
0
  5
289B
 10
53.5430
 20
91.1311
 30
0.00000
  70
    32
  0
VERTEX
  8
0
  5
289C
 10
53.5145
 20
91.1459
 30
0.00000
  70
    32
  0
VERTEX
  8
0
  5
289D
 10
53.4860
 20
91.1599
 30
0.00000
  70
    32
  0
VERTEX
  8
0
  5
289E
 10
53.4575
 20
91.1733
 30
0.00000
  70
    32
  0
VERTEX
  8
0
  5
289F
 10
53.4290
 20
91.1860
 30
0.00000
  70
    32
  0
VERTEX
  8
0
  5
28A0
 10
53.4005
 20
91.1980
 30
0.00000
  70
    32
  0
VERTEX
  8
0
  5
28A1
 10
53.3719
 20
91.2094
 30
0.00000
  70
    32
  0
VERTEX
  8
0
  5
28A2
 10
53.3434
 20
91.2201
 30
0.00000
  70
    32
  0
VERTEX
  8
0
  5
28A3
 10
53.3149
 20
91.2301
 30
0.00000
  70
    32
  0
VERTEX
  8
0
  5
28A4
 10
53.2863
 20
91.2395
 30
0.00000
  70
    32
  0
VERTEX
  8
0
  5
28A5
 10
53.2578
 20
91.2482
 30
0.00000
  70
    32
  0
VERTEX
  8
0
  5
28A6
 10
53.2292
 20
91.2562
 30
0.00000
  70
    32
  0
VERTEX
  8
0
  5
28A7
 10
53.2007
 20
91.2635
 30
0.00000
  70
    32
  0
VERTEX
  8
0
  5
28A8
 10
53.1721
 20
91.2702
 30
0.00000
  70
    32
  0
VERTEX
  8
0
  5
28A9
 10
53.1435
 20
91.2762
 30
0.00000
  70
    32
  0
VERTEX
  8
0
  5
28AA
 10
53.1150
 20
91.2815
 30
0.00000
  70
    32
  0
VERTEX
  8
0
  5
28AB
 10
53.0864
 20
91.2862
 30
0.00000
  70
    32
  0
VERTEX
  8
0
  5
28AC
 10
53.0578
 20
91.2901
 30
0.00000
  70
    32
  0
VERTEX
  8
0
  5
28AD
 10
53.0293
 20
91.2934
 30
0.00000
  70
    32
  0
VERTEX
  8
0
  5
28AE
 10
53.0007
 20
91.2961
 30
0.00000
  70
    32
  0
VERTEX
  8
0
  5
28AF
 10
52.9721
 20
91.2980
 30
0.00000
  70
    32
  0
VERTEX
  8
0
  5
28B0
 10
52.9436
 20
91.2993
 30
0.00000
  70
    32
  0
VERTEX
  8
0
  5
28B1
 10
52.9150
 20
91.2999
 30
0.00000
  70
    32
  0
VERTEX
  8
0
  5
28B2
 10
52.8864
 20
91.2999
 30
0.00000
  70
    32
  0
VERTEX
  8
0
  5
28B3
 10
52.8578
 20
91.2992
 30
0.00000
  70
    32
  0
VERTEX
  8
0
  5
28B4
 10
52.8293
 20
91.2978
 30
0.00000
  70
    32
  0
VERTEX
  8
0
  5
28B5
 10
52.8007
 20
91.2957
 30
0.00000
  70
    32
  0
VERTEX
  8
0
  5
28B6
 10
52.7721
 20
91.2929
 30
0.00000
  70
    32
  0
VERTEX
  8
0
  5
28B7
 10
52.7436
 20
91.2895
 30
0.00000
  70
    32
  0
VERTEX
  8
0
  5
28B8
 10
52.7150
 20
91.2854
 30
0.00000
  70
    32
  0
VERTEX
  8
0
  5
28B9
 10
52.6864
 20
91.2807
 30
0.00000
  70
    32
  0
VERTEX
  8
0
  5
28BA
 10
52.6579
 20
91.2752
 30
0.00000
  70
    32
  0
VERTEX
  8
0
  5
28BB
 10
52.6293
 20
91.2691
 30
0.00000
  70
    32
  0
VERTEX
  8
0
  5
28BC
 10
52.6007
 20
91.2623
 30
0.00000
  70
    32
  0
VERTEX
  8
0
  5
28BD
 10
52.5722
 20
91.2549
 30
0.00000
  70
    32
  0
VERTEX
  8
0
  5
28BE
 10
52.5436
 20
91.2468
 30
0.00000
  70
    32
  0
VERTEX
  8
0
  5
28BF
 10
52.5151
 20
91.2380
 30
0.00000
  70
    32
  0
VERTEX
  8
0
  5
28C0
 10
52.4866
 20
91.2285
 30
0.00000
  70
    32
  0
VERTEX
  8
0
  5
28C1
 10
52.4580
 20
91.2184
 30
0.00000
  70
    32
  0
VERTEX
  8
0
  5
28C2
 10
52.4295
 20
91.2076
 30
0.00000
  70
    32
  0
VERTEX
  8
0
  5
28C3
 10
52.4010
 20
91.1961
 30
0.00000
  70
    32
  0
VERTEX
  8
0
  5
28C4
 10
52.3724
 20
91.1839
 30
0.00000
  70
    32
  0
VERTEX
  8
0
  5
28C5
 10
52.3439
 20
91.1711
 30
0.00000
  70
    32
  0
VERTEX
  8
0
  5
28C6
 10
52.3154
 20
91.1576
 30
0.00000
  70
    32
  0
VERTEX
  8
0
  5
28C7
 10
52.2869
 20
91.1435
 30
0.00000
  70
    32
  0
VERTEX
  8
0
  5
28C8
 10
52.2584
 20
91.1286
 30
0.00000
  70
    32
  0
VERTEX
  8
0
  5
28C9
 10
52.2299
 20
91.1131
 30
0.00000
  70
    32
  0
VERTEX
  8
0
  5
28CA
 10
52.2014
 20
91.0969
 30
0.00000
  70
    32
  0
VERTEX
  8
0
  5
28CB
 10
52.1729
 20
91.0801
 30
0.00000
  70
    32
  0
VERTEX
  8
0
  5
28CC
 10
52.1445
 20
91.0626
 30
0.00000
  70
    32
  0
VERTEX
  8
0
  5
28CD
 10
52.1160
 20
91.0444
 30
0.00000
  70
    32
  0
VERTEX
  8
0
  5
28CE
 10
52.0876
 20
91.0255
 30
0.00000
  70
    32
  0
VERTEX
  8
0
  5
28CF
 10
52.0591
 20
91.0060
 30
0.00000
  70
    32
  0
VERTEX
  8
0
  5
28D0
 10
52.0307
 20
90.9858
 30
0.00000
  70
    32
  0
VERTEX
  8
0
  5
28D1
 10
52.0023
 20
90.9649
 30
0.00000
  70
    32
  0
VERTEX
  8
0
  5
28D2
 10
51.9738
 20
90.9434
 30
0.00000
  70
    32
  0
VERTEX
  8
0
  5
28D3
 10
51.9454
 20
90.9212
 30
0.00000
  70
    32
  0
VERTEX
  8
0
  5
28D4
 10
51.9170
 20
90.8983
 30
0.00000
  70
    32
  0
VERTEX
  8
0
  5
28D5
 10
51.8887
 20
90.8748
 30
0.00000
  70
    32
  0
VERTEX
  8
0
  5
28D6
 10
51.8603
 20
90.8506
 30
0.00000
  70
    32
  0
VERTEX
  8
0
  5
28D7
 10
51.8319
 20
90.8257
 30
0.00000
  70
    32
  0
VERTEX
  8
0
  5
28D8
 10
51.8036
 20
90.8002
 30
0.00000
  70
    32
  0
VERTEX
  8
0
  5
28D9
 10
51.7752
 20
90.7740
 30
0.00000
  70
    32
  0
VERTEX
  8
0
  5
28DA
 10
51.7469
 20
90.7471
 30
0.00000
  70
    32
  0
VERTEX
  8
0
  5
28DB
 10
51.7186
 20
90.7196
 30
0.00000
  70
    32
  0
VERTEX
  8
0
  5
28DC
 10
51.6903
 20
90.6914
 30
0.00000
  70
    32
  0
VERTEX
  8
0
  5
28DD
 10
51.6620
 20
90.6625
 30
0.00000
  70
    32
  0
VERTEX
  8
0
  5
28DE
 10
51.6337
 20
90.6329
 30
0.00000
  70
    32
  0
VERTEX
  8
0
  5
28DF
 10
51.6055
 20
90.6027
 30
0.00000
  70
    32
  0
VERTEX
  8
0
  5
28E0
 10
51.5772
 20
90.5719
 30
0.00000
  70
    32
  0
VERTEX
  8
0
  5
28E1
 10
51.5490
 20
90.5403
 30
0.00000
  70
    32
  0
VERTEX
  8
0
  5
28E2
 10
51.5208
 20
90.5081
 30
0.00000
  70
    32
  0
VERTEX
  8
0
  5
28E3
 10
51.4926
 20
90.4753
 30
0.00000
  70
    32
  0
VERTEX
  8
0
  5
28E4
 10
51.4644
 20
90.4418
 30
0.00000
  70
    32
  0
VERTEX
  8
0
  5
28E5
 10
51.4362
 20
90.4076
 30
0.00000
  70
    32
  0
VERTEX
  8
0
  5
28E6
 10
51.4081
 20
90.3727
 30
0.00000
  70
    32
  0
VERTEX
  8
0
  5
28E7
 10
51.3799
 20
90.3372
 30
0.00000
  70
    32
  0
VERTEX
  8
0
  5
28E8
 10
51.3518
 20
90.3010
 30
0.00000
  70
    32
  0
VERTEX
  8
0
  5
28E9
 10
51.3237
 20
90.2642
 30
0.00000
  70
    32
  0
VERTEX
  8
0
  5
28EA
 10
51.2956
 20
90.2267
 30
0.00000
  70
    32
  0
VERTEX
  8
0
  5
28EB
 10
51.2675
 20
90.1885
 30
0.00000
  70
    32
  0
VERTEX
  8
0
  5
28EC
 10
51.2395
 20
90.1497
 30
0.00000
  70
    32
  0
VERTEX
  8
0
  5
28ED
 10
51.2114
 20
90.1102
 30
0.00000
  70
    32
  0
VERTEX
  8
0
  5
28EE
 10
51.1834
 20
90.0701
 30
0.00000
  70
    32
  0
VERTEX
  8
0
  5
28EF
 10
51.1554
 20
90.0293
 30
0.00000
  70
    32
  0
VERTEX
  8
0
  5
28F0
 10
51.1274
 20
89.9878
 30
0.00000
  70
    32
  0
VERTEX
  8
0
  5
28F1
 10
51.0995
 20
89.9457
 30
0.00000
  70
    32
  0
VERTEX
  8
0
  5
28F2
 10
51.0715
 20
89.9030
 30
0.00000
  70
    32
  0
VERTEX
  8
0
  5
28F3
 10
51.0436
 20
89.8595
 30
0.00000
  70
    32
  0
VERTEX
  8
0
  5
28F4
 10
51.0157
 20
89.8154
 30
0.00000
  70
    32
  0
VERTEX
  8
0
  5
28F5
 10
50.9878
 20
89.7707
 30
0.00000
  70
    32
  0
VERTEX
  8
0
  5
28F6
 10
50.9599
 20
89.7253
 30
0.00000
  70
    32
  0
VERTEX
  8
0
  5
28F7
 10
50.9321
 20
89.6793
 30
0.00000
  70
    32
  0
VERTEX
  8
0
  5
28F8
 10
50.9043
 20
89.6325
 30
0.00000
  70
    32
  0
VERTEX
  8
0
  5
28F9
 10
50.8765
 20
89.5852
 30
0.00000
  70
    32
  0
VERTEX
  8
0
  5
28FA
 10
50.8487
 20
89.5372
 30
0.00000
  70
    32
  0
VERTEX
  8
0
  5
28FB
 10
50.8209
 20
89.4885
 30
0.00000
  70
    32
  0
VERTEX
  8
0
  5
28FC
 10
50.7932
 20
89.4392
 30
0.00000
  70
    32
  0
VERTEX
  8
0
  5
28FD
 10
50.7655
 20
89.3892
 30
0.00000
  70
    32
  0
VERTEX
  8
0
  5
28FE
 10
50.7378
 20
89.3386
 30
0.00000
  70
    32
  0
VERTEX
  8
0
  5
28FF
 10
50.7101
 20
89.2873
 30
0.00000
  70
    32
  0
VERTEX
  8
0
  5
2900
 10
50.6825
 20
89.2353
 30
0.00000
  70
    32
  0
VERTEX
  8
0
  5
2901
 10
50.6549
 20
89.1828
 30
0.00000
  70
    32
  0
VERTEX
  8
0
  5
2902
 10
50.6273
 20
89.1295
 30
0.00000
  70
    32
  0
VERTEX
  8
0
  5
2903
 10
50.5997
 20
89.0757
 30
0.00000
  70
    32
  0
VERTEX
  8
0
  5
2904
 10
50.5722
 20
89.0211
 30
0.00000
  70
    32
  0
VERTEX
  8
0
  5
2905
 10
50.5447
 20
88.9660
 30
0.00000
  70
    32
  0
VERTEX
  8
0
  5
2906
 10
50.5172
 20
88.9101
 30
0.00000
  70
    32
  0
VERTEX
  8
0
  5
2907
 10
50.4897
 20
88.8537
 30
0.00000
  70
    32
  0
VERTEX
  8
0
  5
2908
 10
50.4623
 20
88.7965
 30
0.00000
  70
    32
  0
VERTEX
  8
0
  5
2909
 10
50.4348
 20
88.7388
 30
0.00000
  70
    32
  0
VERTEX
  8
0
  5
290A
 10
50.4074
 20
88.6804
 30
0.00000
  70
    32
  0
VERTEX
  8
0
  5
290B
 10
50.3801
 20
88.6213
 30
0.00000
  70
    32
  0
VERTEX
  8
0
  5
290C
 10
50.3528
 20
88.5616
 30
0.00000
  70
    32
  0
VERTEX
  8
0
  5
290D
 10
50.3254
 20
88.5013
 30
0.00000
  70
    32
  0
VERTEX
  8
0
  5
290E
 10
50.2982
 20
88.4403
 30
0.00000
  70
    32
  0
VERTEX
  8
0
  5
290F
 10
50.2709
 20
88.3787
 30
0.00000
  70
    32
  0
VERTEX
  8
0
  5
2910
 10
50.2437
 20
88.3164
 30
0.00000
  70
    32
  0
VERTEX
  8
0
  5
2911
 10
50.2165
 20
88.2535
 30
0.00000
  70
    32
  0
VERTEX
  8
0
  5
2912
 10
50.1893
 20
88.1900
 30
0.00000
  70
    32
  0
VERTEX
  8
0
  5
2913
 10
50.1622
 20
88.1258
 30
0.00000
  70
    32
  0
VERTEX
  8
0
  5
2914
 10
50.1351
 20
88.0610
 30
0.00000
  70
    32
  0
VERTEX
  8
0
  5
2915
 10
50.1080
 20
87.9955
 30
0.00000
  70
    32
  0
VERTEX
  8
0
  5
2916
 10
50.0810
 20
87.9295
 30
0.00000
  70
    32
  0
VERTEX
  8
0
  5
2917
 10
50.0539
 20
87.8627
 30
0.00000
  70
    32
  0
VERTEX
  8
0
  5
2918
 10
50.0270
 20
87.7954
 30
0.00000
  70
    32
  0
VERTEX
  8
0
  5
2919
 10
50.0000
 20
87.7274
 30
0.00000
  70
    32
  0
SEQEND
  8
0
  5
291A
  0
POLYLINE
  5
22ED
  8
0
 10
83.1999999999995197
 20
99.2299364911517614
 30
0.0
 66
     1
 70
     8
  0
VERTEX
  8
0
  5
291B
 10
83.2000
 20
99.2299
 30
0.00000
  70
    32
  0
VERTEX
  8
0
  5
291C
 10
83.1730
 20
99.2976
 30
0.00000
  70
    32
  0
VERTEX
  8
0
  5
291D
 10
83.1460
 20
99.3645
 30
0.00000
  70
    32
  0
VERTEX
  8
0
  5
291E
 10
83.1190
 20
99.4304
 30
0.00000
  70
    32
  0
VERTEX
  8
0
  5
291F
 10
83.0919
 20
99.4954
 30
0.00000
  70
    32
  0
VERTEX
  8
0
  5
2920
 10
83.0648
 20
99.5596
 30
0.00000
  70
    32
  0
VERTEX
  8
0
  5
2921
 10
83.0376
 20
99.6229
 30
0.00000
  70
    32
  0
VERTEX
  8
0
  5
2922
 10
83.0104
 20
99.6853
 30
0.00000
  70
    32
  0
VERTEX
  8
0
  5
2923
 10
82.9832
 20
99.7468
 30
0.00000
  70
    32
  0
VERTEX
  8
0
  5
2924
 10
82.9559
 20
99.8074
 30
0.00000
  70
    32
  0
VERTEX
  8
0
  5
2925
 10
82.9286
 20
99.8671
 30
0.00000
  70
    32
  0
VERTEX
  8
0
  5
2926
 10
82.9012
 20
99.9259
 30
0.00000
  70
    32
  0
VERTEX
  8
0
  5
2927
 10
82.8738
 20
99.9839
 30
0.00000
  70
    32
  0
VERTEX
  8
0
  5
2928
 10
82.8464
 20
100.041
 30
0.00000
  70
    32
  0
VERTEX
  8
0
  5
2929
 10
82.8189
 20
100.097
 30
0.00000
  70
    32
  0
VERTEX
  8
0
  5
292A
 10
82.7914
 20
100.152
 30
0.00000
  70
    32
  0
VERTEX
  8
0
  5
292B
 10
82.7639
 20
100.207
 30
0.00000
  70
    32
  0
VERTEX
  8
0
  5
292C
 10
82.7363
 20
100.260
 30
0.00000
  70
    32
  0
VERTEX
  8
0
  5
292D
 10
82.7087
 20
100.313
 30
0.00000
  70
    32
  0
VERTEX
  8
0
  5
292E
 10
82.6811
 20
100.364
 30
0.00000
  70
    32
  0
VERTEX
  8
0
  5
292F
 10
82.6534
 20
100.415
 30
0.00000
  70
    32
  0
VERTEX
  8
0
  5
2930
 10
82.6257
 20
100.465
 30
0.00000
  70
    32
  0
VERTEX
  8
0
  5
2931
 10
82.5980
 20
100.514
 30
0.00000
  70
    32
  0
VERTEX
  8
0
  5
2932
 10
82.5702
 20
100.562
 30
0.00000
  70
    32
  0
VERTEX
  8
0
  5
2933
 10
82.5424
 20
100.609
 30
0.00000
  70
    32
  0
VERTEX
  8
0
  5
2934
 10
82.5146
 20
100.655
 30
0.00000
  70
    32
  0
VERTEX
  8
0
  5
2935
 10
82.4867
 20
100.700
 30
0.00000
  70
    32
  0
VERTEX
  8
0
  5
2936
 10
82.4589
 20
100.745
 30
0.00000
  70
    32
  0
VERTEX
  8
0
  5
2937
 10
82.4310
 20
100.788
 30
0.00000
  70
    32
  0
VERTEX
  8
0
  5
2938
 10
82.4030
 20
100.831
 30
0.00000
  70
    32
  0
VERTEX
  8
0
  5
2939
 10
82.3751
 20
100.872
 30
0.00000
  70
    32
  0
VERTEX
  8
0
  5
293A
 10
82.3471
 20
100.913
 30
0.00000
  70
    32
  0
VERTEX
  8
0
  5
293B
 10
82.3190
 20
100.953
 30
0.00000
  70
    32
  0
VERTEX
  8
0
  5
293C
 10
82.2910
 20
100.992
 30
0.00000
  70
    32
  0
VERTEX
  8
0
  5
293D
 10
82.2629
 20
101.030
 30
0.00000
  70
    32
  0
VERTEX
  8
0
  5
293E
 10
82.2349
 20
101.067
 30
0.00000
  70
    32
  0
VERTEX
  8
0
  5
293F
 10
82.2067
 20
101.103
 30
0.00000
  70
    32
  0
VERTEX
  8
0
  5
2940
 10
82.1786
 20
101.138
 30
0.00000
  70
    32
  0
VERTEX
  8
0
  5
2941
 10
82.1504
 20
101.172
 30
0.00000
  70
    32
  0
VERTEX
  8
0
  5
2942
 10
82.1223
 20
101.206
 30
0.00000
  70
    32
  0
VERTEX
  8
0
  5
2943
 10
82.0941
 20
101.238
 30
0.00000
  70
    32
  0
VERTEX
  8
0
  5
2944
 10
82.0659
 20
101.270
 30
0.00000
  70
    32
  0
VERTEX
  8
0
  5
2945
 10
82.0376
 20
101.300
 30
0.00000
  70
    32
  0
VERTEX
  8
0
  5
2946
 10
82.0094
 20
101.330
 30
0.00000
  70
    32
  0
VERTEX
  8
0
  5
2947
 10
81.9811
 20
101.359
 30
0.00000
  70
    32
  0
VERTEX
  8
0
  5
2948
 10
81.9528
 20
101.387
 30
0.00000
  70
    32
  0
VERTEX
  8
0
  5
2949
 10
81.9245
 20
101.414
 30
0.00000
  70
    32
  0
VERTEX
  8
0
  5
294A
 10
81.8961
 20
101.440
 30
0.00000
  70
    32
  0
VERTEX
  8
0
  5
294B
 10
81.8678
 20
101.465
 30
0.00000
  70
    32
  0
VERTEX
  8
0
  5
294C
 10
81.8394
 20
101.489
 30
0.00000
  70
    32
  0
VERTEX
  8
0
  5
294D
 10
81.8111
 20
101.512
 30
0.00000
  70
    32
  0
VERTEX
  8
0
  5
294E
 10
81.7827
 20
101.534
 30
0.00000
  70
    32
  0
VERTEX
  8
0
  5
294F
 10
81.7543
 20
101.556
 30
0.00000
  70
    32
  0
VERTEX
  8
0
  5
2950
 10
81.7258
 20
101.576
 30
0.00000
  70
    32
  0
VERTEX
  8
0
  5
2951
 10
81.6974
 20
101.596
 30
0.00000
  70
    32
  0
VERTEX
  8
0
  5
2952
 10
81.6690
 20
101.614
 30
0.00000
  70
    32
  0
VERTEX
  8
0
  5
2953
 10
81.6405
 20
101.632
 30
0.00000
  70
    32
  0
VERTEX
  8
0
  5
2954
 10
81.6121
 20
101.648
 30
0.00000
  70
    32
  0
VERTEX
  8
0
  5
2955
 10
81.5836
 20
101.664
 30
0.00000
  70
    32
  0
VERTEX
  8
0
  5
2956
 10
81.5551
 20
101.679
 30
0.00000
  70
    32
  0
VERTEX
  8
0
  5
2957
 10
81.5266
 20
101.693
 30
0.00000
  70
    32
  0
VERTEX
  8
0
  5
2958
 10
81.4981
 20
101.706
 30
0.00000
  70
    32
  0
VERTEX
  8
0
  5
2959
 10
81.4696
 20
101.718
 30
0.00000
  70
    32
  0
VERTEX
  8
0
  5
295A
 10
81.4411
 20
101.729
 30
0.00000
  70
    32
  0
VERTEX
  8
0
  5
295B
 10
81.4126
 20
101.739
 30
0.00000
  70
    32
  0
VERTEX
  8
0
  5
295C
 10
81.3840
 20
101.749
 30
0.00000
  70
    32
  0
VERTEX
  8
0
  5
295D
 10
81.3555
 20
101.757
 30
0.00000
  70
    32
  0
VERTEX
  8
0
  5
295E
 10
81.3269
 20
101.764
 30
0.00000
  70
    32
  0
VERTEX
  8
0
  5
295F
 10
81.2984
 20
101.771
 30
0.00000
  70
    32
  0
VERTEX
  8
0
  5
2960
 10
81.2699
 20
101.776
 30
0.00000
  70
    32
  0
VERTEX
  8
0
  5
2961
 10
81.2413
 20
101.781
 30
0.00000
  70
    32
  0
VERTEX
  8
0
  5
2962
 10
81.2127
 20
101.785
 30
0.00000
  70
    32
  0
VERTEX
  8
0
  5
2963
 10
81.1842
 20
101.787
 30
0.00000
  70
    32
  0
VERTEX
  8
0
  5
2964
 10
81.1556
 20
101.789
 30
0.00000
  70
    32
  0
VERTEX
  8
0
  5
2965
 10
81.1271
 20
101.790
 30
0.00000
  70
    32
  0
VERTEX
  8
0
  5
2966
 10
81.0985
 20
101.790
 30
0.00000
  70
    32
  0
VERTEX
  8
0
  5
2967
 10
81.0699
 20
101.789
 30
0.00000
  70
    32
  0
VERTEX
  8
0
  5
2968
 10
81.0414
 20
101.787
 30
0.00000
  70
    32
  0
VERTEX
  8
0
  5
2969
 10
81.0128
 20
101.784
 30
0.00000
  70
    32
  0
VERTEX
  8
0
  5
296A
 10
80.9843
 20
101.780
 30
0.00000
  70
    32
  0
VERTEX
  8
0
  5
296B
 10
80.9557
 20
101.775
 30
0.00000
  70
    32
  0
VERTEX
  8
0
  5
296C
 10
80.9272
 20
101.770
 30
0.00000
  70
    32
  0
VERTEX
  8
0
  5
296D
 10
80.8986
 20
101.763
 30
0.00000
  70
    32
  0
VERTEX
  8
0
  5
296E
 10
80.8701
 20
101.756
 30
0.00000
  70
    32
  0
VERTEX
  8
0
  5
296F
 10
80.8416
 20
101.747
 30
0.00000
  70
    32
  0
VERTEX
  8
0
  5
2970
 10
80.8130
 20
101.738
 30
0.00000
  70
    32
  0
VERTEX
  8
0
  5
2971
 10
80.7845
 20
101.727
 30
0.00000
  70
    32
  0
VERTEX
  8
0
  5
2972
 10
80.7560
 20
101.716
 30
0.00000
  70
    32
  0
VERTEX
  8
0
  5
2973
 10
80.7275
 20
101.704
 30
0.00000
  70
    32
  0
VERTEX
  8
0
  5
2974
 10
80.6990
 20
101.691
 30
0.00000
  70
    32
  0
VERTEX
  8
0
  5
2975
 10
80.6705
 20
101.677
 30
0.00000
  70
    32
  0
VERTEX
  8
0
  5
2976
 10
80.6420
 20
101.662
 30
0.00000
  70
    32
  0
VERTEX
  8
0
  5
2977
 10
80.6135
 20
101.646
 30
0.00000
  70
    32
  0
VERTEX
  8
0
  5
2978
 10
80.5851
 20
101.629
 30
0.00000
  70
    32
  0
VERTEX
  8
0
  5
2979
 10
80.5566
 20
101.611
 30
0.00000
  70
    32
  0
VERTEX
  8
0
  5
297A
 10
80.5282
 20
101.592
 30
0.00000
  70
    32
  0
VERTEX
  8
0
  5
297B
 10
80.4998
 20
101.573
 30
0.00000
  70
    32
  0
VERTEX
  8
0
  5
297C
 10
80.4713
 20
101.552
 30
0.00000
  70
    32
  0
VERTEX
  8
0
  5
297D
 10
80.4429
 20
101.531
 30
0.00000
  70
    32
  0
VERTEX
  8
0
  5
297E
 10
80.4145
 20
101.508
 30
0.00000
  70
    32
  0
VERTEX
  8
0
  5
297F
 10
80.3862
 20
101.485
 30
0.00000
  70
    32
  0
VERTEX
  8
0
  5
2980
 10
80.3578
 20
101.461
 30
0.00000
  70
    32
  0
VERTEX
  8
0
  5
2981
 10
80.3295
 20
101.435
 30
0.00000
  70
    32
  0
VERTEX
  8
0
  5
2982
 10
80.3011
 20
101.409
 30
0.00000
  70
    32
  0
VERTEX
  8
0
  5
2983
 10
80.2728
 20
101.382
 30
0.00000
  70
    32
  0
VERTEX
  8
0
  5
2984
 10
80.2445
 20
101.354
 30
0.00000
  70
    32
  0
VERTEX
  8
0
  5
2985
 10
80.2163
 20
101.325
 30
0.00000
  70
    32
  0
VERTEX
  8
0
  5
2986
 10
80.1880
 20
101.296
 30
0.00000
  70
    32
  0
VERTEX
  8
0
  5
2987
 10
80.1598
 20
101.265
 30
0.00000
  70
    32
  0
VERTEX
  8
0
  5
2988
 10
80.1316
 20
101.233
 30
0.00000
  70
    32
  0
VERTEX
  8
0
  5
2989
 10
80.1034
 20
101.200
 30
0.00000
  70
    32
  0
VERTEX
  8
0
  5
298A
 10
80.0752
 20
101.167
 30
0.00000
  70
    32
  0
VERTEX
  8
0
  5
298B
 10
80.0470
 20
101.132
 30
0.00000
  70
    32
  0
VERTEX
  8
0
  5
298C
 10
80.0189
 20
101.097
 30
0.00000
  70
    32
  0
VERTEX
  8
0
  5
298D
 10
79.9908
 20
101.061
 30
0.00000
  70
    32
  0
VERTEX
  8
0
  5
298E
 10
79.9627
 20
101.024
 30
0.00000
  70
    32
  0
VERTEX
  8
0
  5
298F
 10
79.9347
 20
100.986
 30
0.00000
  70
    32
  0
VERTEX
  8
0
  5
2990
 10
79.9066
 20
100.946
 30
0.00000
  70
    32
  0
VERTEX
  8
0
  5
2991
 10
79.8786
 20
100.907
 30
0.00000
  70
    32
  0
VERTEX
  8
0
  5
2992
 10
79.8506
 20
100.866
 30
0.00000
  70
    32
  0
VERTEX
  8
0
  5
2993
 10
79.8227
 20
100.824
 30
0.00000
  70
    32
  0
VERTEX
  8
0
  5
2994
 10
79.7947
 20
100.781
 30
0.00000
  70
    32
  0
VERTEX
  8
0
  5
2995
 10
79.7668
 20
100.738
 30
0.00000
  70
    32
  0
VERTEX
  8
0
  5
2996
 10
79.7389
 20
100.693
 30
0.00000
  70
    32
  0
VERTEX
  8
0
  5
2997
 10
79.7111
 20
100.648
 30
0.00000
  70
    32
  0
VERTEX
  8
0
  5
2998
 10
79.6833
 20
100.601
 30
0.00000
  70
    32
  0
VERTEX
  8
0
  5
2999
 10
79.6555
 20
100.554
 30
0.00000
  70
    32
  0
VERTEX
  8
0
  5
299A
 10
79.6277
 20
100.506
 30
0.00000
  70
    32
  0
VERTEX
  8
0
  5
299B
 10
79.6000
 20
100.457
 30
0.00000
  70
    32
  0
SEQEND
  8
0
  5
299C
  0
POLYLINE
  5
22EE
  8
0
 10
53.5999999999994898
 20
100.4568040067133268
 30
0.0
 66
     1
 70
     8
  0
VERTEX
  8
0
  5
299D
 10
53.6000
 20
100.457
 30
0.00000
  70
    32
  0
VERTEX
  8
0
  5
299E
 10
53.5723
 20
100.506
 30
0.00000
  70
    32
  0
VERTEX
  8
0
  5
299F
 10
53.5445
 20
100.554
 30
0.00000
  70
    32
  0
VERTEX
  8
0
  5
29A0
 10
53.5167
 20
100.601
 30
0.00000
  70
    32
  0
VERTEX
  8
0
  5
29A1
 10
53.4889
 20
100.648
 30
0.00000
  70
    32
  0
VERTEX
  8
0
  5
29A2
 10
53.4611
 20
100.693
 30
0.00000
  70
    32
  0
VERTEX
  8
0
  5
29A3
 10
53.4332
 20
100.738
 30
0.00000
  70
    32
  0
VERTEX
  8
0
  5
29A4
 10
53.4053
 20
100.781
 30
0.00000
  70
    32
  0
VERTEX
  8
0
  5
29A5
 10
53.3773
 20
100.824
 30
0.00000
  70
    32
  0
VERTEX
  8
0
  5
29A6
 10
53.3494
 20
100.866
 30
0.00000
  70
    32
  0
VERTEX
  8
0
  5
29A7
 10
53.3214
 20
100.907
 30
0.00000
  70
    32
  0
VERTEX
  8
0
  5
29A8
 10
53.2934
 20
100.946
 30
0.00000
  70
    32
  0
VERTEX
  8
0
  5
29A9
 10
53.2653
 20
100.986
 30
0.00000
  70
    32
  0
VERTEX
  8
0
  5
29AA
 10
53.2373
 20
101.024
 30
0.00000
  70
    32
  0
VERTEX
  8
0
  5
29AB
 10
53.2092
 20
101.061
 30
0.00000
  70
    32
  0
VERTEX
  8
0
  5
29AC
 10
53.1811
 20
101.097
 30
0.00000
  70
    32
  0
VERTEX
  8
0
  5
29AD
 10
53.1530
 20
101.132
 30
0.00000
  70
    32
  0
VERTEX
  8
0
  5
29AE
 10
53.1248
 20
101.167
 30
0.00000
  70
    32
  0
VERTEX
  8
0
  5
29AF
 10
53.0966
 20
101.200
 30
0.00000
  70
    32
  0
VERTEX
  8
0
  5
29B0
 10
53.0684
 20
101.233
 30
0.00000
  70
    32
  0
VERTEX
  8
0
  5
29B1
 10
53.0402
 20
101.265
 30
0.00000
  70
    32
  0
VERTEX
  8
0
  5
29B2
 10
53.0120
 20
101.296
 30
0.00000
  70
    32
  0
VERTEX
  8
0
  5
29B3
 10
52.9837
 20
101.325
 30
0.00000
  70
    32
  0
VERTEX
  8
0
  5
29B4
 10
52.9555
 20
101.354
 30
0.00000
  70
    32
  0
VERTEX
  8
0
  5
29B5
 10
52.9272
 20
101.382
 30
0.00000
  70
    32
  0
VERTEX
  8
0
  5
29B6
 10
52.8989
 20
101.409
 30
0.00000
  70
    32
  0
VERTEX
  8
0
  5
29B7
 10
52.8705
 20
101.435
 30
0.00000
  70
    32
  0
VERTEX
  8
0
  5
29B8
 10
52.8422
 20
101.461
 30
0.00000
  70
    32
  0
VERTEX
  8
0
  5
29B9
 10
52.8138
 20
101.485
 30
0.00000
  70
    32
  0
VERTEX
  8
0
  5
29BA
 10
52.7855
 20
101.508
 30
0.00000
  70
    32
  0
VERTEX
  8
0
  5
29BB
 10
52.7571
 20
101.531
 30
0.00000
  70
    32
  0
VERTEX
  8
0
  5
29BC
 10
52.7287
 20
101.552
 30
0.00000
  70
    32
  0
VERTEX
  8
0
  5
29BD
 10
52.7002
 20
101.573
 30
0.00000
  70
    32
  0
VERTEX
  8
0
  5
29BE
 10
52.6718
 20
101.592
 30
0.00000
  70
    32
  0
VERTEX
  8
0
  5
29BF
 10
52.6434
 20
101.611
 30
0.00000
  70
    32
  0
VERTEX
  8
0
  5
29C0
 10
52.6149
 20
101.629
 30
0.00000
  70
    32
  0
VERTEX
  8
0
  5
29C1
 10
52.5865
 20
101.646
 30
0.00000
  70
    32
  0
VERTEX
  8
0
  5
29C2
 10
52.5580
 20
101.662
 30
0.00000
  70
    32
  0
VERTEX
  8
0
  5
29C3
 10
52.5295
 20
101.677
 30
0.00000
  70
    32
  0
VERTEX
  8
0
  5
29C4
 10
52.5010
 20
101.691
 30
0.00000
  70
    32
  0
VERTEX
  8
0
  5
29C5
 10
52.4725
 20
101.704
 30
0.00000
  70
    32
  0
VERTEX
  8
0
  5
29C6
 10
52.4440
 20
101.716
 30
0.00000
  70
    32
  0
VERTEX
  8
0
  5
29C7
 10
52.4155
 20
101.727
 30
0.00000
  70
    32
  0
VERTEX
  8
0
  5
29C8
 10
52.3870
 20
101.738
 30
0.00000
  70
    32
  0
VERTEX
  8
0
  5
29C9
 10
52.3584
 20
101.747
 30
0.00000
  70
    32
  0
VERTEX
  8
0
  5
29CA
 10
52.3299
 20
101.756
 30
0.00000
  70
    32
  0
VERTEX
  8
0
  5
29CB
 10
52.3014
 20
101.763
 30
0.00000
  70
    32
  0
VERTEX
  8
0
  5
29CC
 10
52.2728
 20
101.770
 30
0.00000
  70
    32
  0
VERTEX
  8
0
  5
29CD
 10
52.2443
 20
101.775
 30
0.00000
  70
    32
  0
VERTEX
  8
0
  5
29CE
 10
52.2157
 20
101.780
 30
0.00000
  70
    32
  0
VERTEX
  8
0
  5
29CF
 10
52.1872
 20
101.784
 30
0.00000
  70
    32
  0
VERTEX
  8
0
  5
29D0
 10
52.1586
 20
101.787
 30
0.00000
  70
    32
  0
VERTEX
  8
0
  5
29D1
 10
52.1301
 20
101.789
 30
0.00000
  70
    32
  0
VERTEX
  8
0
  5
29D2
 10
52.1015
 20
101.790
 30
0.00000
  70
    32
  0
VERTEX
  8
0
  5
29D3
 10
52.0729
 20
101.790
 30
0.00000
  70
    32
  0
VERTEX
  8
0
  5
29D4
 10
52.0444
 20
101.789
 30
0.00000
  70
    32
  0
VERTEX
  8
0
  5
29D5
 10
52.0158
 20
101.787
 30
0.00000
  70
    32
  0
VERTEX
  8
0
  5
29D6
 10
51.9873
 20
101.785
 30
0.00000
  70
    32
  0
VERTEX
  8
0
  5
29D7
 10
51.9587
 20
101.781
 30
0.00000
  70
    32
  0
VERTEX
  8
0
  5
29D8
 10
51.9301
 20
101.776
 30
0.00000
  70
    32
  0
VERTEX
  8
0
  5
29D9
 10
51.9016
 20
101.771
 30
0.00000
  70
    32
  0
VERTEX
  8
0
  5
29DA
 10
51.8731
 20
101.764
 30
0.00000
  70
    32
  0
VERTEX
  8
0
  5
29DB
 10
51.8445
 20
101.757
 30
0.00000
  70
    32
  0
VERTEX
  8
0
  5
29DC
 10
51.8160
 20
101.749
 30
0.00000
  70
    32
  0
VERTEX
  8
0
  5
29DD
 10
51.7874
 20
101.739
 30
0.00000
  70
    32
  0
VERTEX
  8
0
  5
29DE
 10
51.7589
 20
101.729
 30
0.00000
  70
    32
  0
VERTEX
  8
0
  5
29DF
 10
51.7304
 20
101.718
 30
0.00000
  70
    32
  0
VERTEX
  8
0
  5
29E0
 10
51.7019
 20
101.706
 30
0.00000
  70
    32
  0
VERTEX
  8
0
  5
29E1
 10
51.6734
 20
101.693
 30
0.00000
  70
    32
  0
VERTEX
  8
0
  5
29E2
 10
51.6449
 20
101.679
 30
0.00000
  70
    32
  0
VERTEX
  8
0
  5
29E3
 10
51.6164
 20
101.664
 30
0.00000
  70
    32
  0
VERTEX
  8
0
  5
29E4
 10
51.5879
 20
101.648
 30
0.00000
  70
    32
  0
VERTEX
  8
0
  5
29E5
 10
51.5595
 20
101.632
 30
0.00000
  70
    32
  0
VERTEX
  8
0
  5
29E6
 10
51.5310
 20
101.614
 30
0.00000
  70
    32
  0
VERTEX
  8
0
  5
29E7
 10
51.5026
 20
101.596
 30
0.00000
  70
    32
  0
VERTEX
  8
0
  5
29E8
 10
51.4742
 20
101.576
 30
0.00000
  70
    32
  0
VERTEX
  8
0
  5
29E9
 10
51.4457
 20
101.556
 30
0.00000
  70
    32
  0
VERTEX
  8
0
  5
29EA
 10
51.4173
 20
101.534
 30
0.00000
  70
    32
  0
VERTEX
  8
0
  5
29EB
 10
51.3889
 20
101.512
 30
0.00000
  70
    32
  0
VERTEX
  8
0
  5
29EC
 10
51.3606
 20
101.489
 30
0.00000
  70
    32
  0
VERTEX
  8
0
  5
29ED
 10
51.3322
 20
101.465
 30
0.00000
  70
    32
  0
VERTEX
  8
0
  5
29EE
 10
51.3039
 20
101.440
 30
0.00000
  70
    32
  0
VERTEX
  8
0
  5
29EF
 10
51.2755
 20
101.414
 30
0.00000
  70
    32
  0
VERTEX
  8
0
  5
29F0
 10
51.2472
 20
101.387
 30
0.00000
  70
    32
  0
VERTEX
  8
0
  5
29F1
 10
51.2189
 20
101.359
 30
0.00000
  70
    32
  0
VERTEX
  8
0
  5
29F2
 10
51.1906
 20
101.330
 30
0.00000
  70
    32
  0
VERTEX
  8
0
  5
29F3
 10
51.1624
 20
101.300
 30
0.00000
  70
    32
  0
VERTEX
  8
0
  5
29F4
 10
51.1341
 20
101.270
 30
0.00000
  70
    32
  0
VERTEX
  8
0
  5
29F5
 10
51.1059
 20
101.238
 30
0.00000
  70
    32
  0
VERTEX
  8
0
  5
29F6
 10
51.0777
 20
101.206
 30
0.00000
  70
    32
  0
VERTEX
  8
0
  5
29F7
 10
51.0496
 20
101.172
 30
0.00000
  70
    32
  0
VERTEX
  8
0
  5
29F8
 10
51.0214
 20
101.138
 30
0.00000
  70
    32
  0
VERTEX
  8
0
  5
29F9
 10
50.9933
 20
101.103
 30
0.00000
  70
    32
  0
VERTEX
  8
0
  5
29FA
 10
50.9651
 20
101.067
 30
0.00000
  70
    32
  0
VERTEX
  8
0
  5
29FB
 10
50.9371
 20
101.030
 30
0.00000
  70
    32
  0
VERTEX
  8
0
  5
29FC
 10
50.9090
 20
100.992
 30
0.00000
  70
    32
  0
VERTEX
  8
0
  5
29FD
 10
50.8810
 20
100.953
 30
0.00000
  70
    32
  0
VERTEX
  8
0
  5
29FE
 10
50.8529
 20
100.913
 30
0.00000
  70
    32
  0
VERTEX
  8
0
  5
29FF
 10
50.8249
 20
100.872
 30
0.00000
  70
    32
  0
VERTEX
  8
0
  5
2A00
 10
50.7970
 20
100.831
 30
0.00000
  70
    32
  0
VERTEX
  8
0
  5
2A01
 10
50.7690
 20
100.788
 30
0.00000
  70
    32
  0
VERTEX
  8
0
  5
2A02
 10
50.7411
 20
100.745
 30
0.00000
  70
    32
  0
VERTEX
  8
0
  5
2A03
 10
50.7133
 20
100.700
 30
0.00000
  70
    32
  0
VERTEX
  8
0
  5
2A04
 10
50.6854
 20
100.655
 30
0.00000
  70
    32
  0
VERTEX
  8
0
  5
2A05
 10
50.6576
 20
100.609
 30
0.00000
  70
    32
  0
VERTEX
  8
0
  5
2A06
 10
50.6298
 20
100.562
 30
0.00000
  70
    32
  0
VERTEX
  8
0
  5
2A07
 10
50.6020
 20
100.514
 30
0.00000
  70
    32
  0
VERTEX
  8
0
  5
2A08
 10
50.5743
 20
100.465
 30
0.00000
  70
    32
  0
VERTEX
  8
0
  5
2A09
 10
50.5466
 20
100.415
 30
0.00000
  70
    32
  0
VERTEX
  8
0
  5
2A0A
 10
50.5189
 20
100.364
 30
0.00000
  70
    32
  0
VERTEX
  8
0
  5
2A0B
 10
50.4913
 20
100.313
 30
0.00000
  70
    32
  0
VERTEX
  8
0
  5
2A0C
 10
50.4637
 20
100.260
 30
0.00000
  70
    32
  0
VERTEX
  8
0
  5
2A0D
 10
50.4361
 20
100.207
 30
0.00000
  70
    32
  0
VERTEX
  8
0
  5
2A0E
 10
50.4086
 20
100.152
 30
0.00000
  70
    32
  0
VERTEX
  8
0
  5
2A0F
 10
50.3811
 20
100.097
 30
0.00000
  70
    32
  0
VERTEX
  8
0
  5
2A10
 10
50.3536
 20
100.041
 30
0.00000
  70
    32
  0
VERTEX
  8
0
  5
2A11
 10
50.3262
 20
99.9839
 30
0.00000
  70
    32
  0
VERTEX
  8
0
  5
2A12
 10
50.2988
 20
99.9259
 30
0.00000
  70
    32
  0
VERTEX
  8
0
  5
2A13
 10
50.2714
 20
99.8671
 30
0.00000
  70
    32
  0
VERTEX
  8
0
  5
2A14
 10
50.2441
 20
99.8074
 30
0.00000
  70
    32
  0
VERTEX
  8
0
  5
2A15
 10
50.2168
 20
99.7468
 30
0.00000
  70
    32
  0
VERTEX
  8
0
  5
2A16
 10
50.1896
 20
99.6853
 30
0.00000
  70
    32
  0
VERTEX
  8
0
  5
2A17
 10
50.1624
 20
99.6229
 30
0.00000
  70
    32
  0
VERTEX
  8
0
  5
2A18
 10
50.1352
 20
99.5596
 30
0.00000
  70
    32
  0
VERTEX
  8
0
  5
2A19
 10
50.1081
 20
99.4954
 30
0.00000
  70
    32
  0
VERTEX
  8
0
  5
2A1A
 10
50.0810
 20
99.4304
 30
0.00000
  70
    32
  0
VERTEX
  8
0
  5
2A1B
 10
50.0540
 20
99.3645
 30
0.00000
  70
    32
  0
VERTEX
  8
0
  5
2A1C
 10
50.0270
 20
99.2976
 30
0.00000
  70
    32
  0
VERTEX
  8
0
  5
2A1D
 10
50.0000
 20
99.2299
 30
0.00000
  70
    32
  0
SEQEND
  8
0
  5
2A1E
  0
LINE
  5
22EF
  8
0
 10
50.0000000000000568
 20
87.7273603685250549
 30
0.0
 11
50.0000000000000568
 21
99.2299364911504682
 31
0.0
  0
LINE
  5
22F0
  8
0
 10
83.2000000000000455
 20
99.2299364911504682
 30
0.0
 11
83.2000000000000455
 21
87.7273603685250549
 31
0.0
  0
POLYLINE
  5
22F1
  8
0
 66
     1
 10
0.0
 20
0.0
 30
0.0
 70
   128
  0
VERTEX
  5
23FF
  8
0
 10
78.6000000000004206
 20
82.4153979430133745
 30
0.0
  0
VERTEX
  5
2400
  8
0
 10
78.693933407644522
 20
82.4351790209622379
 30
0.0
  0
VERTEX
  5
2401
  8
0
 10
79.4004168238088823
 20
82.7902504373915065
 30
0.0
  0
SEQEND
  5
2402
  8
0
  0
POLYLINE
  5
22F2
  8
0
 66
     1
 10
0.0
 20
0.0
 30
0.0
 70
   128
  0
VERTEX
  5
2403
  8
0
 10
54.6000000000004206
 20
82.415397943013275
 30
0.0
  0
VERTEX
  5
2404
  8
0
 10
54.5060665923552889
 20
82.4351790209623374
 30
0.0
  0
VERTEX
  5
2405
  8
0
 10
53.79958317619122
 20
82.7902504373915065
 30
0.0
  0
SEQEND
  5
2406
  8
0
  0
ARC
  5
22F7
  8
0
 10
196.1067084900763007
 20
-72.4123965634158111
 30
0.0
 40
208.0963263013732103
 50
132.1779916862726054
 51
133.0321421158423902
  0
LINE
  5
22F8
  8
1
 10
131.5999999999999943
 20
173.5
 30
0.0
 11
251.1500000000000909
 21
173.5
 31
0.0
  0
LINE
  5
22F9
  8
1
 10
150.1500000000000057
 20
192.0500000000000114
 30
0.0
 11
150.1500000000000057
 21
154.9499999999999886
 31
0.0
  0
ARC
  5
22FA
  8
3
 10
150.1500000000000057
 20
173.5
 30
0.0
 40
3.323499999999739
 50
100.4007820932390018
 51
259.5992179067608845
  0
CIRCLE
  5
22FB
  8
0
 10
150.1500000000000057
 20
173.5
 30
0.0
 40
4.0
  0
LINE
  5
22FD
  8
1
 10
133.2163057781239957
 20
93.2999999999999972
 30
0.0
 11
167.083694221876101
 21
93.2999999999999972
 31
0.0
  0
LINE
  5
22FE
  8
1
 10
133.1500000000000057
 20
91.7999999999999829
 30
0.0
 11
167.1500000000000057
 21
91.7999999999999829
 31
0.0
  0
LINE
  5
2304
  8
1
 10
45.0000000000000568
 20
93.3000000000041183
 30
0.0
 11
88.2000000000000455
 21
93.3000000000041183
 31
0.0
  0
ARC
  5
2305
  8
3
 10
150.1500000000000057
 20
173.5
 30
0.0
 40
3.323499999999739
 50
280.4007820932390018
 51
79.599217906760984
  0
ENDSEC
  0
EOF
