  0
SECTION
  2
HEADER
  9
$ACADVER
  1
AC1009
  9
$INSBASE
 10
0.0
 20
0.0
 30
0.0
  9
$EXTMIN
 10
0.0
 20
-2.960436562073669
 30
0.0
  9
$EXTMAX
 10
251.15000000000001
 20
167.05000000000001
 30
0.0
  9
$LIMMIN
 10
0.0
 20
0.0
  9
$LIMMAX
 10
375.0
 20
270.0
  9
$ORTHOMODE
 70
     1
  9
$REGENMODE
 70
     1
  9
$FILLMODE
 70
     1
  9
$QTEXTMODE
 70
     0
  9
$MIRRTEXT
 70
     0
  9
$DRAGMODE
 70
     2
  9
$LTSCALE
 40
5.0
  9
$OSMODE
 70
    37
  9
$ATTMODE
 70
     1
  9
$TEXTSIZE
 40
0.2
  9
$TRACEWID
 40
0.05
  9
$TEXTSTYLE
  7
STANDARD
  9
$CLAYER
  8
0
  9
$CELTYPE
  6
BYLAYER
  9
$CECOLOR
 62
   256
  9
$DIMSCALE
 40
1.0
  9
$DIMASZ
 40
3.0
  9
$DIMEXO
 40
2.0
  9
$DIMDLI
 40
10.0
  9
$DIMRND
 40
0.0
  9
$DIMDLE
 40
0.0
  9
$DIMEXE
 40
2.0
  9
$DIMTP
 40
0.0
  9
$DIMTM
 40
0.0
  9
$DIMTXT
 40
3.2000000000000002
  9
$DIMCEN
 40
0.0
  9
$DIMTSZ
 40
0.0
  9
$DIMTOL
 70
     0
  9
$DIMLIM
 70
     0
  9
$DIMTIH
 70
     0
  9
$DIMTOH
 70
     0
  9
$DIMSE1
 70
     0
  9
$DIMSE2
 70
     0
  9
$DIMTAD
 70
     1
  9
$DIMZIN
 70
     8
  9
$DIMBLK
  1

  9
$DIMASO
 70
     0
  9
$DIMSHO
 70
     0
  9
$DIMPOST
  1

  9
$DIMAPOST
  1

  9
$DIMALT
 70
     0
  9
$DIMALTD
 70
     2
  9
$DIMALTF
 40
25.399999999999999
  9
$DIMLFAC
 40
1.0
  9
$DIMTOFL
 70
     1
  9
$DIMTVP
 40
1.6000000000000001
  9
$DIMTIX
 70
     0
  9
$DIMSOXD
 70
     0
  9
$DIMSAH
 70
     0
  9
$DIMBLK1
  1

  9
$DIMBLK2
  1

  9
$DIMSTYLE
  2
STANDARD
  9
$DIMCLRD
 70
   256
  9
$DIMCLRE
 70
   256
  9
$DIMCLRT
 70
   256
  9
$DIMTFAC
 40
1.0
  9
$DIMGAP
 40
0.5
  9
$LUNITS
 70
     2
  9
$LUPREC
 70
     1
  9
$SKETCHINC
 40
0.1
  9
$FILLETRAD
 40
0.0
  9
$AUNITS
 70
     0
  9
$AUPREC
 70
     1
  9
$MENU
  1
E:\r13\win\SUPPORT\ACAD
  9
$ELEVATION
 40
0.0
  9
$PELEVATION
 40
0.0
  9
$THICKNESS
 40
0.0
  9
$LIMCHECK
 70
     0
  9
$BLIPMODE
 70
     0
  9
$CHAMFERA
 40
0.0
  9
$CHAMFERB
 40
0.0
  9
$SKPOLY
 70
     0
  9
$TDCREATE
 40
2449840.6171180559
  9
$TDUPDATE
 40
2459242.4412260759
  9
$TDINDWG
 40
0.4204795486
  9
$TDUSRTIMER
 40
0.4204795486
  9
$USRTIMER
 70
     1
  9
$ANGBASE
 50
0.0
  9
$ANGDIR
 70
     0
  9
$PDMODE
 70
     0
  9
$PDSIZE
 40
0.0
  9
$PLINEWID
 40
0.0
  9
$COORDS
 70
     1
  9
$SPLFRAME
 70
     0
  9
$SPLINETYPE
 70
     6
  9
$SPLINESEGS
 70
     8
  9
$ATTDIA
 70
     0
  9
$ATTREQ
 70
     1
  9
$HANDLING
 70
     1
  9
$HANDSEED
  5
2300
  9
$SURFTAB1
 70
     6
  9
$SURFTAB2
 70
     6
  9
$SURFTYPE
 70
     6
  9
$SURFU
 70
     6
  9
$SURFV
 70
     6
  9
$UCSNAME
  2

  9
$UCSORG
 10
0.0
 20
0.0
 30
0.0
  9
$UCSXDIR
 10
1.0
 20
0.0
 30
0.0
  9
$UCSYDIR
 10
0.0
 20
1.0
 30
0.0
  9
$PUCSNAME
  2

  9
$PUCSORG
 10
0.0
 20
0.0
 30
0.0
  9
$PUCSXDIR
 10
1.0
 20
0.0
 30
0.0
  9
$PUCSYDIR
 10
0.0
 20
1.0
 30
0.0
  9
$USERI1
 70
     0
  9
$USERI2
 70
     1
  9
$USERI3
 70
     0
  9
$USERI4
 70
     0
  9
$USERI5
 70
     0
  9
$USERR1
 40
0.0
  9
$USERR2
 40
0.0
  9
$USERR3
 40
0.0
  9
$USERR4
 40
0.0
  9
$USERR5
 40
0.0
  9
$WORLDVIEW
 70
     1
  9
$SHADEDGE
 70
     3
  9
$SHADEDIF
 70
    70
  9
$TILEMODE
 70
     1
  9
$MAXACTVP
 70
    16
  9
$PLIMCHECK
 70
     0
  9
$PEXTMIN
 10
1.0000000000000000E+020
 20
1.0000000000000000E+020
 30
1.0000000000000000E+020
  9
$PEXTMAX
 10
-1.0000000000000000E+020
 20
-1.0000000000000000E+020
 30
-1.0000000000000000E+020
  9
$PLIMMIN
 10
0.0
 20
0.0
  9
$PLIMMAX
 10
12.0
 20
9.0
  9
$UNITMODE
 70
     0
  9
$VISRETAIN
 70
     0
  9
$PLINEGEN
 70
     0
  9
$PSLTSCALE
 70
     0
  0
ENDSEC
  0
SECTION
  2
TABLES
  0
TABLE
  2
VPORT
 70
     1
  0
VPORT
  2
*ACTIVE
 70
     0
 10
0.0
 20
0.0
 11
1.0
 21
1.0
 12
264.70588235294122
 22
100.0
 13
0.0
 23
0.0
 14
10.0
 24
10.0
 15
10.0
 25
10.0
 16
0.0
 26
0.0
 36
1.0
 17
0.0
 27
0.0
 37
0.0
 40
200.0
 41
2.6470588235294108
 42
50.0
 43
0.0
 44
0.0
 50
0.0
 51
0.0
 71
     0
 72
   100
 73
     1
 74
     0
 75
     0
 76
     0
 77
     0
 78
     0
  0
ENDTAB
  0
TABLE
  2
LTYPE
 70
     4
  0
LTYPE
  2
CONTINUOUS
 70
     0
  3
Solid Line
 72
    65
 73
     0
 40
0.0
  0
LTYPE
  2
CENTER
 70
     0
  3
____ _ ____ _ ____ _ ____ _ ____ _ ____ _ ____
 72
    65
 73
     4
 40
2.0
 49
1.25
 49
-0.25
 49
0.25
 49
-0.25
  0
LTYPE
  2
HIDDEN
 70
     0
  3
Hidden __ __ __ __ __ __ __ __ __ __ __ __ __ _
 72
    65
 73
     2
 40
0.375
 49
0.25
 49
-0.125
  0
LTYPE
  2
PHANTOM2
 70
     0
  3
___ _ _ ___ _ _ ___ _ _ ___ _ _
 72
    65
 73
     6
 40
1.25
 49
0.625
 49
-0.125
 49
0.125
 49
-0.125
 49
0.125
 49
-0.125
  0
ENDTAB
  0
TABLE
  2
LAYER
 70
     5
  0
LAYER
  2
0
 70
     0
 62
     7
  6
CONTINUOUS
  0
LAYER
  2
1
 70
     0
 62
     1
  6
CENTER
  0
LAYER
  2
3
 70
     0
 62
     3
  6
CONTINUOUS
  0
LAYER
  2
2
 70
     0
 62
     2
  6
HIDDEN
  0
LAYER
  2
DEFPOINTS
 70
     0
 62
     7
  6
CONTINUOUS
  0
ENDTAB
  0
TABLE
  2
STYLE
 70
     2
  0
STYLE
  2
STANDARD
 70
     0
 40
0.0
 41
1.0
 50
0.0
 71
     0
 42
0.2
  3
TXT
  4
BIGFONT
  0
STYLE
  2
STANDARD1
 70
     0
 40
0.0
 41
1.0
 50
0.0
 71
     0
 42
3.0
  3
txt
  4

  0
ENDTAB
  0
TABLE
  2
VIEW
 70
     1
  0
VIEW
  2
ALL
 70
     0
 40
270.0
 10
220.99159700000001
 20
135.0
 41
0.0
 11
0.0
 21
0.0
 31
1.0
 12
0.0
 22
0.0
 32
0.0
 42
0.0
 43
0.0
 44
0.0
 50
0.0
 71
     0
  0
ENDTAB
  0
TABLE
  2
UCS
 70
     0
  0
ENDTAB
  0
TABLE
  2
APPID
 70
     6
  0
APPID
  2
ACAD
 70
     0
  0
APPID
  2
ACAD_EXEMPT_FROM_CAD_STANDARDS
 70
     0
  0
APPID
  2
ACAD_MLEADERVER
 70
     0
  0
APPID
  2
ACAD_NAV_VCDISPLAY
 70
     0
  0
APPID
  2
ACAD_DSTYLE_DIMJAG
 70
     0
  0
APPID
  2
ACAD_DSTYLE_DIMTALN
 70
     0
  0
ENDTAB
  0
TABLE
  2
DIMSTYLE
 70
     1
  0
DIMSTYLE
  2
STANDARD
 70
     0
  3

  4

  5

  6

  7

 40
1.0
 41
0.18
 42
0.0625
 43
0.38
 44
0.18
 45
0.0
 46
0.0
 47
0.0
 48
0.0
140
0.18
141
0.09
142
0.0
143
25.399999999999999
144
1.0
145
0.0
146
1.0
147
0.09
 71
     0
 72
     0
 73
     1
 74
     1
 75
     0
 76
     0
 77
     0
 78
     0
170
     0
171
     2
172
     0
173
     0
174
     0
175
     0
176
     0
177
     0
178
     0
  0
ENDTAB
  0
ENDSEC
  0
SECTION
  2
BLOCKS
  0
BLOCK
  8
0
  2
$MODEL_SPACE
 70
     0
 10
0.0
 20
0.0
 30
0.0
  3
$MODEL_SPACE
  1

  0
ENDBLK
  5
E8
  8
0
  0
BLOCK
 67
     1
  8
0
  2
$PAPER_SPACE
 70
     0
 10
0.0
 20
0.0
 30
0.0
  3
$PAPER_SPACE
  1

  0
ENDBLK
  5
E6
 67
     1
  8
0
  0
ENDSEC
  0
SECTION
  2
ENTITIES
  0
TEXT
  5
10C7
  8
0
 62
     3
 10
0.0
 20
0.0
 30
0.0
 40
10.0
  1
KCL08-RE
  7
STANDARD1
  0
LINE
  5
13FC
  8
2
 10
145.05000000000001
 20
55.637679805861012
 30
0.0
 11
145.05000000000001
 21
50.0
 31
0.0
  0
LINE
  5
13FD
  8
2
 10
155.25
 20
50.0
 30
0.0
 11
155.25
 21
55.426239900261351
 31
0.0
  0
LINE
  5
140F
  8
1
 10
150.15000000000001
 20
45.0
 30
0.0
 11
150.15000000000001
 21
83.499999999999943
 31
0.0
  0
LINE
  5
1410
  8
1
 10
133.21630577812391
 20
68.0
 30
0.0
 11
167.08369422187599
 21
68.0
 31
0.0
  0
LINE
  5
1411
  8
1
 10
133.15000000000001
 20
66.5
 30
0.0
 11
167.14999999999989
 21
66.5
 31
0.0
  0
ARC
  5
1414
  8
0
 10
137.34999999999991
 20
55.399999999999977
 30
0.0
 40
0.100000000000005
 50
0.0
 51
90.0
  0
ARC
  5
1417
  8
0
 10
162.94999999999999
 20
55.399999999999977
 30
0.0
 40
0.1000000000000068
 50
90.0
 51
180.0
  0
LINE
  5
1419
  8
0
 10
141.67946282695129
 20
58.0
 30
0.0
 11
136.64363766232049
 21
58.0
 31
0.0
  0
LINE
  5
141A
  8
0
 10
136.64363766232049
 20
58.0
 30
0.0
 11
136.6053279093446
 21
55.80523572193119
 31
0.0
  0
LINE
  5
141C
  8
0
 10
163.69467209065519
 20
55.80523572193119
 30
0.0
 11
163.65636233767941
 21
58.0
 31
0.0
  0
LINE
  5
141D
  8
0
 10
163.65636233767941
 20
58.0
 30
0.0
 11
159.30083107935329
 21
58.0
 31
0.0
  0
LINE
  5
141F
  8
0
 10
145.35416847668731
 20
55.5
 30
0.0
 11
136.9052822178916
 21
55.5
 31
0.0
  0
ARC
  5
1421
  8
0
 10
136.9052822178916
 20
55.800000000000011
 30
0.0
 40
0.2999999999999965
 50
178.9999999999998
 51
270.0
  0
LINE
  5
1424
  8
0
 10
137.44999999999999
 20
55.399999999999977
 30
0.0
 11
137.44999999999999
 21
54.0
 31
0.0
  0
LINE
  5
1425
  8
0
 10
162.84999999999991
 20
54.0
 30
0.0
 11
162.84999999999991
 21
55.399999999999977
 31
0.0
  0
LINE
  5
1428
  8
0
 10
163.3947177821083
 20
55.5
 30
0.0
 11
155.4305357491364
 21
55.499999999999943
 31
0.0
  0
ARC
  5
1429
  8
0
 10
163.3947177821083
 20
55.800000000000011
 30
0.0
 40
0.2999999999999972
 50
270.0
 51
1.0000000000001461
  0
LINE
  5
142B
  8
0
 10
161.69999999999999
 20
50.0
 30
0.0
 11
138.59999999999991
 21
50.0
 31
0.0
  0
ARC
  5
142C
  8
0
 10
138.59999999999999
 20
52.0
 30
0.0
 40
2.0000000000000062
 50
180.0
 51
270.0
  0
ARC
  5
142D
  8
0
 10
161.6999999999999
 20
52.0
 30
0.0
 40
2.0000000000000111
 50
270.0
 51
0.0
  0
LINE
  5
142E
  8
0
 10
136.59999999999991
 20
54.0
 30
0.0
 11
136.59999999999991
 21
52.0
 31
0.0
  0
LINE
  5
142F
  8
0
 10
163.69999999999999
 20
52.0
 30
0.0
 11
163.69999999999999
 21
54.0
 31
0.0
  0
LINE
  5
1431
  8
0
 10
163.69999999999999
 20
54.0
 30
0.0
 11
136.59999999999991
 21
54.0
 31
0.0
  0
CIRCLE
  5
1432
  8
0
 10
150.15000000000001
 20
68.0
 30
0.0
 40
5.5
  0
ARC
  5
1434
  8
0
 10
181.28999999999951
 20
146.58999999999651
 30
0.0
 40
74.879999999996514
 50
256.04555713367779
 51
270.0
  0
ARC
  5
1435
  8
0
 10
183.8599999999999
 20
128.56999999999871
 30
0.0
 40
65.099999999998687
 50
259.98163024899202
 51
267.73750494314118
  0
ARC
  5
1436
  8
0
 10
150.15000000000001
 20
66.5
 30
0.0
 40
12.0
 50
58.900562283865582
 51
270.0
  0
ARC
  5
143A
  8
0
 10
168.97177992310691
 20
53.879994183030711
 30
0.0
 40
10.010000000001259
 50
119.69644235781909
 51
143.6885596240659
  0
ARC
  5
143B
  8
0
 10
169.26142225050711
 20
98.182069685594115
 30
0.0
 40
25.000000000000291
 50
238.9005622838655
 51
256.04555713367779
  0
ARC
  5
143D
  8
0
 10
171.59999999999999
 20
48.5
 30
0.0
 40
15.99000000000003
 50
86.647953290490932
 51
118.3266634737129
  0
POLYLINE
  5
143E
  8
0
 66
     1
 10
0.0
 20
0.0
 30
0.0
  0
VERTEX
  5
20FC
  8
0
 10
194.07037632586841
 20
64.27569064618433
 30
0.0
  0
VERTEX
  5
20FD
  8
0
 10
199.42280665492731
 20
65.315118724893239
 30
0.0
  0
VERTEX
  5
20FE
  8
0
 10
203.65000000000001
 20
65.799678971885555
 30
0.0
  0
SEQEND
  5
20FF
  8
0
  0
LINE
  5
143F
  8
0
 10
200.03930479511601
 20
74.095324542420144
 30
0.0
 11
203.65000000000001
 21
75.156804006708171
 31
0.0
  0
POLYLINE
  5
1440
  8
0
 66
     1
 10
0.0
 20
0.0
 30
0.0
  0
VERTEX
  5
2100
  8
0
 10
200.03930479511601
 20
74.095324542420073
 30
0.0
  0
VERTEX
  5
2101
  8
0
 10
193.6496307450449
 20
72.737079083856543
 30
0.0
  0
VERTEX
  5
2102
  8
0
 10
187.165892442055
 20
71.940898947077699
 30
0.0
  0
VERTEX
  5
2103
  8
0
 10
181.28999999999991
 20
71.70999999999998
 30
0.0
  0
SEQEND
  5
2104
  8
0
  0
POLYLINE
  5
1442
  8
0
 66
     1
 10
0.0
 20
0.0
 30
0.0
  0
VERTEX
  5
2105
  8
0
 10
194.07037632586841
 20
64.27569064618433
 30
0.0
  0
VERTEX
  5
2106
  8
0
 10
188.42790447517211
 20
63.630456971844183
 30
0.0
  0
VERTEX
  5
2107
  8
0
 10
182.75066811324359
 20
63.479452431516393
 30
0.0
  0
VERTEX
  5
2108
  8
0
 10
181.28999999999991
 20
63.520748659189003
 30
0.0
  0
SEQEND
  5
2109
  8
0
  0
ARC
  5
1443
  8
0
 10
208.6500000002564
 20
3.5000000007139529
 30
0.0
 40
62.499999999241382
 50
69.902391378813945
 51
70.533717313297203
  0
ARC
  5
1444
  8
0
 10
214.5200000000583
 20
31.510000000160922
 30
0.0
 40
44.979999999828827
 50
69.698484862233741
 51
70.576166106150197
  0
POLYLINE
  5
1445
  8
0
 66
     1
 10
0.0
 20
0.0
 30
0.0
  0
VERTEX
  5
210A
  8
0
 10
203.65000000000001
 20
65.799678971885555
 30
0.0
  0
VERTEX
  5
210B
  8
0
 10
209.09880130327659
 20
65.998388598348456
 30
0.0
  0
VERTEX
  5
210C
  8
0
 10
214.5441869576417
 20
65.721447750019124
 30
0.0
  0
VERTEX
  5
210D
  8
0
 10
219.9447142902516
 20
64.970964113974844
 30
0.0
  0
VERTEX
  5
210E
  8
0
 10
225.2592820271779
 20
63.752649323840217
 30
0.0
  0
VERTEX
  5
210F
  8
0
 10
229.47825484764539
 20
62.427360368520901
 30
0.0
  0
SEQEND
  5
2110
  8
0
  0
POLYLINE
  5
1448
  8
0
 66
     1
 10
0.0
 20
0.0
 30
0.0
  0
VERTEX
  5
2111
  8
0
 10
203.65000000000001
 20
75.156804006708171
 30
0.0
  0
VERTEX
  5
2112
  8
0
 10
207.49543325350879
 20
75.938097663799283
 30
0.0
  0
VERTEX
  5
2113
  8
0
 10
211.39432770150779
 20
76.381266671250046
 30
0.0
  0
VERTEX
  5
2114
  8
0
 10
215.31701040303091
 20
76.482938245321009
 30
0.0
  0
VERTEX
  5
2115
  8
0
 10
219.2336273741389
 20
76.242338603942514
 30
0.0
  0
VERTEX
  5
2116
  8
0
 10
223.1143707947636
 20
75.661298855663503
 30
0.0
  0
VERTEX
  5
2117
  8
0
 10
226.9297058642172
 20
74.744241063809739
 30
0.0
  0
VERTEX
  5
2118
  8
0
 10
229.47825484764539
 20
73.92993649114635
 30
0.0
  0
SEQEND
  5
2119
  8
0
  0
POLYLINE
  5
144A
  8
0
 66
     1
 10
0.0
 20
0.0
 30
0.0
  0
VERTEX
  5
211A
  8
0
 10
230.126281181369
 20
62.194287171911128
 30
0.0
  0
VERTEX
  5
211B
  8
0
 10
231.1211743115889
 20
61.82057508960429
 30
0.0
  0
VERTEX
  5
211C
  8
0
 10
232.105617687521
 20
61.431659490964819
 30
0.0
  0
VERTEX
  5
211D
  8
0
 10
233.07498364403139
 20
61.029732956001112
 30
0.0
  0
VERTEX
  5
211E
  8
0
 10
234.0555657510904
 20
60.603423437521371
 30
0.0
  0
VERTEX
  5
211F
  8
0
 10
235.01605981445019
 20
60.166345145588203
 30
0.0
  0
VERTEX
  5
2120
  8
0
 10
235.9523887169766
 20
59.721255503119998
 30
0.0
  0
VERTEX
  5
2121
  8
0
 10
237.05644620385999
 20
59.171545565244969
 30
0.0
  0
VERTEX
  5
2122
  8
0
 10
238.11836708392499
 20
58.616833557517047
 30
0.0
  0
VERTEX
  5
2123
  8
0
 10
238.81317548912469
 20
58.239663241740402
 30
0.0
  0
VERTEX
  5
2124
  8
0
 10
239.48599241682999
 20
57.863494092499877
 30
0.0
  0
VERTEX
  5
2125
  8
0
 10
240.13496240601501
 20
57.490250437387488
 30
0.0
  0
SEQEND
  5
2126
  8
0
  0
POLYLINE
  5
144B
  8
0
 66
     1
 10
0.0
 20
0.0
 30
0.0
  0
VERTEX
  5
2127
  8
0
 10
246.15000000000001
 20
60.945626465380258
 30
0.0
  0
VERTEX
  5
2128
  8
0
 10
246.14967364730279
 20
60.894531308357607
 30
0.0
  0
VERTEX
  5
2129
  8
0
 10
246.14835289640399
 20
60.830847914171493
 30
0.0
  0
VERTEX
  5
212A
  8
0
 10
246.14539875589239
 20
60.753340124973299
 30
0.0
  0
VERTEX
  5
212B
  8
0
 10
246.1416243692297
 20
60.686908675169889
 30
0.0
  0
VERTEX
  5
212C
  8
0
 10
246.1165645644196
 20
60.42615034168432
 30
0.0
  0
VERTEX
  5
212D
  8
0
 10
246.07932255270259
 20
60.197011559819828
 30
0.0
  0
VERTEX
  5
212E
  8
0
 10
245.9690246083702
 20
59.753634402699269
 30
0.0
  0
VERTEX
  5
212F
  8
0
 10
245.81026596056151
 20
59.329195152876189
 30
0.0
  0
VERTEX
  5
2130
  8
0
 10
245.6025264355211
 20
58.924249659507147
 30
0.0
  0
VERTEX
  5
2131
  8
0
 10
245.34528585949411
 20
58.539353771748772
 30
0.0
  0
VERTEX
  5
2132
  8
0
 10
245.03605525865299
 20
58.175697435418272
 30
0.0
  0
VERTEX
  5
2133
  8
0
 10
244.67296843039941
 20
57.840639482801578
 30
0.0
  0
VERTEX
  5
2134
  8
0
 10
244.25633721635199
 20
57.543853459254031
 30
0.0
  0
VERTEX
  5
2135
  8
0
 10
243.786473458129
 20
57.295012910131113
 30
0.0
  0
VERTEX
  5
2136
  8
0
 10
243.26368899734891
 20
57.103791380788152
 30
0.0
  0
VERTEX
  5
2137
  8
0
 10
242.90742769365599
 20
57.017970295965988
 30
0.0
  0
VERTEX
  5
2138
  8
0
 10
242.52978518078271
 20
56.963615156156891
 30
0.0
  0
VERTEX
  5
2139
  8
0
 10
242.13327717718059
 20
56.94559048382024
 30
0.0
  0
VERTEX
  5
213A
  8
0
 10
241.7204194013014
 20
56.968760801415563
 30
0.0
  0
VERTEX
  5
213B
  8
0
 10
241.33259197184279
 20
57.030279581286493
 30
0.0
  0
VERTEX
  5
213C
  8
0
 10
240.93447820280451
 20
57.135179020958162
 30
0.0
  0
VERTEX
  5
213D
  8
0
 10
240.532970784193
 20
57.28724175985144
 30
0.0
  0
VERTEX
  5
213E
  8
0
 10
240.13496240601501
 20
57.490250437387367
 30
0.0
  0
SEQEND
  5
213F
  8
0
  0
LINE
  5
144C
  8
0
 10
246.15000000000001
 20
61.774558480176097
 30
0.0
 11
246.15000000000001
 21
60.945626465380258
 31
0.0
  0
POLYLINE
  5
144D
  8
0
 66
     1
 10
0.0
 20
0.0
 30
0.0
  0
VERTEX
  5
2140
  8
0
 10
244.846925153352
 20
64.728639507706873
 30
0.0
  0
VERTEX
  5
2141
  8
0
 10
245.17806115898679
 20
64.388260456323337
 30
0.0
  0
VERTEX
  5
2142
  8
0
 10
245.4596821930042
 20
64.020997359946705
 30
0.0
  0
VERTEX
  5
2143
  8
0
 10
245.6923883496415
 20
63.632375688709828
 30
0.0
  0
VERTEX
  5
2144
  8
0
 10
245.8818227493434
 20
63.21746885798575
 30
0.0
  0
VERTEX
  5
2145
  8
0
 10
246.02169969448491
 20
62.78380034331672
 30
0.0
  0
VERTEX
  5
2146
  8
0
 10
246.11237178609849
 20
62.321924745789261
 30
0.0
  0
VERTEX
  5
2147
  8
0
 10
246.1313196775358
 20
62.160684917067442
 30
0.0
  0
VERTEX
  5
2148
  8
0
 10
246.1407335130489
 20
62.046672478031212
 30
0.0
  0
VERTEX
  5
2149
  8
0
 10
246.14678761256451
 20
61.934835677715569
 30
0.0
  0
VERTEX
  5
214A
  8
0
 10
246.14880170025339
 20
61.872461299595791
 30
0.0
  0
VERTEX
  5
214B
  8
0
 10
246.14980234686271
 20
61.814322610142881
 30
0.0
  0
VERTEX
  5
214C
  8
0
 10
246.15000000000001
 20
61.774558480176147
 30
0.0
  0
SEQEND
  5
214D
  8
0
  0
POLYLINE
  5
144E
  8
0
 66
     1
 10
0.0
 20
0.0
 30
0.0
  0
VERTEX
  5
214E
  8
0
 10
230.126281181369
 20
73.695831598867926
 30
0.0
  0
VERTEX
  5
214F
  8
0
 10
231.12988330753629
 20
73.310392187758737
 30
0.0
  0
VERTEX
  5
2150
  8
0
 10
232.12211531530849
 20
72.901609455958351
 30
0.0
  0
VERTEX
  5
2151
  8
0
 10
233.09876606270561
 20
72.472213505285254
 30
0.0
  0
VERTEX
  5
2152
  8
0
 10
234.05562440774781
 20
72.024934437558272
 30
0.0
  0
VERTEX
  5
2153
  8
0
 10
234.98847920845481
 20
71.562502354595779
 30
0.0
  0
VERTEX
  5
2154
  8
0
 10
235.89311932284679
 20
71.0876473582166
 30
0.0
  0
VERTEX
  5
2155
  8
0
 10
236.93844853435729
 20
70.504641114609626
 30
0.0
  0
VERTEX
  5
2156
  8
0
 10
237.9456625985087
 20
69.907507538603966
 30
0.0
  0
VERTEX
  5
2157
  8
0
 10
238.91067857584841
 20
69.301876690399524
 30
0.0
  0
VERTEX
  5
2158
  8
0
 10
239.8294135269235
 20
68.693378630196264
 30
0.0
  0
VERTEX
  5
2159
  8
0
 10
240.69778451228149
 20
68.087643418194034
 30
0.0
  0
VERTEX
  5
215A
  8
0
 10
241.45080901719379
 20
67.536338590488015
 30
0.0
  0
VERTEX
  5
215B
  8
0
 10
242.1625669219851
 20
66.992431722118283
 30
0.0
  0
VERTEX
  5
215C
  8
0
 10
242.8290624424545
 20
66.462726229753173
 30
0.0
  0
VERTEX
  5
215D
  8
0
 10
243.44629979440089
 20
65.954025530061188
 30
0.0
  0
VERTEX
  5
215E
  8
0
 10
244.01028319362331
 20
65.47313303971066
 30
0.0
  0
VERTEX
  5
215F
  8
0
 10
244.5170168559207
 20
65.026852175369982
 30
0.0
  0
VERTEX
  5
2160
  8
0
 10
244.84692515335209
 20
64.728639507706816
 30
0.0
  0
SEQEND
  5
2161
  8
0
  0
LINE
  5
1464
  8
0
 10
77.126719507837464
 20
58.0
 30
0.0
 11
78.601572941897871
 21
56.378693778500008
 31
0.0
  0
LINE
  5
1465
  8
0
 10
54.598420798294619
 20
56.378686984273322
 30
0.0
 11
56.073280492162517
 21
58.0
 31
0.0
  0
LINE
  5
1466
  8
2
 10
61.499999999999993
 20
58.0
 30
0.0
 11
61.499999999999993
 21
50.0
 31
0.0
  0
LINE
  5
1467
  8
2
 10
71.699999999999989
 20
50.0
 30
0.0
 11
71.699999999999989
 21
58.0
 31
0.0
  0
LINE
  5
1473
  8
2
 10
63.276499999999992
 20
73.232334436247186
 30
0.0
 11
63.276499999999992
 21
62.768186495544683
 31
0.0
  0
LINE
  5
1474
  8
2
 10
69.92349999999999
 20
62.768015312259081
 30
0.0
 11
69.92349999999999
 21
73.232343802284731
 31
0.0
  0
LINE
  5
1481
  8
2
 10
62.59999999999998
 20
62.5
 30
0.0
 11
62.59999999999998
 21
73.5
 31
0.0
  0
LINE
  5
1482
  8
2
 10
70.599999999999994
 20
62.5
 30
0.0
 11
70.599999999999994
 21
73.5
 31
0.0
  0
LINE
  5
14B4
  8
1
 10
66.599999999999966
 20
81.489999999999952
 30
0.0
 11
66.599999999999966
 21
44.999999999999943
 31
0.0
  0
LINE
  5
14B5
  8
1
 10
44.999999999999993
 20
68.0
 30
0.0
 11
88.199999999999974
 21
68.0
 31
0.0
  0
LINE
  5
14B6
  8
0
 10
78.611661000877433
 20
55.399999999999977
 30
0.0
 11
79.299999999999329
 21
54.700000000000671
 31
0.0
  0
LINE
  5
14B7
  8
0
 10
53.899999999999999
 20
54.699999999999982
 30
0.0
 11
53.899999999999999
 21
54.0
 31
0.0
  0
LINE
  5
14B8
  8
0
 10
79.299999999999983
 20
54.0
 30
0.0
 11
79.299999999999983
 21
54.699999999999982
 31
0.0
  0
LINE
  5
14B9
  8
0
 10
53.900000000000652
 20
54.700000000000671
 30
0.0
 11
54.588338999122549
 21
55.399999999999977
 31
0.0
  0
LINE
  5
14BA
  8
0
 10
78.611661000877461
 20
55.399999999999977
 30
0.0
 11
54.588338999122591
 21
55.399999999999977
 31
0.0
  0
LINE
  5
14BB
  8
0
 10
78.601572941897871
 20
56.378693778500008
 30
0.0
 11
79.131911067196754
 21
55.80523572193119
 31
0.0
  0
LINE
  5
14BC
  8
0
 10
77.126719507837464
 20
58.0
 30
0.0
 11
56.073280492162517
 21
58.0
 31
0.0
  0
LINE
  5
14BD
  8
0
 10
54.068088932803207
 20
55.80523572193119
 30
0.0
 11
54.598420798294619
 21
56.378686984273322
 31
0.0
  0
LINE
  5
14BE
  8
0
 10
79.092499714936821
 20
55.5
 30
0.0
 11
54.107500285063132
 21
55.5
 31
0.0
  0
POLYLINE
  5
14BF
  8
0
 66
     1
 10
0.0
 20
0.0
 30
0.0
  0
VERTEX
  5
2162
  8
0
 10
79.092499714936821
 20
55.5
 30
0.0
  0
VERTEX
  5
2163
  8
0
 10
79.12159935364943
 20
55.501372125038984
 30
0.0
  0
VERTEX
  5
2164
  8
0
 10
79.153789015630963
 20
55.506877833674139
 30
0.0
  0
VERTEX
  5
2165
  8
0
 10
79.183687823134306
 20
55.517718696320287
 30
0.0
  0
VERTEX
  5
2166
  8
0
 10
79.213954183988164
 20
55.539858831521478
 30
0.0
  0
VERTEX
  5
2167
  8
0
 10
79.236847244718405
 20
55.591397248434824
 30
0.0
  0
VERTEX
  5
2168
  8
0
 10
79.228690754151813
 20
55.6552031885725
 30
0.0
  0
VERTEX
  5
2169
  8
0
 10
79.196900809352087
 20
55.721524888826139
 30
0.0
  0
VERTEX
  5
216A
  8
0
 10
79.131911067196754
 20
55.80523572193119
 30
0.0
  0
SEQEND
  5
216B
  8
0
  0
POLYLINE
  5
14C1
  8
0
 66
     1
 10
0.0
 20
0.0
 30
0.0
  0
VERTEX
  5
216C
  8
0
 10
54.068088932803207
 20
55.80523572193119
 30
0.0
  0
VERTEX
  5
216D
  8
0
 10
54.001292920704877
 20
55.71858420721145
 30
0.0
  0
VERTEX
  5
216E
  8
0
 10
53.965039655836101
 20
55.630880319590801
 30
0.0
  0
VERTEX
  5
216F
  8
0
 10
53.963486668310551
 20
55.588719591908273
 30
0.0
  0
VERTEX
  5
2170
  8
0
 10
53.980090631749299
 20
55.54703248874705
 30
0.0
  0
VERTEX
  5
2171
  8
0
 10
54.006742568564412
 20
55.523009911039757
 30
0.0
  0
VERTEX
  5
2172
  8
0
 10
54.034560498307592
 20
55.510274894882798
 30
0.0
  0
VERTEX
  5
2173
  8
0
 10
54.064450247764363
 20
55.503154418229883
 30
0.0
  0
VERTEX
  5
2174
  8
0
 10
54.099562672464671
 20
55.500095559571321
 30
0.0
  0
VERTEX
  5
2175
  8
0
 10
54.107500285063132
 20
55.5
 30
0.0
  0
SEQEND
  5
2176
  8
0
  0
LINE
  5
14C2
  8
0
 10
53.049999999999969
 20
54.0
 30
0.0
 11
53.049999999999969
 21
52.0
 31
0.0
  0
LINE
  5
14C3
  8
0
 10
80.149999999999977
 20
52.0
 30
0.0
 11
80.149999999999977
 21
54.0
 31
0.0
  0
LINE
  5
14C4
  8
0
 10
80.149999999999977
 20
54.0
 30
0.0
 11
53.049999999999969
 21
54.0
 31
0.0
  0
LINE
  5
14C5
  8
0
 10
78.149999999909397
 20
50.0
 30
0.0
 11
55.049999999999983
 21
50.0
 31
0.0
  0
ARC
  5
14C6
  8
0
 10
55.049999999999997
 20
52.0
 30
0.0
 40
2.0000000000000062
 50
180.0
 51
270.0
  0
ARC
  5
14C7
  8
0
 10
78.149999999999963
 20
52.0
 30
0.0
 40
2.0000000000000111
 50
270.0
 51
0.0
  0
POLYLINE
  5
14C9
  8
0
 66
     1
 10
0.0
 20
0.0
 30
0.0
  0
VERTEX
  5
2177
  8
0
 10
68.615391897374053
 20
72.823500000000024
 30
0.0
  0
VERTEX
  5
2178
  8
0
 10
68.651844004382554
 20
72.832588873394059
 30
0.0
  0
VERTEX
  5
2179
  8
0
 10
68.971076886251581
 20
72.918153404117731
 30
0.0
  0
VERTEX
  5
217A
  8
0
 10
69.27608815934974
 20
73.009486344420623
 30
0.0
  0
VERTEX
  5
217B
  8
0
 10
69.568440882576084
 20
73.105263555363194
 30
0.0
  0
VERTEX
  5
217C
  8
0
 10
69.838946098699978
 20
73.200605117862267
 30
0.0
  0
VERTEX
  5
217D
  8
0
 10
70.123736245863313
 20
73.30750573945943
 30
0.0
  0
VERTEX
  5
217E
  8
0
 10
70.358378220212131
 20
73.400290681568436
 30
0.0
  0
VERTEX
  5
217F
  8
0
 10
70.495989669755858
 20
73.456577073991468
 30
0.0
  0
VERTEX
  5
2180
  8
0
 10
70.579594467056125
 20
73.491422366876009
 30
0.0
  0
VERTEX
  5
2181
  8
0
 10
70.59999999957131
 20
73.499999999819465
 30
0.0
  0
SEQEND
  5
2182
  8
0
  0
POLYLINE
  5
14CA
  8
0
 66
     1
 10
0.0
 20
0.0
 30
0.0
  0
VERTEX
  5
2183
  8
0
 10
64.584608102626191
 20
72.823499999999967
 30
0.0
  0
VERTEX
  5
2184
  8
0
 10
64.869227490147466
 20
72.71171679814438
 30
0.0
  0
VERTEX
  5
2185
  8
0
 10
65.175518645988063
 20
72.608029844379701
 30
0.0
  0
VERTEX
  5
2186
  8
0
 10
65.499890231088983
 20
72.518250685127327
 30
0.0
  0
VERTEX
  5
2187
  8
0
 10
65.843986463326445
 20
72.447491866321045
 30
0.0
  0
VERTEX
  5
2188
  8
0
 10
66.202037716379692
 20
72.400810117087644
 30
0.0
  0
VERTEX
  5
2189
  8
0
 10
66.565581013579077
 20
72.382411712359556
 30
0.0
  0
VERTEX
  5
218A
  8
0
 10
67.038492186944552
 20
72.404558332162196
 30
0.0
  0
VERTEX
  5
218B
  8
0
 10
67.498483501908595
 20
72.473434961324699
 30
0.0
  0
VERTEX
  5
218C
  8
0
 10
67.921529788780333
 20
72.577280584437517
 30
0.0
  0
VERTEX
  5
218D
  8
0
 10
68.315229815322724
 20
72.705992038813065
 30
0.0
  0
VERTEX
  5
218E
  8
0
 10
68.615391897373797
 20
72.823499999999967
 30
0.0
  0
SEQEND
  5
218F
  8
0
  0
POLYLINE
  5
14CB
  8
0
 66
     1
 10
0.0
 20
0.0
 30
0.0
  0
VERTEX
  5
2190
  8
0
 10
64.584608102626134
 20
63.176499999999969
 30
0.0
  0
VERTEX
  5
2191
  8
0
 10
64.460090064051684
 20
63.144868179097557
 30
0.0
  0
VERTEX
  5
2192
  8
0
 10
64.144028573911555
 20
63.057340006286999
 30
0.0
  0
VERTEX
  5
2193
  8
0
 10
63.842997454725321
 20
62.964789209697408
 30
0.0
  0
VERTEX
  5
2194
  8
0
 10
63.555530416971848
 20
62.868573574623042
 30
0.0
  0
VERTEX
  5
2195
  8
0
 10
63.291314933778203
 20
62.773818766658387
 30
0.0
  0
VERTEX
  5
2196
  8
0
 10
63.024675253272783
 20
62.672448960166598
 30
0.0
  0
VERTEX
  5
2197
  8
0
 10
62.808185188414882
 20
62.586157187181577
 30
0.0
  0
VERTEX
  5
2198
  8
0
 10
62.68301634456764
 20
62.534718409420059
 30
0.0
  0
VERTEX
  5
2199
  8
0
 10
62.612094840398811
 20
62.505087589745528
 30
0.0
  0
VERTEX
  5
219A
  8
0
 10
62.600000000150452
 20
62.50000000006338
 30
0.0
  0
SEQEND
  5
219B
  8
0
  0
POLYLINE
  5
14CC
  8
0
 66
     1
 10
0.0
 20
0.0
 30
0.0
  0
VERTEX
  5
219C
  8
0
 10
68.615391897373797
 20
63.176499999999969
 30
0.0
  0
VERTEX
  5
219D
  8
0
 10
68.330772509852551
 20
63.28828320185562
 30
0.0
  0
VERTEX
  5
219E
  8
0
 10
68.024481354011925
 20
63.391970155620299
 30
0.0
  0
VERTEX
  5
219F
  8
0
 10
67.700109768911005
 20
63.481749314872673
 30
0.0
  0
VERTEX
  5
21A0
  8
0
 10
67.356013536673544
 20
63.552508133678941
 30
0.0
  0
VERTEX
  5
21A1
  8
0
 10
66.997962283620296
 20
63.599189882912349
 30
0.0
  0
VERTEX
  5
21A2
  8
0
 10
66.634418986420911
 20
63.617588287640437
 30
0.0
  0
VERTEX
  5
21A3
  8
0
 10
66.161507813055437
 20
63.595441667837811
 30
0.0
  0
VERTEX
  5
21A4
  8
0
 10
65.701516498091394
 20
63.526565038675301
 30
0.0
  0
VERTEX
  5
21A5
  8
0
 10
65.278470211219656
 20
63.422719415562483
 30
0.0
  0
VERTEX
  5
21A6
  8
0
 10
64.884770184677251
 20
63.294007961186942
 30
0.0
  0
VERTEX
  5
21A7
  8
0
 10
64.584608102626191
 20
63.176499999999969
 30
0.0
  0
SEQEND
  5
21A8
  8
0
  0
LINE
  5
14CD
  8
0
 10
71.099999999999994
 20
73.5
 30
0.0
 11
70.60000000000079
 21
73.5
 31
0.0
  0
LINE
  5
14CE
  8
0
 10
62.600000000000009
 20
73.5
 30
0.0
 11
62.099999999999987
 21
73.5
 31
0.0
  0
LINE
  5
14CF
  8
0
 10
62.099999999999987
 20
62.5
 30
0.0
 11
62.599999999999767
 21
62.5
 31
0.0
  0
LINE
  5
14D0
  8
0
 10
70.600000000000165
 20
62.5
 30
0.0
 11
71.099999999999994
 21
62.5
 31
0.0
  0
POLYLINE
  5
14D1
  8
0
 66
     1
 10
0.0
 20
0.0
 30
0.0
  0
VERTEX
  5
21A9
  8
0
 10
62.600000000019591
 20
73.499999999991758
 30
0.0
  0
VERTEX
  5
21AA
  8
0
 10
62.606362300795908
 20
73.497322512348603
 30
0.0
  0
VERTEX
  5
21AB
  8
0
 10
62.666820463745317
 20
73.472017644207426
 30
0.0
  0
VERTEX
  5
21AC
  8
0
 10
62.77609613503531
 20
73.426924244014003
 30
0.0
  0
VERTEX
  5
21AD
  8
0
 10
62.934312726351941
 20
73.363147688302718
 30
0.0
  0
VERTEX
  5
21AE
  8
0
 10
63.069974159378198
 20
73.30993872960255
 30
0.0
  0
VERTEX
  5
21AF
  8
0
 10
63.224177244207951
 20
73.251176472797056
 30
0.0
  0
VERTEX
  5
21B0
  8
0
 10
63.585946223203919
 20
73.120899230674297
 30
0.0
  0
VERTEX
  5
21B1
  8
0
 10
63.813006622729141
 20
73.044900003780754
 30
0.0
  0
VERTEX
  5
21B2
  8
0
 10
64.055183906562291
 20
72.969069147893833
 30
0.0
  0
VERTEX
  5
21B3
  8
0
 10
64.584608102626191
 20
72.823499999999967
 30
0.0
  0
SEQEND
  5
21B4
  8
0
  0
POLYLINE
  5
14D2
  8
0
 66
     1
 10
0.0
 20
0.0
 30
0.0
  0
VERTEX
  5
21B5
  8
0
 10
70.599999999897761
 20
62.50000000004303
 30
0.0
  0
VERTEX
  5
21B6
  8
0
 10
70.573610596994968
 20
62.511087615467488
 30
0.0
  0
VERTEX
  5
21B7
  8
0
 10
70.485922435142925
 20
62.547586089467067
 30
0.0
  0
VERTEX
  5
21B8
  8
0
 10
70.351338561784019
 20
62.60255225929717
 30
0.0
  0
VERTEX
  5
21B9
  8
0
 10
70.169684193676545
 20
62.674650546538317
 30
0.0
  0
VERTEX
  5
21BA
  8
0
 10
70.011124325299619
 20
62.735536069329392
 30
0.0
  0
VERTEX
  5
21BB
  8
0
 10
69.833467795035517
 20
62.80138707114611
 30
0.0
  0
VERTEX
  5
21BC
  8
0
 10
69.635998201065007
 20
62.871513670406728
 30
0.0
  0
VERTEX
  5
21BD
  8
0
 10
69.423112743770673
 20
62.943321142455552
 30
0.0
  0
VERTEX
  5
21BE
  8
0
 10
69.0364541479737
 20
63.063037567927147
 30
0.0
  0
VERTEX
  5
21BF
  8
0
 10
68.615391897373797
 20
63.176499999999969
 30
0.0
  0
SEQEND
  5
21C0
  8
0
  0
POLYLINE
  5
14D3
  8
0
 66
     1
 10
0.0
 20
0.0
 30
0.0
  0
VERTEX
  5
21C1
  8
0
 10
53.799583176191163
 20
57.490250437387488
 30
0.0
  0
VERTEX
  5
21C2
  8
0
 10
54.10699852620094
 20
57.303900113448769
 30
0.0
  0
VERTEX
  5
21C3
  8
0
 10
54.435828853735259
 20
57.159747153930418
 30
0.0
  0
VERTEX
  5
21C4
  8
0
 10
54.599999999999987
 20
57.104256610023981
 30
0.0
  0
SEQEND
  5
21C5
  8
0
  0
POLYLINE
  5
14D4
  8
0
 66
     1
 10
0.0
 20
0.0
 30
0.0
  0
VERTEX
  5
21C6
  8
0
 10
78.600000000000023
 20
57.104278600377768
 30
0.0
  0
VERTEX
  5
21C7
  8
0
 10
78.69393340764455
 20
57.135179020958162
 30
0.0
  0
VERTEX
  5
21C8
  8
0
 10
79.060092921815681
 20
57.28724175985144
 30
0.0
  0
VERTEX
  5
21C9
  8
0
 10
79.400416823808825
 20
57.490250437387488
 30
0.0
  0
SEQEND
  5
21CA
  8
0
  0
LINE
  5
14D5
  8
0
 10
83.199999999999974
 20
62.194287171911128
 30
0.0
 11
83.199999999999974
 21
73.92993649114635
 31
0.0
  0
LINE
  5
14D6
  8
0
 10
50.0
 20
62.194287171911128
 30
0.0
 11
50.0
 21
73.92993649114635
 31
0.0
  0
POLYLINE
  5
14D7
  8
0
 66
     1
 10
0.0
 20
0.0
 30
0.0
  0
VERTEX
  5
21CB
  8
0
 10
49.999999999999957
 20
73.92993649114635
 30
0.0
  0
VERTEX
  5
21CC
  8
0
 10
50.5232495332029
 20
75.072213637323898
 30
0.0
  0
VERTEX
  5
21CD
  8
0
 10
51.058384284008348
 20
75.882956034137578
 30
0.0
  0
VERTEX
  5
21CE
  8
0
 10
51.601331553839422
 20
76.355993442408078
 30
0.0
  0
VERTEX
  5
21CF
  8
0
 10
52.084915057915047
 20
76.489999999999995
 30
0.0
  0
SEQEND
  5
21D0
  8
0
  0
POLYLINE
  5
14D8
  8
3
 66
     1
 10
0.0
 20
0.0
 30
0.0
  0
VERTEX
  5
21D1
  8
3
 10
79.599999999999994
 20
75.156804006708171
 30
0.0
  0
VERTEX
  5
21D2
  8
3
 10
80.135985098268975
 20
75.938097663799283
 30
0.0
  0
VERTEX
  5
21D3
  8
3
 10
80.679421737546065
 20
76.381266671250046
 30
0.0
  0
VERTEX
  5
21D4
  8
3
 10
81.115084942084934
 20
76.489999999999995
 30
0.0
  0
SEQEND
  5
21D5
  8
3
  0
LINE
  5
14D9
  8
0
 10
54.599999999999987
 20
76.489999999999995
 30
0.0
 11
52.084915057915047
 21
76.489999999999995
 31
0.0
  0
LINE
  5
14DA
  8
0
 10
71.099999999999994
 20
76.489999999999995
 30
0.0
 11
62.099999999999987
 21
76.489999999999995
 31
0.0
  0
LINE
  5
14DB
  8
0
 10
81.115084942084934
 20
76.489999999999995
 30
0.0
 11
78.599999999999994
 21
76.489999999999995
 31
0.0
  0
POLYLINE
  5
14DC
  8
3
 66
     1
 10
0.0
 20
0.0
 30
0.0
  0
VERTEX
  5
21D6
  8
3
 10
52.084915057915047
 20
76.489999999999995
 30
0.0
  0
VERTEX
  5
21D7
  8
3
 10
52.631330415626643
 20
76.31883752016671
 30
0.0
  0
VERTEX
  5
21D8
  8
3
 10
53.173587222531459
 20
75.806652730489077
 30
0.0
  0
VERTEX
  5
21D9
  8
3
 10
53.599999999999987
 20
75.156804006708171
 30
0.0
  0
SEQEND
  5
21DA
  8
3
  0
POLYLINE
  5
14DD
  8
0
 66
     1
 10
0.0
 20
0.0
 30
0.0
  0
VERTEX
  5
21DB
  8
0
 10
81.115084942084934
 20
76.489999999999995
 30
0.0
  0
VERTEX
  5
21DC
  8
0
 10
81.661500299796558
 20
76.31883752016671
 30
0.0
  0
VERTEX
  5
21DD
  8
0
 10
82.203757106701346
 20
75.806652730489077
 30
0.0
  0
VERTEX
  5
21DE
  8
0
 10
82.737728461075221
 20
74.957343666482302
 30
0.0
  0
VERTEX
  5
21DF
  8
0
 10
83.199999999999974
 20
73.92993649114635
 30
0.0
  0
SEQEND
  5
21E0
  8
0
  0
POLYLINE
  5
14DE
  8
3
 66
     1
 10
0.0
 20
0.0
 30
0.0
  0
VERTEX
  5
21E1
  8
3
 10
50.0
 20
62.427360368520972
 30
0.0
  0
VERTEX
  5
21E2
  8
3
 10
50.726894499188049
 20
64.018425993046264
 30
0.0
  0
VERTEX
  5
21E3
  8
3
 10
51.470351151050863
 20
65.148909853739781
 30
0.0
  0
VERTEX
  5
21E4
  8
3
 10
52.224711801556303
 20
65.810208285816813
 30
0.0
  0
VERTEX
  5
21E5
  8
3
 10
52.903088803088778
 20
66.0
 30
0.0
  0
SEQEND
  5
21E6
  8
3
  0
POLYLINE
  5
14DF
  8
0
 66
     1
 10
0.0
 20
0.0
 30
0.0
  0
VERTEX
  5
21E7
  8
0
 10
53.799583176191163
 20
57.490250437387431
 30
0.0
  0
VERTEX
  5
21E8
  8
0
 10
53.185749289933497
 20
57.94301999571627
 30
0.0
  0
VERTEX
  5
21E9
  8
0
 10
52.620973288373897
 20
58.399669765425358
 30
0.0
  0
VERTEX
  5
21EA
  8
0
 10
52.107307206856987
 20
58.856816768565579
 30
0.0
  0
VERTEX
  5
21EB
  8
0
 10
51.633349614167791
 20
59.325097209882699
 30
0.0
  0
VERTEX
  5
21EC
  8
0
 10
51.215539790714409
 20
59.789326660149747
 30
0.0
  0
VERTEX
  5
21ED
  8
0
 10
50.856150962156981
 20
60.246275599299508
 30
0.0
  0
VERTEX
  5
21EE
  8
0
 10
50.519966617790281
 20
60.755007227351477
 30
0.0
  0
VERTEX
  5
21EF
  8
0
 10
50.263764271271633
 20
61.248460636392622
 30
0.0
  0
VERTEX
  5
21F0
  8
0
 10
50.136746750537121
 20
61.573315685349137
 30
0.0
  0
VERTEX
  5
21F1
  8
0
 10
50.048544993243908
 20
61.888987997523429
 30
0.0
  0
VERTEX
  5
21F2
  8
0
 10
50.000000000000021
 20
62.194287171911007
 30
0.0
  0
SEQEND
  5
21F3
  8
0
  0
POLYLINE
  5
14E2
  8
0
 66
     1
 10
0.0
 20
0.0
 30
0.0
  0
VERTEX
  5
21F4
  8
0
 10
83.199999999999974
 20
62.194287171911128
 30
0.0
  0
VERTEX
  5
21F5
  8
0
 10
83.135438395654489
 20
61.82057508960429
 30
0.0
  0
VERTEX
  5
21F6
  8
0
 10
83.012132969039527
 20
61.431659490964819
 30
0.0
  0
VERTEX
  5
21F7
  8
0
 10
82.831653960989655
 20
61.029732956001112
 30
0.0
  0
VERTEX
  5
21F8
  8
0
 10
82.58717214251854
 20
60.603423437521371
 30
0.0
  0
VERTEX
  5
21F9
  8
0
 10
82.284768669022526
 20
60.166345145588203
 30
0.0
  0
VERTEX
  5
21FA
  8
0
 10
81.926497274874336
 20
59.721255503119998
 30
0.0
  0
VERTEX
  5
21FB
  8
0
 10
81.417030408436716
 20
59.171545565244969
 30
0.0
  0
VERTEX
  5
21FC
  8
0
 10
80.829377551920857
 20
58.616833557517047
 30
0.0
  0
VERTEX
  5
21FD
  8
0
 10
80.387130129369496
 20
58.239663241740402
 30
0.0
  0
VERTEX
  5
21FE
  8
0
 10
79.910425776878128
 20
57.863494092499877
 30
0.0
  0
VERTEX
  5
21FF
  8
0
 10
79.400416823808825
 20
57.490250437387488
 30
0.0
  0
SEQEND
  5
2200
  8
0
  0
LINE
  5
14E3
  8
3
 10
79.599999999999994
 20
65.799678971885555
 30
0.0
 11
80.296911196911196
 21
66.0
 31
0.0
  0
LINE
  5
14E4
  8
3
 10
52.903088803088778
 20
66.0
 30
0.0
 11
53.599999999999987
 21
65.799678971885555
 31
0.0
  0
POLYLINE
  5
14E5
  8
3
 66
     1
 10
0.0
 20
0.0
 30
0.0
  0
VERTEX
  5
2201
  8
3
 10
80.296911196911196
 20
66.0
 30
0.0
  0
VERTEX
  5
2202
  8
3
 10
81.056158859360636
 20
65.762168630734095
 30
0.0
  0
VERTEX
  5
2203
  8
3
 10
81.809628188652525
 20
65.050484563262955
 30
0.0
  0
VERTEX
  5
2204
  8
3
 10
82.551584828233842
 20
63.870364143066752
 30
0.0
  0
VERTEX
  5
2205
  8
3
 10
83.199999999999974
 20
62.427360368520901
 30
0.0
  0
SEQEND
  5
2206
  8
3
  0
POLYLINE
  5
14E6
  8
3
 66
     1
 10
0.0
 20
0.0
 30
0.0
  0
VERTEX
  5
2207
  8
3
 10
79.171573180942232
 20
64.27569064618433
 30
0.0
  0
VERTEX
  5
2208
  8
3
 10
79.410948419272245
 20
65.315118724893239
 30
0.0
  0
VERTEX
  5
2209
  8
3
 10
79.599999999999994
 20
65.799678971885555
 30
0.0
  0
SEQEND
  5
220A
  8
3
  0
LINE
  5
14E8
  8
3
 10
79.438519892447033
 20
74.095324542420144
 30
0.0
 11
79.599999999999994
 21
75.156804006708171
 31
0.0
  0
LINE
  5
14E9
  8
3
 10
53.600000000000023
 20
75.156804006708171
 30
0.0
 11
53.761480107552948
 21
74.095324542420144
 31
0.0
  0
POLYLINE
  5
14EB
  8
3
 66
     1
 10
0.0
 20
0.0
 30
0.0
  0
VERTEX
  5
220B
  8
3
 10
53.600000000000023
 20
65.799678971885555
 30
0.0
  0
VERTEX
  5
220C
  8
3
 10
53.841983375858391
 20
65.126831170871867
 30
0.0
  0
VERTEX
  5
220D
  8
3
 10
54.028426819057749
 20
64.27569064618433
 30
0.0
  0
SEQEND
  5
220E
  8
3
  0
LINE
  5
14EC
  8
3
 10
54.599999999999987
 20
63.520748659189003
 30
0.0
 11
54.485062611806782
 21
63.46999999999997
 31
0.0
  0
POLYLINE
  5
14ED
  8
3
 66
     1
 10
0.0
 20
0.0
 30
0.0
  0
VERTEX
  5
220F
  8
3
 10
79.171573180942232
 20
64.27569064618433
 30
0.0
  0
VERTEX
  5
2210
  8
3
 10
78.919226497100709
 20
63.630456971844183
 30
0.0
  0
VERTEX
  5
2211
  8
3
 10
78.714937388193192
 20
63.46999999999997
 30
0.0
  0
SEQEND
  5
2212
  8
3
  0
LINE
  5
14EE
  8
3
 10
78.599999999999994
 20
63.46999999999997
 30
0.0
 11
78.714937388193192
 21
63.46999999999997
 31
0.0
  0
LINE
  5
14EF
  8
3
 10
54.485062611806782
 20
63.46999999999997
 30
0.0
 11
54.599999999999987
 21
63.46999999999997
 31
0.0
  0
POLYLINE
  5
14F0
  8
3
 66
     1
 10
0.0
 20
0.0
 30
0.0
  0
VERTEX
  5
2213
  8
3
 10
54.485062611806782
 20
63.46999999999997
 30
0.0
  0
VERTEX
  5
2214
  8
3
 10
54.23131311033665
 20
63.717725154227367
 30
0.0
  0
VERTEX
  5
2215
  8
3
 10
54.028426819057749
 20
64.27569064618433
 30
0.0
  0
SEQEND
  5
2216
  8
3
  0
LINE
  5
14F1
  8
3
 10
78.714937388193192
 20
63.46999999999997
 30
0.0
 11
78.599999999999994
 21
63.520748659189003
 31
0.0
  0
POLYLINE
  5
14F2
  8
3
 66
     1
 10
0.0
 20
0.0
 30
0.0
  0
VERTEX
  5
2217
  8
3
 10
79.438519892447061
 20
74.095324542420073
 30
0.0
  0
VERTEX
  5
2218
  8
3
 10
79.152756294501103
 20
72.737079083856543
 30
0.0
  0
VERTEX
  5
2219
  8
3
 10
78.862785887390658
 20
71.940898947077699
 30
0.0
  0
VERTEX
  5
221A
  8
3
 10
78.599999999999994
 20
71.70999999999998
 30
0.0
  0
SEQEND
  5
221B
  8
3
  0
POLYLINE
  5
14F5
  8
3
 66
     1
 10
0.0
 20
0.0
 30
0.0
  0
VERTEX
  5
221C
  8
3
 10
54.599999999999987
 20
71.710000000000036
 30
0.0
  0
VERTEX
  5
221D
  8
3
 10
54.308129605682232
 20
71.994941006890073
 30
0.0
  0
VERTEX
  5
221E
  8
3
 10
54.018480521301441
 20
72.847595454445866
 30
0.0
  0
VERTEX
  5
221F
  8
3
 10
53.761480107552948
 20
74.095324542420073
 30
0.0
  0
SEQEND
  5
2220
  8
3
  0
LINE
  5
14F6
  8
0
 10
70.099999999999994
 20
74.712016280808584
 30
0.0
 11
63.09999999999998
 21
74.712016280808584
 31
0.0
  0
POLYLINE
  5
14F7
  8
0
 66
     1
 10
0.0
 20
0.0
 30
0.0
  0
VERTEX
  5
2221
  8
0
 10
70.099999999999994
 20
74.712016280808584
 30
0.0
  0
VERTEX
  5
2222
  8
0
 10
70.260022863917285
 20
74.716783528387452
 30
0.0
  0
VERTEX
  5
2223
  8
0
 10
70.415449410584216
 20
74.730812944088939
 30
0.0
  0
VERTEX
  5
2224
  8
0
 10
70.561634455735515
 20
74.753797446248939
 30
0.0
  0
VERTEX
  5
2225
  8
0
 10
70.695154560211364
 20
74.785008642149137
 30
0.0
  0
VERTEX
  5
2226
  8
0
 10
70.815203620076005
 20
74.824735077160824
 30
0.0
  0
VERTEX
  5
2227
  8
0
 10
70.916156226262757
 20
74.871251712237438
 30
0.0
  0
VERTEX
  5
2228
  8
0
 10
70.999891300230246
 20
74.926743586577572
 30
0.0
  0
VERTEX
  5
2229
  8
0
 10
71.058839175935503
 20
74.987280272803957
 30
0.0
  0
VERTEX
  5
222A
  8
0
 10
71.099999999999994
 20
75.103496022508466
 30
0.0
  0
SEQEND
  5
222B
  8
0
  0
POLYLINE
  5
14FA
  8
0
 66
     1
 10
0.0
 20
0.0
 30
0.0
  0
VERTEX
  5
222C
  8
0
 10
62.099999999999987
 20
75.103496022508466
 30
0.0
  0
VERTEX
  5
222D
  8
0
 10
62.115907223657551
 20
75.030538546384719
 30
0.0
  0
VERTEX
  5
222E
  8
0
 10
62.163200989441201
 20
74.960880810572689
 30
0.0
  0
VERTEX
  5
222F
  8
0
 10
62.241986976257287
 20
74.896337328078289
 30
0.0
  0
VERTEX
  5
2230
  8
0
 10
62.350352385294727
 20
74.83887095280619
 30
0.0
  0
VERTEX
  5
2231
  8
0
 10
62.479118331885239
 20
74.79250423250852
 30
0.0
  0
VERTEX
  5
2232
  8
0
 10
62.62913049754772
 20
74.755573381528279
 30
0.0
  0
VERTEX
  5
2233
  8
0
 10
62.78411166292161
 20
74.730912336020594
 30
0.0
  0
VERTEX
  5
2234
  8
0
 10
62.949116650029417
 20
74.71622000359082
 30
0.0
  0
VERTEX
  5
2235
  8
0
 10
63.099999999999959
 20
74.712016280808371
 30
0.0
  0
SEQEND
  5
2236
  8
0
  0
POLYLINE
  5
14FD
  8
0
 66
     1
 10
0.0
 20
0.0
 30
0.0
  0
VERTEX
  5
2237
  8
0
 10
70.099999999999994
 20
59.470829343066491
 30
0.0
  0
VERTEX
  5
2238
  8
0
 10
70.224818717351837
 20
59.460729775938368
 30
0.0
  0
VERTEX
  5
2239
  8
0
 10
70.345020455532222
 20
59.432142946169051
 30
0.0
  0
VERTEX
  5
223A
  8
0
 10
70.557264211249219
 20
59.331792041552553
 30
0.0
  0
VERTEX
  5
223B
  8
0
 10
70.696061019631799
 20
59.225939877436872
 30
0.0
  0
VERTEX
  5
223C
  8
0
 10
70.811866104215085
 20
59.105386231401951
 30
0.0
  0
VERTEX
  5
223D
  8
0
 10
70.946418353134561
 20
58.908724940419681
 30
0.0
  0
VERTEX
  5
223E
  8
0
 10
71.037993881739283
 20
58.701823553845713
 30
0.0
  0
VERTEX
  5
223F
  8
0
 10
71.084331329615054
 20
58.520036614830019
 30
0.0
  0
VERTEX
  5
2240
  8
0
 10
71.099999999999994
 20
58.33884050259968
 30
0.0
  0
SEQEND
  5
2241
  8
0
  0
LINE
  5
14FE
  8
0
 10
70.099999999999994
 20
59.470829343066562
 30
0.0
 11
63.09999999999998
 21
59.470829343066491
 31
0.0
  0
POLYLINE
  5
14FF
  8
0
 66
     1
 10
0.0
 20
0.0
 30
0.0
  0
VERTEX
  5
2242
  8
0
 10
62.099999999999987
 20
58.33884050259968
 30
0.0
  0
VERTEX
  5
2243
  8
0
 10
62.128843929702427
 20
58.585730849163781
 30
0.0
  0
VERTEX
  5
2244
  8
0
 10
62.214308150930428
 20
58.831589828418707
 30
0.0
  0
VERTEX
  5
2245
  8
0
 10
62.315692717224742
 20
59.009526686289
 30
0.0
  0
VERTEX
  5
2246
  8
0
 10
62.451874497758432
 20
59.175956118316428
 30
0.0
  0
VERTEX
  5
2247
  8
0
 10
62.559289503108793
 20
59.272535895983587
 30
0.0
  0
VERTEX
  5
2248
  8
0
 10
62.683648209763213
 20
59.356473033694392
 30
0.0
  0
VERTEX
  5
2249
  8
0
 10
62.790233344364843
 20
59.408492462340632
 30
0.0
  0
VERTEX
  5
224A
  8
0
 10
62.905918117718571
 20
59.446661489455551
 30
0.0
  0
VERTEX
  5
224B
  8
0
 10
63.09999999999998
 20
59.470829343066562
 30
0.0
  0
SEQEND
  5
224C
  8
0
  0
LINE
  5
1500
  8
0
 10
78.599999999999994
 20
56.380422913359212
 30
0.0
 11
78.599999999999994
 21
78.5
 31
0.0
  0
LINE
  5
1501
  8
0
 10
78.599999999999994
 20
55.399999999999977
 30
0.0
 11
78.599999999999994
 21
55.5
 31
0.0
  0
LINE
  5
1502
  8
0
 10
78.599999999999994
 20
78.5
 30
0.0
 11
71.099999999999994
 21
78.5
 31
0.0
  0
LINE
  5
1503
  8
0
 10
71.099999999999994
 20
78.5
 30
0.0
 11
71.099999999999994
 21
58.0
 31
0.0
  0
LINE
  5
1504
  8
0
 10
62.099999999999987
 20
58.0
 30
0.0
 11
62.099999999999987
 21
78.5
 31
0.0
  0
LINE
  5
1505
  8
0
 10
62.099999999999987
 20
78.5
 30
0.0
 11
54.599999999999987
 21
78.5
 31
0.0
  0
LINE
  5
1506
  8
0
 10
54.599999999999987
 20
55.5
 30
0.0
 11
54.599999999999987
 21
55.399999999999977
 31
0.0
  0
LINE
  5
1507
  8
0
 10
54.599999999999987
 20
78.5
 30
0.0
 11
54.599999999999987
 21
56.380423000444921
 31
0.0
  0
LINE
  5
1549
  8
1
 10
131.59999999999991
 20
148.5
 30
0.0
 11
251.15000000000001
 21
148.5
 31
0.0
  0
LINE
  5
154A
  8
1
 10
150.15000000000001
 20
167.05000000000001
 30
0.0
 11
150.15000000000001
 21
129.94999999999999
 31
0.0
  0
POLYLINE
  5
1554
  8
0
 66
     1
 10
0.0
 20
0.0
 30
0.0
  0
VERTEX
  5
224D
  8
0
 10
145.9882180940522
 20
136.5
 30
0.0
  0
VERTEX
  5
224E
  8
0
 10
146.7286931859434
 20
136.2695192374097
 30
0.0
  0
VERTEX
  5
224F
  8
0
 10
147.4581970562819
 20
136.08854573741689
 30
0.0
  0
VERTEX
  5
2250
  8
0
 10
148.2213715050051
 20
135.94729542575399
 30
0.0
  0
VERTEX
  5
2251
  8
0
 10
149.00470956584789
 20
135.85174676797459
 30
0.0
  0
VERTEX
  5
2252
  8
0
 10
149.77127269285651
 20
135.8056482785916
 30
0.0
  0
VERTEX
  5
2253
  8
0
 10
150.54641912723821
 20
135.80618844178159
 30
0.0
  0
VERTEX
  5
2254
  8
0
 10
151.33666496709591
 20
135.85556144955939
 30
0.0
  0
VERTEX
  5
2255
  8
0
 10
152.12377605243611
 20
135.9543151603896
 30
0.0
  0
VERTEX
  5
2256
  8
0
 10
152.6745015015984
 20
136.0534540035022
 30
0.0
  0
VERTEX
  5
2257
  8
0
 10
153.21576121073701
 20
136.17558893095739
 30
0.0
  0
VERTEX
  5
2258
  8
0
 10
153.74961687035301
 20
136.3208063326561
 30
0.0
  0
VERTEX
  5
2259
  8
0
 10
154.31083961064431
 20
136.5
 30
0.0
  0
SEQEND
  5
225A
  8
0
  0
LINE
  5
1555
  8
0
 10
154.5499999999999
 20
136.5
 30
0.0
 11
154.54999999999981
 21
136.0075002850632
 31
0.0
  0
POLYLINE
  5
1556
  8
0
 66
     1
 10
0.0
 20
0.0
 30
0.0
  0
VERTEX
  5
225B
  8
0
 10
155.28900253427119
 20
135.9680889328032
 30
0.0
  0
VERTEX
  5
225C
  8
0
 10
155.09237709944361
 20
135.90129292070489
 30
0.0
  0
VERTEX
  5
225D
  8
0
 10
154.88344164645241
 20
135.86503965583611
 30
0.0
  0
VERTEX
  5
225E
  8
0
 10
154.7790568461258
 20
135.86348666831049
 30
0.0
  0
VERTEX
  5
225F
  8
0
 10
154.67309055643179
 20
135.88009063174931
 30
0.0
  0
VERTEX
  5
2260
  8
0
 10
154.61070649811481
 20
135.9067425685644
 30
0.0
  0
VERTEX
  5
2261
  8
0
 10
154.57722565121679
 20
135.9345604983076
 30
0.0
  0
VERTEX
  5
2262
  8
0
 10
154.55837877640121
 20
135.9644502477644
 30
0.0
  0
VERTEX
  5
2263
  8
0
 10
154.5502540932132
 20
135.99956267246469
 30
0.0
  0
VERTEX
  5
2264
  8
0
 10
154.54999999999981
 20
136.0075002850632
 30
0.0
  0
SEQEND
  5
2265
  8
0
  0
LINE
  5
1557
  8
0
 10
156.35583810150351
 20
136.47134486403149
 30
0.0
 11
156.40994104282871
 21
136.5
 31
0.0
  0
POLYLINE
  5
1558
  8
0
 66
     1
 10
0.0
 20
0.0
 30
0.0
  0
VERTEX
  5
2266
  8
0
 10
155.28900253427119
 20
135.9680889328032
 30
0.0
  0
VERTEX
  5
2267
  8
0
 10
155.74980752235481
 20
136.17131362442171
 30
0.0
  0
VERTEX
  5
2268
  8
0
 10
156.1962093226476
 20
136.38857007072519
 30
0.0
  0
VERTEX
  5
2269
  8
0
 10
156.35583810150351
 20
136.47134486403149
 30
0.0
  0
SEQEND
  5
226A
  8
0
  0
POLYLINE
  5
1559
  8
0
 66
     1
 10
0.0
 20
0.0
 30
0.0
  0
VERTEX
  5
226B
  8
0
 10
156.35615316056951
 20
160.5284890457437
 30
0.0
  0
VERTEX
  5
226C
  8
0
 10
156.22944992154009
 20
160.59441848119781
 30
0.0
  0
VERTEX
  5
226D
  8
0
 10
155.76699179458441
 20
160.82070032986829
 30
0.0
  0
VERTEX
  5
226E
  8
0
 10
155.28900253427119
 20
161.0319110671968
 30
0.0
  0
SEQEND
  5
226F
  8
0
  0
LINE
  5
155A
  8
0
 10
156.4099362885903
 20
160.5
 30
0.0
 11
156.35615316056951
 21
160.5284890457437
 31
0.0
  0
POLYLINE
  5
155B
  8
0
 66
     1
 10
0.0
 20
0.0
 30
0.0
  0
VERTEX
  5
2270
  8
0
 10
154.5499999999999
 20
160.9924997149368
 30
0.0
  0
VERTEX
  5
2271
  8
0
 10
154.55364687993759
 20
161.02159935364941
 30
0.0
  0
VERTEX
  5
2272
  8
0
 10
154.5682455797951
 20
161.05378901563091
 30
0.0
  0
VERTEX
  5
2273
  8
0
 10
154.5968307300476
 20
161.08368782313431
 30
0.0
  0
VERTEX
  5
2274
  8
0
 10
154.65456523220081
 20
161.1139541839882
 30
0.0
  0
VERTEX
  5
2275
  8
0
 10
154.7857676987046
 20
161.13684724471841
 30
0.0
  0
VERTEX
  5
2276
  8
0
 10
154.94245934597819
 20
161.12869075415171
 30
0.0
  0
VERTEX
  5
2277
  8
0
 10
155.09920287745041
 20
161.09690080935201
 30
0.0
  0
VERTEX
  5
2278
  8
0
 10
155.28900253427119
 20
161.0319110671968
 30
0.0
  0
SEQEND
  5
2279
  8
0
  0
LINE
  5
155C
  8
0
 10
154.5499999999999
 20
160.9924997149368
 30
0.0
 11
154.550000000003
 21
160.5
 31
0.0
  0
POLYLINE
  5
155D
  8
0
 66
     1
 10
0.0
 20
0.0
 30
0.0
  0
VERTEX
  5
227A
  8
0
 10
154.3117819059477
 20
160.5
 30
0.0
  0
VERTEX
  5
227B
  8
0
 10
153.57130681405641
 20
160.7304807625903
 30
0.0
  0
VERTEX
  5
227C
  8
0
 10
152.84180294371799
 20
160.91145426258299
 30
0.0
  0
VERTEX
  5
227D
  8
0
 10
152.0786284949948
 20
161.05270457424589
 30
0.0
  0
VERTEX
  5
227E
  8
0
 10
151.29529043415201
 20
161.1482532320253
 30
0.0
  0
VERTEX
  5
227F
  8
0
 10
150.52872730714341
 20
161.1943517214084
 30
0.0
  0
VERTEX
  5
2280
  8
0
 10
149.7535808727616
 20
161.19381155821841
 30
0.0
  0
VERTEX
  5
2281
  8
0
 10
148.9633350329039
 20
161.1444385504405
 30
0.0
  0
VERTEX
  5
2282
  8
0
 10
148.1762239475637
 20
161.04568483961029
 30
0.0
  0
VERTEX
  5
2283
  8
0
 10
147.6254984984015
 20
160.9465459964978
 30
0.0
  0
VERTEX
  5
2284
  8
0
 10
147.08423878926291
 20
160.82441106904261
 30
0.0
  0
VERTEX
  5
2285
  8
0
 10
146.55038312964689
 20
160.6791936673439
 30
0.0
  0
VERTEX
  5
2286
  8
0
 10
145.9891603893557
 20
160.5
 30
0.0
  0
SEQEND
  5
2287
  8
0
  0
LINE
  5
155E
  8
0
 10
145.7499999999973
 20
160.5
 30
0.0
 11
145.74999999999989
 21
160.9924997149368
 31
0.0
  0
POLYLINE
  5
155F
  8
0
 66
     1
 10
0.0
 20
0.0
 30
0.0
  0
VERTEX
  5
2288
  8
0
 10
145.01099746572859
 20
161.0319110671968
 30
0.0
  0
VERTEX
  5
2289
  8
0
 10
145.2076229005562
 20
161.098707079295
 30
0.0
  0
VERTEX
  5
228A
  8
0
 10
145.41655835354749
 20
161.1349603441638
 30
0.0
  0
VERTEX
  5
228B
  8
0
 10
145.52094315387399
 20
161.1365133316894
 30
0.0
  0
VERTEX
  5
228C
  8
0
 10
145.626909443568
 20
161.1199093682506
 30
0.0
  0
VERTEX
  5
228D
  8
0
 10
145.68929350188509
 20
161.0932574314356
 30
0.0
  0
VERTEX
  5
228E
  8
0
 10
145.72277434878299
 20
161.06543950169231
 30
0.0
  0
VERTEX
  5
228F
  8
0
 10
145.74162122359871
 20
161.0355497522356
 30
0.0
  0
VERTEX
  5
2290
  8
0
 10
145.7497459067867
 20
161.00043732753531
 30
0.0
  0
VERTEX
  5
2291
  8
0
 10
145.74999999999989
 20
160.9924997149368
 30
0.0
  0
SEQEND
  5
2292
  8
0
  0
POLYLINE
  5
1560
  8
0
 66
     1
 10
0.0
 20
0.0
 30
0.0
  0
VERTEX
  5
2293
  8
0
 10
145.01099746572859
 20
161.0319110671968
 30
0.0
  0
VERTEX
  5
2294
  8
0
 10
144.55019247764511
 20
160.82868637557829
 30
0.0
  0
VERTEX
  5
2295
  8
0
 10
144.10379067735229
 20
160.61142992927481
 30
0.0
  0
VERTEX
  5
2296
  8
0
 10
143.88991954077031
 20
160.5
 30
0.0
  0
SEQEND
  5
2297
  8
0
  0
LINE
  5
1561
  8
0
 10
141.6877308007839
 20
153.0
 30
0.0
 11
141.6877308007839
 21
144.0
 31
0.0
  0
POLYLINE
  5
1562
  8
0
 66
     1
 10
0.0
 20
0.0
 30
0.0
  0
VERTEX
  5
2298
  8
0
 10
143.8899639470396
 20
136.5
 30
0.0
  0
VERTEX
  5
2299
  8
0
 10
144.07055007845969
 20
136.40558151880211
 30
0.0
  0
VERTEX
  5
229A
  8
0
 10
144.53300820541551
 20
136.1792996701316
 30
0.0
  0
VERTEX
  5
229B
  8
0
 10
145.01099746572859
 20
135.9680889328032
 30
0.0
  0
SEQEND
  5
229C
  8
0
  0
POLYLINE
  5
1563
  8
0
 66
     1
 10
0.0
 20
0.0
 30
0.0
  0
VERTEX
  5
229D
  8
0
 10
145.75
 20
136.0075002850632
 30
0.0
  0
VERTEX
  5
229E
  8
0
 10
145.7463531200622
 20
135.97840064635051
 30
0.0
  0
VERTEX
  5
229F
  8
0
 10
145.73175442020479
 20
135.946210984369
 30
0.0
  0
VERTEX
  5
22A0
  8
0
 10
145.7031692699523
 20
135.91631217686569
 30
0.0
  0
VERTEX
  5
22A1
  8
0
 10
145.64543476779909
 20
135.8860458160118
 30
0.0
  0
VERTEX
  5
22A2
  8
0
 10
145.51423230129529
 20
135.86315275528159
 30
0.0
  0
VERTEX
  5
22A3
  8
0
 10
145.35754065402179
 20
135.87130924584821
 30
0.0
  0
VERTEX
  5
22A4
  8
0
 10
145.2007971225496
 20
135.90309919064791
 30
0.0
  0
VERTEX
  5
22A5
  8
0
 10
145.01099746572859
 20
135.9680889328032
 30
0.0
  0
SEQEND
  5
22A6
  8
0
  0
LINE
  5
1564
  8
0
 10
145.75
 20
136.0075002850632
 30
0.0
 11
145.74999999999989
 21
136.5
 31
0.0
  0
LINE
  5
1565
  8
0
 10
158.612269199216
 20
144.0
 30
0.0
 11
158.612269199216
 21
153.0
 31
0.0
  0
ARC
  5
1566
  8
0
 10
150.15000000000001
 20
148.49999999999989
 30
0.0
 40
13.55000000000005
 50
62.326540699037771
 51
117.67345930096219
  0
ARC
  5
1568
  8
0
 10
150.15000000000001
 20
148.5
 30
0.0
 40
13.550000000000001
 50
152.3265406990395
 51
207.67345930095871
  0
ARC
  5
156A
  8
0
 10
150.15000000000001
 20
148.5
 30
0.0
 40
13.54999999999999
 50
242.326540699037
 51
297.67345930096297
  0
LINE
  5
1573
  8
0
 10
155.64999999999989
 20
144.0
 30
0.0
 11
155.64999999999989
 21
153.0
 31
0.0
  0
LINE
  5
1574
  8
0
 10
144.65000000000001
 20
153.0
 30
0.0
 11
144.65000000000001
 21
144.0
 31
0.0
  0
POLYLINE
  5
1576
  8
0
 66
     1
 10
0.0
 20
0.0
 30
0.0
  0
VERTEX
  5
22A7
  8
0
 10
244.846925153352
 20
142.02727407866311
 30
0.0
  0
VERTEX
  5
22A8
  8
0
 10
245.17806115898679
 20
142.87373393633999
 30
0.0
  0
VERTEX
  5
22A9
  8
0
 10
245.4596821930042
 20
143.7278783264984
 30
0.0
  0
VERTEX
  5
22AA
  8
0
 10
245.6923883496415
 20
144.58651071684639
 30
0.0
  0
VERTEX
  5
22AB
  8
0
 10
245.8818227493434
 20
145.47435809797099
 30
0.0
  0
VERTEX
  5
22AC
  8
0
 10
246.02169969448491
 20
146.363164240857
 30
0.0
  0
VERTEX
  5
22AD
  8
0
 10
246.11237178609849
 20
147.24304303214089
 30
0.0
  0
VERTEX
  5
22AE
  8
0
 10
246.1313196775358
 20
147.52432702642469
 30
0.0
  0
VERTEX
  5
22AF
  8
0
 10
246.1407335130489
 20
147.7002115911082
 30
0.0
  0
VERTEX
  5
22B0
  8
0
 10
246.14678761256451
 20
147.83762477142761
 30
0.0
  0
VERTEX
  5
22B1
  8
0
 10
246.14880170025339
 20
147.8901786198694
 30
0.0
  0
VERTEX
  5
22B2
  8
0
 10
246.14980234686271
 20
147.91805322829859
 30
0.0
  0
VERTEX
  5
22B3
  8
0
 10
246.15000000000001
 20
147.92371881863079
 30
0.0
  0
SEQEND
  5
22B4
  8
0
  0
POLYLINE
  5
1577
  8
0
 66
     1
 10
0.0
 20
0.0
 30
0.0
  0
VERTEX
  5
22B5
  8
0
 10
246.15000000000001
 20
149.07628118136921
 30
0.0
  0
VERTEX
  5
22B6
  8
0
 10
246.14967364730279
 20
149.08560635501999
 30
0.0
  0
VERTEX
  5
22B7
  8
0
 10
246.14835289640399
 20
149.12191729871151
 30
0.0
  0
VERTEX
  5
22B8
  8
0
 10
246.14539875589239
 20
149.1961223294459
 30
0.0
  0
VERTEX
  5
22B9
  8
0
 10
246.1416243692297
 20
149.28108948935591
 30
0.0
  0
VERTEX
  5
22BA
  8
0
 10
246.1165645644196
 20
149.6987803190336
 30
0.0
  0
VERTEX
  5
22BB
  8
0
 10
246.07932255270259
 20
150.13511343604051
 30
0.0
  0
VERTEX
  5
22BC
  8
0
 10
245.92151526930189
 20
151.30293933659931
 30
0.0
  0
VERTEX
  5
22BD
  8
0
 10
245.6772473730511
 20
152.47428725716651
 30
0.0
  0
VERTEX
  5
22BE
  8
0
 10
245.34528585949371
 20
153.63819468460269
 30
0.0
  0
VERTEX
  5
22BF
  8
0
 10
245.1115593945006
 20
154.30774141129001
 30
0.0
  0
VERTEX
  5
22C0
  8
0
 10
244.846925153352
 20
154.9727259213368
 30
0.0
  0
SEQEND
  5
22C1
  8
0
  0
LINE
  5
1578
  8
0
 10
246.15000000000001
 20
147.9237188186307
 30
0.0
 11
246.15000000000001
 21
149.07628118136921
 31
0.0
  0
LINE
  5
1579
  8
0
 10
203.65000000000001
 20
135.5
 30
0.0
 11
181.28999999999991
 21
136.5
 31
0.0
  0
LINE
  5
157A
  8
0
 10
181.28999999999991
 20
160.5
 30
0.0
 11
203.65000000000001
 21
161.5
 31
0.0
  0
LINE
  5
157B
  8
0
 10
229.47825484764539
 20
165.09999999999999
 30
0.0
 11
203.65000000000001
 21
161.5
 31
0.0
  0
LINE
  5
157D
  8
0
 10
203.65000000000001
 20
135.5
 30
0.0
 11
229.47825484764539
 21
131.89999999999989
 31
0.0
  0
LINE
  5
157E
  8
0
 10
230.12628118136891
 20
131.89999999999989
 30
0.0
 11
229.47825484764539
 21
131.89999999999989
 31
0.0
  0
POLYLINE
  5
157F
  8
0
 66
     1
 10
0.0
 20
0.0
 30
0.0
  0
VERTEX
  5
22C2
  8
0
 10
230.126281181369
 20
131.89999999999989
 30
0.0
  0
VERTEX
  5
22C3
  8
0
 10
231.1175042877625
 20
131.9642197384546
 30
0.0
  0
VERTEX
  5
22C4
  8
0
 10
232.09572082052989
 20
132.08633575192559
 30
0.0
  0
VERTEX
  5
22C5
  8
0
 10
233.0562065763545
 20
132.2642796450564
 30
0.0
  0
VERTEX
  5
22C6
  8
0
 10
234.0257170363297
 20
132.50444030374729
 30
0.0
  0
VERTEX
  5
22C7
  8
0
 10
234.97259674947711
 20
132.8001469087628
 30
0.0
  0
VERTEX
  5
22C8
  8
0
 10
235.89311932284679
 20
133.14887830625639
 30
0.0
  0
VERTEX
  5
22C9
  8
0
 10
236.7584239568377
 20
133.53572072918081
 30
0.0
  0
VERTEX
  5
22CA
  8
0
 10
237.59684600904049
 20
133.96936740985819
 30
0.0
  0
VERTEX
  5
22CB
  8
0
 10
238.4058949166444
 20
134.44776796286959
 30
0.0
  0
VERTEX
  5
22CC
  8
0
 10
239.2030255385888
 20
134.9829526142575
 30
0.0
  0
VERTEX
  5
22CD
  8
0
 10
239.967756100939
 20
135.5631599805692
 30
0.0
  0
VERTEX
  5
22CE
  8
0
 10
240.69778451228149
 20
136.1866332602437
 30
0.0
  0
VERTEX
  5
22CF
  8
0
 10
241.44071674830161
 20
136.9024860855512
 30
0.0
  0
VERTEX
  5
22D0
  8
0
 10
242.14150748470411
 20
137.66738962370511
 30
0.0
  0
VERTEX
  5
22D1
  8
0
 10
242.79696357450081
 20
138.47951817247051
 30
0.0
  0
VERTEX
  5
22D2
  8
0
 10
243.42484593638841
 20
139.36880793588711
 30
0.0
  0
VERTEX
  5
22D3
  8
0
 10
243.9998492118383
 20
140.30903180273381
 30
0.0
  0
VERTEX
  5
22D4
  8
0
 10
244.5170168559207
 20
141.2971876024302
 30
0.0
  0
VERTEX
  5
22D5
  8
0
 10
244.84692515335209
 20
142.02727407866311
 30
0.0
  0
SEQEND
  5
22D6
  8
0
  0
POLYLINE
  5
1581
  8
0
 66
     1
 10
0.0
 20
0.0
 30
0.0
  0
VERTEX
  5
22D7
  8
0
 10
244.846925153352
 20
154.9727259213368
 30
0.0
  0
VERTEX
  5
22D8
  8
0
 10
244.34182729470641
 20
156.05547202819159
 30
0.0
  0
VERTEX
  5
22D9
  8
0
 10
243.7671270112584
 20
157.0874680042275
 30
0.0
  0
VERTEX
  5
22DA
  8
0
 10
243.1284910578932
 20
158.0652995167074
 30
0.0
  0
VERTEX
  5
22DB
  8
0
 10
242.4315861894957
 20
158.985552232895
 30
0.0
  0
VERTEX
  5
22DC
  8
0
 10
241.6820791609511
 20
159.844811820053
 30
0.0
  0
VERTEX
  5
22DD
  8
0
 10
240.8854222033433
 20
160.64064910844741
 30
0.0
  0
VERTEX
  5
22DE
  8
0
 10
240.03726020425191
 20
161.3801514664251
 30
0.0
  0
VERTEX
  5
22DF
  8
0
 10
239.14134597064481
 20
162.0604942551719
 30
0.0
  0
VERTEX
  5
22E0
  8
0
 10
238.20143230949
 20
162.67885283587361
 30
0.0
  0
VERTEX
  5
22E1
  8
0
 10
237.2212720277555
 20
163.2324025697161
 30
0.0
  0
VERTEX
  5
22E2
  8
0
 10
236.26581759433441
 20
163.69109916597429
 30
0.0
  0
VERTEX
  5
22E3
  8
0
 10
235.27274375239219
 20
164.09136366734629
 30
0.0
  0
VERTEX
  5
22E4
  8
0
 10
234.24703894159731
 20
164.43001433868611
 30
0.0
  0
VERTEX
  5
22E5
  8
0
 10
233.1936916016187
 20
164.70386944484841
 30
0.0
  0
VERTEX
  5
22E6
  8
0
 10
232.11769017212501
 20
164.90974725068739
 30
0.0
  0
VERTEX
  5
22E7
  8
0
 10
231.024023092785
 20
165.04446602105779
 30
0.0
  0
VERTEX
  5
22E8
  8
0
 10
230.12628118136939
 20
165.09999999999991
 30
0.0
  0
SEQEND
  5
22E9
  8
0
  0
LINE
  5
1582
  8
0
 10
230.12628118136891
 20
165.09999999999999
 30
0.0
 11
229.47825484764539
 21
165.09999999999999
 31
0.0
  0
LINE
  5
1583
  8
0
 10
138.14999999999989
 20
144.0
 30
0.0
 11
159.64999999999989
 21
144.0
 31
0.0
  0
LINE
  5
1584
  8
0
 10
159.64999999999989
 20
153.0
 30
0.0
 11
138.14999999999989
 21
153.0
 31
0.0
  0
POLYLINE
  5
1585
  8
0
 66
     1
 10
0.0
 20
0.0
 30
0.0
  0
VERTEX
  5
22EA
  8
0
 10
159.64999999999989
 20
153.0
 30
0.0
  0
VERTEX
  5
22EB
  8
0
 10
159.82711734570029
 20
152.98409277634241
 30
0.0
  0
VERTEX
  5
22EC
  8
0
 10
159.99986799484381
 20
152.93679901055879
 30
0.0
  0
VERTEX
  5
22ED
  8
0
 10
160.1633861050712
 20
152.8580130237427
 30
0.0
  0
VERTEX
  5
22EE
  8
0
 10
160.3118371807073
 20
152.74964761470531
 30
0.0
  0
VERTEX
  5
22EF
  8
0
 10
160.43373141885041
 20
152.62088166811469
 30
0.0
  0
VERTEX
  5
22F0
  8
0
 10
160.5322028744344
 20
152.47086950245219
 30
0.0
  0
VERTEX
  5
22F1
  8
0
 10
160.59866520206481
 20
152.31588833707841
 30
0.0
  0
VERTEX
  5
22F2
  8
0
 10
160.6385515741232
 20
152.1508833499706
 30
0.0
  0
VERTEX
  5
22F3
  8
0
 10
160.65000000000009
 20
152.0
 30
0.0
  0
SEQEND
  5
22F4
  8
0
  0
LINE
  5
1586
  8
0
 10
160.65000000000001
 20
145.0
 30
0.0
 11
160.65000000000001
 21
152.0
 31
0.0
  0
POLYLINE
  5
1587
  8
0
 66
     1
 10
0.0
 20
0.0
 30
0.0
  0
VERTEX
  5
22F5
  8
0
 10
160.65000000000001
 20
145.0
 30
0.0
  0
VERTEX
  5
22F6
  8
0
 10
160.63700857061809
 20
144.83997713608261
 30
0.0
  0
VERTEX
  5
22F7
  8
0
 10
160.59894239517581
 20
144.68455058941581
 30
0.0
  0
VERTEX
  5
22F8
  8
0
 10
160.53696835179451
 20
144.53836554426451
 30
0.0
  0
VERTEX
  5
22F9
  8
0
 10
160.45361125518471
 20
144.4048454397886
 30
0.0
  0
VERTEX
  5
22FA
  8
0
 10
160.3488025421039
 20
144.28479637992399
 30
0.0
  0
VERTEX
  5
22FB
  8
0
 10
160.2278313026589
 20
144.18384377373721
 30
0.0
  0
VERTEX
  5
22FC
  8
0
 10
160.08593798149121
 20
144.10010869976969
 30
0.0
  0
VERTEX
  5
22FD
  8
0
 10
159.9339497045099
 20
144.04116082406449
 30
0.0
  0
VERTEX
  5
22FE
  8
0
 10
159.64999999999989
 20
144.0
 30
0.0
  0
SEQEND
  5
22FF
  8
0
  0
LINE
  5
1589
  8
0
 10
181.28999999999991
 20
160.5
 30
0.0
 11
138.14999999999989
 21
160.5
 31
0.0
  0
LINE
  5
158B
  8
0
 10
138.14999999999989
 20
160.5
 30
0.0
 11
138.14999999999989
 21
153.0
 31
0.0
  0
LINE
  5
158D
  8
0
 10
138.14999999999989
 20
144.0
 30
0.0
 11
138.14999999999989
 21
136.5
 31
0.0
  0
LINE
  5
158E
  8
0
 10
138.14999999999989
 20
136.5
 30
0.0
 11
181.28999999999991
 21
136.5
 31
0.0
  0
CIRCLE
  5
1649
  8
0
 10
150.15000000000001
 20
148.5
 30
0.0
 40
3.323499999999739
  0
CIRCLE
  5
164A
  8
3
 10
150.15000000000001
 20
148.5
 30
0.0
 40
4.0
  0
ARC
  5
1710
  8
0
 10
150.42362923304111
 20
67.497119951850152
 30
0.0
 40
13.0
 50
268.79392630216432
 51
323.73667630836928
  0
LINE
  5
1BEE
  8
0
 10
163.6999999999999
 20
52.0
 30
0.0
 11
136.59999999999999
 21
52.0
 31
0.0
  0
LINE
  5
1BF1
  8
0
 10
80.149999999999977
 20
52.0
 30
0.0
 11
53.049999999999969
 21
52.0
 31
0.0
  0
ENDSEC
  0
EOF
