  0
SECTION
  2
HEADER
  9
$ACADVER
  1
AC1009
  9
$INSBASE
 10
0.0
 20
0.0
 30
0.0
  9
$EXTMIN
 10
0.0
 20
-2.960436562073669
 30
0.0
  9
$EXTMAX
 10
195.19999999999999
 20
136.09999999999999
 30
0.0
  9
$LIMMIN
 10
0.0
 20
0.0
  9
$LIMMAX
 10
375.0
 20
270.0
  9
$ORTHOMODE
 70
     1
  9
$REGENMODE
 70
     1
  9
$FILLMODE
 70
     1
  9
$QTEXTMODE
 70
     0
  9
$MIRRTEXT
 70
     0
  9
$DRAGMODE
 70
     2
  9
$LTSCALE
 40
5.0
  9
$OSMODE
 70
    37
  9
$ATTMODE
 70
     1
  9
$TEXTSIZE
 40
0.2
  9
$TRACEWID
 40
0.05
  9
$TEXTSTYLE
  7
STANDARD
  9
$CLAYER
  8
0
  9
$CELTYPE
  6
BYLAYER
  9
$CECOLOR
 62
   256
  9
$DIMSCALE
 40
1.0
  9
$DIMASZ
 40
3.0
  9
$DIMEXO
 40
2.0
  9
$DIMDLI
 40
10.0
  9
$DIMRND
 40
0.0
  9
$DIMDLE
 40
0.0
  9
$DIMEXE
 40
2.0
  9
$DIMTP
 40
0.0
  9
$DIMTM
 40
0.0
  9
$DIMTXT
 40
3.2000000000000002
  9
$DIMCEN
 40
0.09
  9
$DIMTSZ
 40
0.0
  9
$DIMTOL
 70
     0
  9
$DIMLIM
 70
     0
  9
$DIMTIH
 70
     0
  9
$DIMTOH
 70
     0
  9
$DIMSE1
 70
     0
  9
$DIMSE2
 70
     0
  9
$DIMTAD
 70
     1
  9
$DIMZIN
 70
     8
  9
$DIMBLK
  1

  9
$DIMASO
 70
     0
  9
$DIMSHO
 70
     0
  9
$DIMPOST
  1

  9
$DIMAPOST
  1

  9
$DIMALT
 70
     0
  9
$DIMALTD
 70
     2
  9
$DIMALTF
 40
25.399999999999999
  9
$DIMLFAC
 40
1.0
  9
$DIMTOFL
 70
     1
  9
$DIMTVP
 40
1.6000000000000001
  9
$DIMTIX
 70
     0
  9
$DIMSOXD
 70
     0
  9
$DIMSAH
 70
     0
  9
$DIMBLK1
  1

  9
$DIMBLK2
  1

  9
$DIMSTYLE
  2
STANDARD
  9
$DIMCLRD
 70
   256
  9
$DIMCLRE
 70
   256
  9
$DIMCLRT
 70
   256
  9
$DIMTFAC
 40
1.0
  9
$DIMGAP
 40
0.5
  9
$LUNITS
 70
     2
  9
$LUPREC
 70
     1
  9
$SKETCHINC
 40
0.1
  9
$FILLETRAD
 40
0.0
  9
$AUNITS
 70
     0
  9
$AUPREC
 70
     1
  9
$MENU
  1
E:\r13\win\SUPPORT\ACAD
  9
$ELEVATION
 40
0.0
  9
$PELEVATION
 40
0.0
  9
$THICKNESS
 40
0.0
  9
$LIMCHECK
 70
     0
  9
$BLIPMODE
 70
     0
  9
$CHAMFERA
 40
0.0
  9
$CHAMFERB
 40
0.0
  9
$SKPOLY
 70
     0
  9
$TDCREATE
 40
2449840.6171180559
  9
$TDUPDATE
 40
2457711.6220796988
  9
$TDINDWG
 40
0.2117821875
  9
$TDUSRTIMER
 40
0.2117821875
  9
$USRTIMER
 70
     1
  9
$ANGBASE
 50
0.0
  9
$ANGDIR
 70
     0
  9
$PDMODE
 70
     0
  9
$PDSIZE
 40
0.0
  9
$PLINEWID
 40
0.0
  9
$COORDS
 70
     1
  9
$SPLFRAME
 70
     0
  9
$SPLINETYPE
 70
     6
  9
$SPLINESEGS
 70
     8
  9
$ATTDIA
 70
     0
  9
$ATTREQ
 70
     1
  9
$HANDLING
 70
     1
  9
$HANDSEED
  5
2648
  9
$SURFTAB1
 70
     6
  9
$SURFTAB2
 70
     6
  9
$SURFTYPE
 70
     6
  9
$SURFU
 70
     6
  9
$SURFV
 70
     6
  9
$UCSNAME
  2

  9
$UCSORG
 10
0.0
 20
0.0
 30
0.0
  9
$UCSXDIR
 10
1.0
 20
0.0
 30
0.0
  9
$UCSYDIR
 10
0.0
 20
1.0
 30
0.0
  9
$PUCSNAME
  2

  9
$PUCSORG
 10
0.0
 20
0.0
 30
0.0
  9
$PUCSXDIR
 10
1.0
 20
0.0
 30
0.0
  9
$PUCSYDIR
 10
0.0
 20
1.0
 30
0.0
  9
$USERI1
 70
     0
  9
$USERI2
 70
     1
  9
$USERI3
 70
     0
  9
$USERI4
 70
     0
  9
$USERI5
 70
     0
  9
$USERR1
 40
0.0
  9
$USERR2
 40
0.0
  9
$USERR3
 40
0.0
  9
$USERR4
 40
0.0
  9
$USERR5
 40
0.0
  9
$WORLDVIEW
 70
     1
  9
$SHADEDGE
 70
     3
  9
$SHADEDIF
 70
    70
  9
$TILEMODE
 70
     1
  9
$MAXACTVP
 70
    16
  9
$PLIMCHECK
 70
     0
  9
$PEXTMIN
 10
1.0000000000000000E+020
 20
1.0000000000000000E+020
 30
1.0000000000000000E+020
  9
$PEXTMAX
 10
-1.0000000000000000E+020
 20
-1.0000000000000000E+020
 30
-1.0000000000000000E+020
  9
$PLIMMIN
 10
0.0
 20
0.0
  9
$PLIMMAX
 10
12.0
 20
9.0
  9
$UNITMODE
 70
     0
  9
$VISRETAIN
 70
     0
  9
$PLINEGEN
 70
     0
  9
$PSLTSCALE
 70
     0
  0
ENDSEC
  0
SECTION
  2
TABLES
  0
TABLE
  2
VPORT
 70
     1
  0
VPORT
  2
*ACTIVE
 70
     0
 10
0.0
 20
0.0
 11
1.0
 21
1.0
 12
172.54273504273499
 22
95.0
 13
0.0
 23
0.0
 14
10.0
 24
10.0
 15
10.0
 25
10.0
 16
0.0
 26
0.0
 36
1.0
 17
0.0
 27
0.0
 37
0.0
 40
190.0
 41
1.816239316239316
 42
50.0
 43
0.0
 44
0.0
 50
0.0
 51
0.0
 71
     0
 72
   100
 73
     1
 74
     0
 75
     0
 76
     0
 77
     0
 78
     0
  0
ENDTAB
  0
TABLE
  2
LTYPE
 70
     4
  0
LTYPE
  2
CONTINUOUS
 70
     0
  3
Solid Line
 72
    65
 73
     0
 40
0.0
  0
LTYPE
  2
CENTER
 70
     0
  3
____ _ ____ _ ____ _ ____ _ ____ _ ____ _ ____
 72
    65
 73
     4
 40
2.0
 49
1.25
 49
-0.25
 49
0.25
 49
-0.25
  0
LTYPE
  2
HIDDEN
 70
     0
  3
Hidden __ __ __ __ __ __ __ __ __ __ __ __ __ _
 72
    65
 73
     2
 40
0.375
 49
0.25
 49
-0.125
  0
LTYPE
  2
PHANTOM2
 70
     0
  3
___ _ _ ___ _ _ ___ _ _ ___ _ _
 72
    65
 73
     6
 40
1.25
 49
0.625
 49
-0.125
 49
0.125
 49
-0.125
 49
0.125
 49
-0.125
  0
ENDTAB
  0
TABLE
  2
LAYER
 70
     5
  0
LAYER
  2
0
 70
     0
 62
     7
  6
CONTINUOUS
  0
LAYER
  2
1
 70
     0
 62
     1
  6
CENTER
  0
LAYER
  2
3
 70
     0
 62
     3
  6
CONTINUOUS
  0
LAYER
  2
2
 70
     0
 62
     2
  6
HIDDEN
  0
LAYER
  2
DEFPOINTS
 70
     0
 62
     7
  6
CONTINUOUS
  0
ENDTAB
  0
TABLE
  2
STYLE
 70
     2
  0
STYLE
  2
STANDARD
 70
     0
 40
0.0
 41
1.0
 50
0.0
 71
     0
 42
0.2
  3
TXT
  4
BIGFONT
  0
STYLE
  2
STANDARD1
 70
     0
 40
0.0
 41
1.0
 50
0.0
 71
     0
 42
3.0
  3
txt
  4

  0
ENDTAB
  0
TABLE
  2
VIEW
 70
     1
  0
VIEW
  2
ALL
 70
     0
 40
270.0
 10
220.99159700000001
 20
135.0
 41
0.0
 11
0.0
 21
0.0
 31
1.0
 12
0.0
 22
0.0
 32
0.0
 42
0.0
 43
0.0
 44
0.0
 50
0.0
 71
     0
  0
ENDTAB
  0
TABLE
  2
UCS
 70
     0
  0
ENDTAB
  0
TABLE
  2
APPID
 70
     6
  0
APPID
  2
ACAD
 70
     0
  0
APPID
  2
ACAD_EXEMPT_FROM_CAD_STANDARDS
 70
     0
  0
APPID
  2
ACAD_MLEADERVER
 70
     0
  0
APPID
  2
ACAD_NAV_VCDISPLAY
 70
     0
  0
APPID
  2
ACAD_DSTYLE_DIMJAG
 70
     0
  0
APPID
  2
ACAD_DSTYLE_DIMTALN
 70
     0
  0
ENDTAB
  0
TABLE
  2
DIMSTYLE
 70
     1
  0
DIMSTYLE
  2
STANDARD
 70
     0
  3

  4

  5

  6

  7

 40
1.0
 41
0.18
 42
0.0625
 43
0.38
 44
0.18
 45
0.0
 46
0.0
 47
0.0
 48
0.0
140
0.18
141
0.09
142
0.0
143
25.399999999999999
144
1.0
145
0.0
146
1.0
147
0.09
 71
     0
 72
     0
 73
     1
 74
     1
 75
     0
 76
     0
 77
     0
 78
     0
170
     0
171
     2
172
     0
173
     0
174
     0
175
     0
176
     0
177
     0
178
     0
  0
ENDTAB
  0
ENDSEC
  0
SECTION
  2
BLOCKS
  0
BLOCK
  8
0
  2
$MODEL_SPACE
 70
     0
 10
0.0
 20
0.0
 30
0.0
  3
$MODEL_SPACE
  1

  0
ENDBLK
  5
E8
  8
0
  0
BLOCK
 67
     1
  8
0
  2
$PAPER_SPACE
 70
     0
 10
0.0
 20
0.0
 30
0.0
  3
$PAPER_SPACE
  1

  0
ENDBLK
  5
E6
 67
     1
  8
0
  0
ENDSEC
  0
SECTION
  2
ENTITIES
  0
TEXT
  5
129C
  8
0
 62
     3
 10
0.0
 20
0.0
 30
0.0
 40
10.0
  1
KCL06-SUS
  7
STANDARD1
  0
POLYLINE
  5
16EE
  8
0
 66
     1
 10
0.0
 20
0.0
 30
0.0
  0
VERTEX
  5
2473
  8
0
 10
124.8071393906998
 20
56.043871816909082
 30
0.0
  0
VERTEX
  5
2474
  8
0
 10
124.89599442865961
 20
56.095882335586708
 30
0.0
  0
VERTEX
  5
2475
  8
0
 10
125.3628715738226
 20
56.390113082952638
 30
0.0
  0
VERTEX
  5
2476
  8
0
 10
125.8
 20
56.700000000000017
 30
0.0
  0
SEQEND
  5
2477
  8
0
  0
LINE
  5
16F0
  8
2
 10
116.5499999999999
 20
55.24352056498234
 30
0.0
 11
116.5499999999999
 21
50.000000000000028
 31
0.0
  0
LINE
  5
16F1
  8
2
 10
123.05
 20
50.000000000000028
 30
0.0
 11
123.05
 21
55.245834005319587
 31
0.0
  0
LINE
  5
16F9
  8
2
 10
117.3415
 20
68.269881503093927
 30
0.0
 11
117.3415
 21
60.730118496906137
 31
0.0
  0
LINE
  5
16FA
  8
2
 10
122.2585
 20
60.730118496906137
 30
0.0
 11
122.2585
 21
68.269881503093927
 31
0.0
  0
LINE
  5
16FB
  8
2
 10
122.7999999999999
 20
61.145898033750349
 30
0.0
 11
122.7999999999999
 21
67.854101966249715
 31
0.0
  0
LINE
  5
16FC
  8
2
 10
116.8
 20
61.145898033750349
 30
0.0
 11
116.8
 21
67.854101966249715
 31
0.0
  0
LINE
  5
1701
  8
1
 10
106.1024637251803
 20
64.5
 30
0.0
 11
133.49753627481959
 21
64.500000000000014
 31
0.0
  0
LINE
  5
1702
  8
1
 10
106.0499999999999
 20
63.300000000000047
 30
0.0
 11
133.55000000000001
 21
63.300000000000047
 31
0.0
  0
LINE
  5
1703
  8
1
 10
119.8
 20
45.000000000000028
 30
0.0
 11
119.8
 21
77.05000000000004
 31
0.0
  0
LINE
  5
1704
  8
0
 10
111.625
 20
54.10000000000003
 30
0.0
 11
111.625
 21
54.000000000000028
 31
0.0
  0
LINE
  5
1705
  8
0
 10
127.97499999999999
 20
54.000000000000028
 30
0.0
 11
127.97499999999999
 21
54.10000000000003
 31
0.0
  0
ARC
  5
1706
  8
0
 10
111.52500000000001
 20
54.10000000000003
 30
0.0
 40
0.0999999999999996
 50
0.0
 51
90.0
  0
ARC
  5
1707
  8
0
 10
128.07499999999999
 20
54.10000000000003
 30
0.0
 40
0.0999999999999996
 50
90.0
 51
180.0
  0
LINE
  5
1709
  8
0
 10
128.54471778210831
 20
54.200000000000017
 30
0.0
 11
111.0552822178916
 21
54.200000000000017
 31
0.0
  0
ARC
  5
170A
  8
0
 10
111.0552822178916
 20
54.500000000000028
 30
0.0
 40
0.3
 50
178.9999999999998
 51
270.0
  0
ARC
  5
170B
  8
0
 10
128.54471778210831
 20
54.500000000000028
 30
0.0
 40
0.2999999999999989
 50
270.0
 51
1.0000000000001461
  0
POLYLINE
  5
170C
  8
0
 66
     1
 10
0.0
 20
0.0
 30
0.0
  0
VERTEX
  5
2478
  8
0
 10
113.8
 20
56.700000000000017
 30
0.0
  0
VERTEX
  5
2479
  8
0
 10
114.29775985063741
 20
56.35012930956902
 30
0.0
  0
VERTEX
  5
247A
  8
0
 10
114.8353481015626
 20
56.019939288473637
 30
0.0
  0
VERTEX
  5
247B
  8
0
 10
115.410325222357
 20
55.715239946214247
 30
0.0
  0
VERTEX
  5
247C
  8
0
 10
116.0202516826016
 20
55.441841292291208
 30
0.0
  0
VERTEX
  5
247D
  8
0
 10
116.55912233485761
 20
55.240105456289569
 30
0.0
  0
VERTEX
  5
247E
  8
0
 10
117.12239081242809
 20
55.065801879612913
 30
0.0
  0
VERTEX
  5
247F
  8
0
 10
117.70508178070401
 20
54.922258559209638
 30
0.0
  0
VERTEX
  5
2480
  8
0
 10
118.3022199050763
 20
54.812803492028202
 30
0.0
  0
VERTEX
  5
2481
  8
0
 10
118.9153031141787
 20
54.739796056099102
 30
0.0
  0
VERTEX
  5
2482
  8
0
 10
119.53860497856989
 20
54.704454383670146
 30
0.0
  0
VERTEX
  5
2483
  8
0
 10
120.16410760221071
 20
54.707213918316171
 30
0.0
  0
VERTEX
  5
2484
  8
0
 10
120.783793089062
 20
54.748510103611949
 30
0.0
  0
VERTEX
  5
2485
  8
0
 10
121.3376798819771
 20
54.819228388979667
 30
0.0
  0
VERTEX
  5
2486
  8
0
 10
121.8827992830299
 20
54.919843640211703
 30
0.0
  0
VERTEX
  5
2487
  8
0
 10
122.41462484878321
 20
55.048168947195279
 30
0.0
  0
VERTEX
  5
2488
  8
0
 10
122.92863013579969
 20
55.20201739981772
 30
0.0
  0
VERTEX
  5
2489
  8
0
 10
123.45459549023261
 20
55.391899926214911
 30
0.0
  0
VERTEX
  5
248A
  8
0
 10
123.95930443919259
 20
55.606351847410309
 30
0.0
  0
VERTEX
  5
248B
  8
0
 10
124.44051730967119
 20
55.842102778751652
 30
0.0
  0
VERTEX
  5
248C
  8
0
 10
124.8071393906998
 20
56.043871816909082
 30
0.0
  0
SEQEND
  5
248D
  8
0
  0
LINE
  5
170D
  8
0
 10
113.8
 20
56.700000000000017
 30
0.0
 11
110.79363766232051
 21
56.700000000000017
 31
0.0
  0
LINE
  5
170E
  8
0
 10
110.79363766232051
 20
56.700000000000017
 30
0.0
 11
110.7553279093447
 21
54.505235721931228
 31
0.0
  0
LINE
  5
170F
  8
0
 10
128.84467209065531
 20
54.505235721931228
 30
0.0
 11
128.80636233767939
 21
56.700000000000017
 31
0.0
  0
LINE
  5
1711
  8
0
 10
128.80636233767939
 20
56.700000000000017
 30
0.0
 11
125.8
 21
56.700000000000017
 31
0.0
  0
LINE
  5
1712
  8
0
 10
110.75
 20
54.000000000000028
 30
0.0
 11
110.75
 21
52.000000000000028
 31
0.0
  0
LINE
  5
1713
  8
0
 10
128.84999999999999
 20
52.000000000000028
 30
0.0
 11
128.84999999999999
 21
54.000000000000028
 31
0.0
  0
LINE
  5
1714
  8
0
 10
128.84999999999999
 20
54.000000000000028
 30
0.0
 11
110.75
 21
54.000000000000028
 31
0.0
  0
LINE
  5
1715
  8
0
 10
126.84999999999999
 20
50.000000000000028
 30
0.0
 11
112.75
 21
50.000000000000028
 31
0.0
  0
ARC
  5
1716
  8
0
 10
112.75
 20
52.000000000000028
 30
0.0
 40
1.9999999999999949
 50
180.0
 51
270.0
  0
ARC
  5
1717
  8
0
 10
126.84999999999999
 20
52.000000000000028
 30
0.0
 40
1.9999999999999949
 50
270.0
 51
0.0
  0
CIRCLE
  5
1719
  8
0
 10
119.8
 20
64.500000000000014
 30
0.0
 40
4.5
  0
ARC
  5
171B
  8
0
 10
141.31000000000111
 20
137.48000000002401
 30
0.0
 40
75.030000000023961
 50
265.81540927186887
 51
268.28919606632451
  0
ARC
  5
171C
  8
0
 10
139.07000000000039
 20
132.58000000000959
 30
0.0
 40
65.140000000009579
 50
263.52445805387418
 51
270.0
  0
ARC
  5
171D
  8
0
 10
133.41525723450499
 20
82.759888757088419
 30
0.0
 40
14.99999999999997
 50
235.0211520291474
 51
263.5244580538735
  0
ARC
  5
171E
  8
0
 10
116.933339248818
 20
68.506661924332903
 30
0.0
 40
14.74170498741579
 50
302.28407084994109
 51
317.14415037535508
  0
ARC
  5
1720
  8
0
 10
135.8699100650702
 20
52.640080280186261
 30
0.0
 40
10.00999999999997
 50
90.199460860801807
 51
144.3093582997538
  0
ARC
  5
1721
  8
0
 10
119.8
 20
63.300000000000047
 30
0.0
 40
8.75
 50
55.021152029147657
 51
240.86045979633209
  0
POLYLINE
  5
1722
  8
0
 66
     1
 10
0.0
 20
0.0
 30
0.0
  0
VERTEX
  5
248E
  8
0
 10
154.5511090988918
 20
63.627620689437208
 30
0.0
  0
VERTEX
  5
248F
  8
0
 10
158.40993805704579
 20
64.354093059619231
 30
0.0
  0
VERTEX
  5
2490
  8
0
 10
159.80000000000001
 20
64.531421841922281
 30
0.0
  0
SEQEND
  5
2491
  8
0
  0
POLYLINE
  5
1723
  8
0
 66
     1
 10
0.0
 20
0.0
 30
0.0
  0
VERTEX
  5
2492
  8
0
 10
149.15468473738019
 20
68.225367425898185
 30
0.0
  0
VERTEX
  5
2493
  8
0
 10
153.4347687512367
 20
69.404673355059373
 30
0.0
  0
VERTEX
  5
2494
  8
0
 10
157.80134903741049
 20
70.206457767867903
 30
0.0
  0
VERTEX
  5
2495
  8
0
 10
159.80000000000001
 20
70.443776517949402
 30
0.0
  0
SEQEND
  5
2496
  8
0
  0
POLYLINE
  5
1724
  8
0
 66
     1
 10
0.0
 20
0.0
 30
0.0
  0
VERTEX
  5
2497
  8
0
 10
149.15468473738019
 20
68.225367425898185
 30
0.0
  0
VERTEX
  5
2498
  8
0
 10
143.50743366605639
 20
67.591318043375082
 30
0.0
  0
VERTEX
  5
2499
  8
0
 10
139.06999999999999
 20
67.440000000000055
 30
0.0
  0
SEQEND
  5
249A
  8
0
  0
POLYLINE
  5
1726
  8
0
 66
     1
 10
0.0
 20
0.0
 30
0.0
  0
VERTEX
  5
249B
  8
0
 10
154.5511090988918
 20
63.627620689437208
 30
0.0
  0
VERTEX
  5
249C
  8
0
 10
148.0640637086766
 20
62.75461259104015
 30
0.0
  0
VERTEX
  5
249D
  8
0
 10
141.52561581542321
 20
62.450309811247827
 30
0.0
  0
VERTEX
  5
249E
  8
0
 10
139.06999999999999
 20
62.483444745775166
 30
0.0
  0
SEQEND
  5
249F
  8
0
  0
ARC
  5
1727
  8
0
 10
164.80000000012441
 20
19.80000000035475
 30
0.0
 40
45.009999999624092
 50
70.379576667406141
 51
71.122158757625598
  0
ARC
  5
1728
  8
0
 10
169.57999999997239
 20
37.78999999991661
 30
0.0
 40
32.28000000008786
 50
71.329227744239091
 51
72.357998515265734
  0
POLYLINE
  5
172A
  8
0
 66
     1
 10
0.0
 20
0.0
 30
0.0
  0
VERTEX
  5
24A0
  8
0
 10
159.80000000000001
 20
64.531421841922281
 30
0.0
  0
VERTEX
  5
24A1
  8
0
 10
163.71762680433281
 20
64.796983990766591
 30
0.0
  0
VERTEX
  5
24A2
  8
0
 10
167.64349112223951
 20
64.720091921519327
 30
0.0
  0
VERTEX
  5
24A3
  8
0
 10
171.54771475575899
 20
64.301330829256244
 30
0.0
  0
VERTEX
  5
24A4
  8
0
 10
175.4005842056057
 20
63.54388773874431
 30
0.0
  0
VERTEX
  5
24A5
  8
0
 10
179.1727768088399
 20
62.45352724925894
 30
0.0
  0
VERTEX
  5
24A6
  8
0
 10
179.3630530973451
 20
62.388937348610938
 30
0.0
  0
SEQEND
  5
24A7
  8
0
  0
LINE
  5
172C
  8
0
 10
177.03411323462259
 20
69.197556350111455
 30
0.0
 11
179.3630530973451
 21
68.551831416457105
 31
0.0
  0
POLYLINE
  5
172D
  8
0
 66
     1
 10
0.0
 20
0.0
 30
0.0
  0
VERTEX
  5
24A8
  8
0
 10
159.80000000000001
 20
70.443776517949402
 30
0.0
  0
VERTEX
  5
24A9
  8
0
 10
164.2329224675095
 20
70.686840372262736
 30
0.0
  0
VERTEX
  5
24AA
  8
0
 10
168.67016073745211
 20
70.542624645028823
 30
0.0
  0
VERTEX
  5
24AB
  8
0
 10
173.07794474731571
 20
70.012226905011801
 30
0.0
  0
VERTEX
  5
24AC
  8
0
 10
177.03411323462259
 20
69.197556350111427
 30
0.0
  0
SEQEND
  5
24AD
  8
0
  0
POLYLINE
  5
172F
  8
0
 66
     1
 10
0.0
 20
0.0
 30
0.0
  0
VERTEX
  5
24AE
  8
0
 10
179.91378857642499
 20
62.196621267114267
 30
0.0
  0
VERTEX
  5
24AF
  8
0
 10
180.5552948097905
 20
61.962399954460103
 30
0.0
  0
VERTEX
  5
24B0
  8
0
 10
181.19032319147351
 20
61.719620689030542
 30
0.0
  0
VERTEX
  5
24B1
  8
0
 10
181.81591703898891
 20
61.469637235309001
 30
0.0
  0
VERTEX
  5
24B2
  8
0
 10
182.4489165359258
 20
61.205473346804808
 30
0.0
  0
VERTEX
  5
24B3
  8
0
 10
183.06922591944331
 20
60.935542804815697
 30
0.0
  0
VERTEX
  5
24B4
  8
0
 10
183.674155728899
 20
60.661550943659343
 30
0.0
  0
VERTEX
  5
24B5
  8
0
 10
184.2453559298304
 20
60.392811072484399
 30
0.0
  0
VERTEX
  5
24B6
  8
0
 10
184.8000269181158
 20
60.122414679900892
 30
0.0
  0
VERTEX
  5
24B7
  8
0
 10
185.33601726768109
 20
59.852117232195162
 30
0.0
  0
VERTEX
  5
24B8
  8
0
 10
185.8662024160673
 20
59.57578924475974
 30
0.0
  0
VERTEX
  5
24B9
  8
0
 10
186.3746337171325
 20
59.302322900640903
 30
0.0
  0
VERTEX
  5
24BA
  8
0
 10
186.8590459927012
 20
59.033895930583952
 30
0.0
  0
VERTEX
  5
24BB
  8
0
 10
187.19012973202891
 20
58.845898511660842
 30
0.0
  0
SEQEND
  5
24BC
  8
0
  0
POLYLINE
  5
1730
  8
0
 66
     1
 10
0.0
 20
0.0
 30
0.0
  0
VERTEX
  5
24BD
  8
0
 10
190.1999999999999
 20
60.589561164592141
 30
0.0
  0
VERTEX
  5
24BE
  8
0
 10
190.19969797652161
 20
60.554718042389233
 30
0.0
  0
VERTEX
  5
24BF
  8
0
 10
190.19857007741871
 20
60.513757179879747
 30
0.0
  0
VERTEX
  5
24C0
  8
0
 10
190.19615793077219
 20
60.465028947181906
 30
0.0
  0
VERTEX
  5
24C1
  8
0
 10
190.19314848540441
 20
60.423741547472197
 30
0.0
  0
VERTEX
  5
24C2
  8
0
 10
190.17404484788071
 20
60.265343249322093
 30
0.0
  0
VERTEX
  5
24C3
  8
0
 10
190.14663908964931
 20
60.12949217752282
 30
0.0
  0
VERTEX
  5
24C4
  8
0
 10
190.03389985543359
 20
59.787133301549581
 30
0.0
  0
VERTEX
  5
24C5
  8
0
 10
189.86248614815199
 20
59.472997559502211
 30
0.0
  0
VERTEX
  5
24C6
  8
0
 10
189.63156630375971
 20
59.188851847187422
 30
0.0
  0
VERTEX
  5
24C7
  8
0
 10
189.41658934355269
 20
58.996906263046696
 30
0.0
  0
VERTEX
  5
24C8
  8
0
 10
189.16517174267429
 20
58.831277543501109
 30
0.0
  0
VERTEX
  5
24C9
  8
0
 10
188.8780072973683
 20
58.700504396394713
 30
0.0
  0
VERTEX
  5
24CA
  8
0
 10
188.55578980387901
 20
58.613125529571683
 30
0.0
  0
VERTEX
  5
24CB
  8
0
 10
188.2869621843754
 20
58.581802221540393
 30
0.0
  0
VERTEX
  5
24CC
  8
0
 10
187.9991307456192
 20
58.588502301833792
 30
0.0
  0
VERTEX
  5
24CD
  8
0
 10
187.69663914148919
 20
58.641050178405642
 30
0.0
  0
VERTEX
  5
24CE
  8
0
 10
187.44449510275771
 20
58.722929425934133
 30
0.0
  0
VERTEX
  5
24CF
  8
0
 10
187.19012973202891
 20
58.845898511660842
 30
0.0
  0
SEQEND
  5
24D0
  8
0
  0
LINE
  5
1731
  8
0
 10
190.19999999999999
 20
61.422900795289621
 30
0.0
 11
190.1999999999999
 21
60.589561164592141
 31
0.0
  0
POLYLINE
  5
1732
  8
0
 66
     1
 10
0.0
 20
0.0
 30
0.0
  0
VERTEX
  5
24D1
  8
0
 10
189.22115513767619
 20
63.406858215982169
 30
0.0
  0
VERTEX
  5
24D2
  8
0
 10
189.48825591360631
 20
63.171304547306448
 30
0.0
  0
VERTEX
  5
24D3
  8
0
 10
189.71233333499981
 20
62.9097343766324
 30
0.0
  0
VERTEX
  5
24D4
  8
0
 10
189.89393375347041
 20
62.625503554720133
 30
0.0
  0
VERTEX
  5
24D5
  8
0
 10
190.0336035206316
 20
62.321967932329763
 30
0.0
  0
VERTEX
  5
24D6
  8
0
 10
190.1318889880969
 20
62.002483360221341
 30
0.0
  0
VERTEX
  5
24D7
  8
0
 10
190.166519844509
 20
61.830675066968247
 30
0.0
  0
VERTEX
  5
24D8
  8
0
 10
190.18323132417919
 20
61.711972050545519
 30
0.0
  0
VERTEX
  5
24D9
  8
0
 10
190.1916445307628
 20
61.627125015987737
 30
0.0
  0
VERTEX
  5
24DA
  8
0
 10
190.19732105560411
 20
61.538605355425233
 30
0.0
  0
VERTEX
  5
24DB
  8
0
 10
190.19905302208301
 20
61.491704812740579
 30
0.0
  0
VERTEX
  5
24DC
  8
0
 10
190.1998672995278
 20
61.448658993040183
 30
0.0
  0
VERTEX
  5
24DD
  8
0
 10
190.19999999999999
 20
61.422900795289621
 30
0.0
  0
SEQEND
  5
24DE
  8
0
  0
POLYLINE
  5
1733
  8
0
 66
     1
 10
0.0
 20
0.0
 30
0.0
  0
VERTEX
  5
24DF
  8
0
 10
179.91378857642499
 20
68.371223220429684
 30
0.0
  0
VERTEX
  5
24E0
  8
0
 10
180.5498275032277
 20
68.14882975063054
 30
0.0
  0
VERTEX
  5
24E1
  8
0
 10
181.1783346229488
 20
67.914314108831519
 30
0.0
  0
VERTEX
  5
24E2
  8
0
 10
181.79631279351219
 20
67.66909138061385
 30
0.0
  0
VERTEX
  5
24E3
  8
0
 10
182.42080008654179
 20
67.406040282004113
 30
0.0
  0
VERTEX
  5
24E4
  8
0
 10
183.03157314557811
 20
67.133673655987764
 30
0.0
  0
VERTEX
  5
24E5
  8
0
 10
183.6261221958238
 20
66.853806551447917
 30
0.0
  0
VERTEX
  5
24E6
  8
0
 10
184.18598921197889
 20
66.576486567512205
 30
0.0
  0
VERTEX
  5
24E7
  8
0
 10
184.7289791651705
 20
66.294476433964746
 30
0.0
  0
VERTEX
  5
24E8
  8
0
 10
185.25328878063081
 20
66.009610535919052
 30
0.0
  0
VERTEX
  5
24E9
  8
0
 10
185.77071930055209
 20
65.715927753804579
 30
0.0
  0
VERTEX
  5
24EA
  8
0
 10
186.26712298552891
 20
65.422169404747649
 30
0.0
  0
VERTEX
  5
24EB
  8
0
 10
186.74074641105489
 20
65.130577583794121
 30
0.0
  0
VERTEX
  5
24EC
  8
0
 10
187.22719259767899
 20
64.819114782189928
 30
0.0
  0
VERTEX
  5
24ED
  8
0
 10
187.68492840281411
 20
64.514671915366819
 30
0.0
  0
VERTEX
  5
24EE
  8
0
 10
188.11150500401999
 20
64.220696591009101
 30
0.0
  0
VERTEX
  5
24EF
  8
0
 10
188.5193896593706
 20
63.929937192273982
 30
0.0
  0
VERTEX
  5
24F0
  8
0
 10
188.89041665936921
 20
63.657059333861127
 30
0.0
  0
VERTEX
  5
24F1
  8
0
 10
189.22115513767619
 20
63.406858215982169
 30
0.0
  0
SEQEND
  5
24F2
  8
0
  0
LINE
  5
1746
  8
2
 10
57.5
 20
56.699999999999989
 30
0.0
 11
57.5
 21
50.0
 31
0.0
  0
LINE
  5
1747
  8
2
 10
63.999999999999993
 20
50.0
 30
0.0
 11
63.999999999999993
 21
56.699999999999989
 31
0.0
  0
LINE
  5
1791
  8
1
 10
60.749999999999993
 20
75.690000000000055
 30
0.0
 11
60.749999999999993
 21
45.0
 31
0.0
  0
LINE
  5
1792
  8
1
 10
44.999999999999993
 20
64.5
 30
0.0
 11
76.5
 21
64.500000000000014
 31
0.0
  0
LINE
  5
1793
  8
0
 10
52.575000000000003
 20
54.100000000000001
 30
0.0
 11
52.575000000000003
 21
54.000000000000007
 31
0.0
  0
LINE
  5
1794
  8
0
 10
68.924999999999997
 20
54.000000000000007
 30
0.0
 11
68.924999999999997
 21
54.100000000000001
 31
0.0
  0
ARC
  5
1795
  8
0
 10
52.47499999999998
 20
54.100000000000001
 30
0.0
 40
0.0999999999999996
 50
0.0
 51
90.0
  0
ARC
  5
1796
  8
0
 10
69.025000000000006
 20
54.100000000000001
 30
0.0
 40
0.0999999999999996
 50
90.0
 51
180.0
  0
POLYLINE
  5
1798
  8
0
 66
     1
 10
0.0
 20
0.0
 30
0.0
  0
VERTEX
  5
24F3
  8
0
 10
67.46673749357312
 20
56.699999999999989
 30
0.0
  0
VERTEX
  5
24F4
  8
0
 10
67.882408946530958
 20
56.354461282570817
 30
0.0
  0
VERTEX
  5
24F5
  8
0
 10
68.269346812883526
 20
56.027376728856623
 30
0.0
  0
VERTEX
  5
24F6
  8
0
 10
68.627941109512477
 20
55.720077924215801
 30
0.0
  0
VERTEX
  5
24F7
  8
0
 10
68.949032218214043
 20
55.44184129229118
 30
0.0
  0
VERTEX
  5
24F8
  8
0
 10
69.177021429312745
 20
55.242660332852473
 30
0.0
  0
VERTEX
  5
24F9
  8
0
 10
69.373883945663223
 20
55.069662408547039
 30
0.0
  0
VERTEX
  5
24FA
  8
0
 10
69.538398158819405
 20
54.924410495794241
 30
0.0
  0
VERTEX
  5
24FB
  8
0
 10
69.664351468562884
 20
54.812803492028173
 30
0.0
  0
VERTEX
  5
24FC
  8
0
 10
69.745980977739478
 20
54.740292028459933
 30
0.0
  0
VERTEX
  5
24FD
  8
0
 10
69.786762134271143
 20
54.7040143511542
 30
0.0
  0
VERTEX
  5
24FE
  8
0
 10
69.791272467513707
 20
54.700000000019749
 30
0.0
  0
SEQEND
  5
24FF
  8
0
  0
LINE
  5
1799
  8
0
 10
67.46673749357312
 20
56.699999999999989
 30
0.0
 11
54.033262506426873
 21
56.699999999999989
 31
0.0
  0
LINE
  5
179A
  8
0
 10
51.708727532464103
 20
54.699999999999989
 30
0.0
 11
51.70532790934471
 21
54.5052357219312
 31
0.0
  0
LINE
  5
179B
  8
0
 10
69.794672090655283
 20
54.5052357219312
 30
0.0
 11
69.79127246753589
 21
54.699999999999989
 31
0.0
  0
POLYLINE
  5
179C
  8
0
 66
     1
 10
0.0
 20
0.0
 30
0.0
  0
VERTEX
  5
2500
  8
0
 10
51.708727532486279
 20
54.700000000019749
 30
0.0
  0
VERTEX
  5
2501
  8
0
 10
51.715570010001812
 20
54.706089876306187
 30
0.0
  0
VERTEX
  5
2502
  8
0
 10
51.763262640630238
 20
54.748510103611949
 30
0.0
  0
VERTEX
  5
2503
  8
0
 10
51.841204553660297
 20
54.817733822117283
 30
0.0
  0
VERTEX
  5
2504
  8
0
 10
51.952646226861248
 20
54.916486250549163
 30
0.0
  0
VERTEX
  5
2505
  8
0
 10
52.098675566153318
 20
55.045477025469729
 30
0.0
  0
VERTEX
  5
2506
  8
0
 10
52.276635536138798
 20
55.202017399817699
 30
0.0
  0
VERTEX
  5
2507
  8
0
 10
52.490933633969988
 20
55.389518875505452
 30
0.0
  0
VERTEX
  5
2508
  8
0
 10
52.735120324661331
 20
55.601754931138551
 30
0.0
  0
VERTEX
  5
2509
  8
0
 10
53.01002558890886
 20
55.838756911648467
 30
0.0
  0
VERTEX
  5
250A
  8
0
 10
53.31121937738137
 20
56.09588233558668
 30
0.0
  0
VERTEX
  5
250B
  8
0
 10
53.65938973174358
 20
56.38949253221611
 30
0.0
  0
VERTEX
  5
250C
  8
0
 10
54.033262506426858
 20
56.699999999999989
 30
0.0
  0
SEQEND
  5
250D
  8
0
  0
LINE
  5
179D
  8
0
 10
69.494717782073536
 20
54.199999999999989
 30
0.0
 11
52.005282217891633
 21
54.199999999999989
 31
0.0
  0
ARC
  5
179E
  8
0
 10
52.005282217891633
 20
54.500000000000007
 30
0.0
 40
0.3
 50
178.9999999999998
 51
270.0
  0
ARC
  5
179F
  8
0
 10
69.494717782108367
 20
54.500000000000007
 30
0.0
 40
0.2999999999999989
 50
270.0
 51
1.0000000000001461
  0
LINE
  5
17A1
  8
0
 10
67.79999999978871
 20
50.0
 30
0.0
 11
53.700000000000003
 21
50.0
 31
0.0
  0
ARC
  5
17A2
  8
0
 10
53.700000000000003
 20
52.000000000000007
 30
0.0
 40
1.9999999999999949
 50
180.0
 51
270.0
  0
ARC
  5
17A3
  8
0
 10
67.799999999999997
 20
52.000000000000007
 30
0.0
 40
1.9999999999999949
 50
270.0
 51
0.0
  0
LINE
  5
17A4
  8
0
 10
51.699999999999989
 20
54.000000000000007
 30
0.0
 11
51.699999999999989
 21
52.000000000000007
 31
0.0
  0
LINE
  5
17A5
  8
0
 10
69.799999999999997
 20
52.000000000000007
 30
0.0
 11
69.799999999999997
 21
54.000000000000007
 31
0.0
  0
LINE
  5
17A7
  8
0
 10
69.799999999999997
 20
54.000000000000007
 30
0.0
 11
51.699999999999989
 21
54.000000000000007
 31
0.0
  0
POLYLINE
  5
17A8
  8
0
 66
     1
 10
0.0
 20
0.0
 30
0.0
  0
VERTEX
  5
250E
  8
0
 10
61.959935742095411
 20
68.458499999999987
 30
0.0
  0
VERTEX
  5
250F
  8
0
 10
62.311020623772841
 20
68.533426974050457
 30
0.0
  0
VERTEX
  5
2510
  8
0
 10
62.645432844536209
 20
68.620286758433764
 30
0.0
  0
VERTEX
  5
2511
  8
0
 10
62.824882032517053
 20
68.672728111380025
 30
0.0
  0
VERTEX
  5
2512
  8
0
 10
62.99508921199071
 20
68.726019675562625
 30
0.0
  0
VERTEX
  5
2513
  8
0
 10
63.156436296195288
 20
68.779584653160072
 30
0.0
  0
VERTEX
  5
2514
  8
0
 10
63.304731782630689
 20
68.831316411683247
 30
0.0
  0
VERTEX
  5
2515
  8
0
 10
63.49043286377831
 20
68.899313105289565
 30
0.0
  0
VERTEX
  5
2516
  8
0
 10
63.635268590044191
 20
68.954711516211177
 30
0.0
  0
VERTEX
  5
2517
  8
0
 10
63.722887524381328
 20
68.989188430169207
 30
0.0
  0
VERTEX
  5
2518
  8
0
 10
63.744702739228813
 20
68.997882368507902
 30
0.0
  0
VERTEX
  5
2519
  8
0
 10
63.749999999988241
 20
68.99999999999531
 30
0.0
  0
SEQEND
  5
251A
  8
0
  0
POLYLINE
  5
17A9
  8
0
 66
     1
 10
0.0
 20
0.0
 30
0.0
  0
VERTEX
  5
251B
  8
0
 10
59.540064257904561
 20
68.458499999999987
 30
0.0
  0
VERTEX
  5
251C
  8
0
 10
59.872818459027243
 20
68.369914761530225
 30
0.0
  0
VERTEX
  5
251D
  8
0
 10
60.229592371074787
 20
68.304812984923643
 30
0.0
  0
VERTEX
  5
251E
  8
0
 10
60.478248732671581
 20
68.279116991677341
 30
0.0
  0
VERTEX
  5
251F
  8
0
 10
60.731755426609091
 20
68.26937994493764
 30
0.0
  0
VERTEX
  5
2520
  8
0
 10
60.984585640695393
 20
68.276348523748908
 30
0.0
  0
VERTEX
  5
2521
  8
0
 10
61.329041996481429
 20
68.313449373386646
 30
0.0
  0
VERTEX
  5
2522
  8
0
 10
61.65850633018993
 20
68.37700419164014
 30
0.0
  0
VERTEX
  5
2523
  8
0
 10
61.959935742095411
 20
68.458499999999987
 30
0.0
  0
SEQEND
  5
2524
  8
0
  0
POLYLINE
  5
17AA
  8
0
 66
     1
 10
0.0
 20
0.0
 30
0.0
  0
VERTEX
  5
2525
  8
0
 10
59.540064257904561
 20
60.541500000000021
 30
0.0
  0
VERTEX
  5
2526
  8
0
 10
59.188979376227138
 20
60.46657302594955
 30
0.0
  0
VERTEX
  5
2527
  8
0
 10
58.854567155463783
 20
60.379713241566243
 30
0.0
  0
VERTEX
  5
2528
  8
0
 10
58.675117967482919
 20
60.327271888619983
 30
0.0
  0
VERTEX
  5
2529
  8
0
 10
58.504910788009283
 20
60.273980324437368
 30
0.0
  0
VERTEX
  5
252A
  8
0
 10
58.343563703804691
 20
60.220415346839928
 30
0.0
  0
VERTEX
  5
252B
  8
0
 10
58.195268217369289
 20
60.16868358831676
 30
0.0
  0
VERTEX
  5
252C
  8
0
 10
58.009567136221662
 20
60.100686894710442
 30
0.0
  0
VERTEX
  5
252D
  8
0
 10
57.86473140995578
 20
60.045288483788802
 30
0.0
  0
VERTEX
  5
252E
  8
0
 10
57.777112475618658
 20
60.010811569830828
 30
0.0
  0
VERTEX
  5
252F
  8
0
 10
57.755297260771179
 20
60.002117631492098
 30
0.0
  0
VERTEX
  5
2530
  8
0
 10
57.750000000011738
 20
60.00000000000469
 30
0.0
  0
SEQEND
  5
2531
  8
0
  0
POLYLINE
  5
17AB
  8
0
 66
     1
 10
0.0
 20
0.0
 30
0.0
  0
VERTEX
  5
2532
  8
0
 10
61.959935742095411
 20
60.541500000000021
 30
0.0
  0
VERTEX
  5
2533
  8
0
 10
61.627181540972749
 20
60.630085238469782
 30
0.0
  0
VERTEX
  5
2534
  8
0
 10
61.270407628925192
 20
60.695187015076357
 30
0.0
  0
VERTEX
  5
2535
  8
0
 10
61.021751267328412
 20
60.720883008322659
 30
0.0
  0
VERTEX
  5
2536
  8
0
 10
60.768244573390888
 20
60.730620055062367
 30
0.0
  0
VERTEX
  5
2537
  8
0
 10
60.5154143593046
 20
60.723651476251092
 30
0.0
  0
VERTEX
  5
2538
  8
0
 10
60.170958003518557
 20
60.686550626613361
 30
0.0
  0
VERTEX
  5
2539
  8
0
 10
59.841493669810049
 20
60.62299580835986
 30
0.0
  0
VERTEX
  5
253A
  8
0
 10
59.540064257904561
 20
60.541500000000021
 30
0.0
  0
SEQEND
  5
253B
  8
0
  0
LINE
  5
17AC
  8
0
 10
63.75
 20
69.0
 30
0.0
 11
63.748499833139739
 21
69.0
 31
0.0
  0
LINE
  5
17AD
  8
0
 10
57.751500166860247
 20
69.0
 30
0.0
 11
57.749999999999993
 21
69.0
 31
0.0
  0
LINE
  5
17AE
  8
0
 10
57.749999999999993
 20
60.0
 30
0.0
 11
57.751500166860247
 21
60.0
 31
0.0
  0
LINE
  5
17AF
  8
0
 10
63.748499833139739
 20
60.0
 30
0.0
 11
63.75
 21
60.0
 31
0.0
  0
POLYLINE
  5
17B0
  8
0
 66
     1
 10
0.0
 20
0.0
 30
0.0
  0
VERTEX
  5
253C
  8
0
 10
57.750000000011738
 20
68.99999999999531
 30
0.0
  0
VERTEX
  5
253D
  8
0
 10
57.750424762524382
 20
68.999830103169785
 30
0.0
  0
VERTEX
  5
253E
  8
0
 10
57.779615211012192
 20
68.988193801466849
 30
0.0
  0
VERTEX
  5
253F
  8
0
 10
57.855539245966597
 20
68.958294962421377
 30
0.0
  0
VERTEX
  5
2540
  8
0
 10
57.969075995876693
 20
68.914596725201093
 30
0.0
  0
VERTEX
  5
2541
  8
0
 10
58.119591194538351
 20
68.858604334354908
 30
0.0
  0
VERTEX
  5
2542
  8
0
 10
58.248946530461822
 20
68.812321466227473
 30
0.0
  0
VERTEX
  5
2543
  8
0
 10
58.393110545186047
 20
68.762828483018581
 30
0.0
  0
VERTEX
  5
2544
  8
0
 10
58.552778842910129
 20
68.710692186049272
 30
0.0
  0
VERTEX
  5
2545
  8
0
 10
58.724475383446972
 20
68.65791358255035
 30
0.0
  0
VERTEX
  5
2546
  8
0
 10
58.912919187496257
 20
68.604091971880706
 30
0.0
  0
VERTEX
  5
2547
  8
0
 10
59.11158532421112
 20
68.552226722216432
 30
0.0
  0
VERTEX
  5
2548
  8
0
 10
59.540064257904561
 20
68.458499999999987
 30
0.0
  0
SEQEND
  5
2549
  8
0
  0
POLYLINE
  5
17B1
  8
0
 66
     1
 10
0.0
 20
0.0
 30
0.0
  0
VERTEX
  5
254A
  8
0
 10
63.749999999988241
 20
60.00000000000469
 30
0.0
  0
VERTEX
  5
254B
  8
0
 10
63.749575237475611
 20
60.000169896830222
 30
0.0
  0
VERTEX
  5
254C
  8
0
 10
63.720384788987801
 20
60.011806198533151
 30
0.0
  0
VERTEX
  5
254D
  8
0
 10
63.644460754033382
 20
60.04170503757863
 30
0.0
  0
VERTEX
  5
254E
  8
0
 10
63.5309240041233
 20
60.0854032747989
 30
0.0
  0
VERTEX
  5
254F
  8
0
 10
63.380408805461627
 20
60.141395665645099
 30
0.0
  0
VERTEX
  5
2550
  8
0
 10
63.251053469538171
 20
60.187678533772527
 30
0.0
  0
VERTEX
  5
2551
  8
0
 10
63.106889454813931
 20
60.237171516981427
 30
0.0
  0
VERTEX
  5
2552
  8
0
 10
62.947221157089849
 20
60.289307813950728
 30
0.0
  0
VERTEX
  5
2553
  8
0
 10
62.775524616553042
 20
60.342086417449657
 30
0.0
  0
VERTEX
  5
2554
  8
0
 10
62.587080812503721
 20
60.395908028119301
 30
0.0
  0
VERTEX
  5
2555
  8
0
 10
62.388414675788859
 20
60.447773277783583
 30
0.0
  0
VERTEX
  5
2556
  8
0
 10
61.959935742095411
 20
60.541500000000021
 30
0.0
  0
SEQEND
  5
2557
  8
0
  0
LINE
  5
17B2
  8
0
 10
50.0
 20
68.551831416457077
 30
0.0
 11
50.267857714491228
 21
69.197556350111384
 31
0.0
  0
LINE
  5
17B3
  8
0
 10
50.0
 20
62.196621267114267
 30
0.0
 11
50.0
 21
68.551831416457077
 31
0.0
  0
LINE
  5
17B4
  8
0
 10
71.5
 20
62.196621267114239
 30
0.0
 11
71.5
 21
68.551831416457077
 31
0.0
  0
LINE
  5
17B5
  8
0
 10
71.232142285508743
 20
69.197556350111427
 30
0.0
 11
71.5
 21
68.551831416457077
 31
0.0
  0
POLYLINE
  5
17B6
  8
3
 66
     1
 10
0.0
 20
0.0
 30
0.0
  0
VERTEX
  5
2558
  8
3
 10
50.0
 20
62.388937348610909
 30
0.0
  0
VERTEX
  5
2559
  8
3
 10
50.433285967200817
 20
63.496127293420422
 30
0.0
  0
VERTEX
  5
255A
  8
3
 10
50.87602164382357
 20
64.270763325083948
 30
0.0
  0
VERTEX
  5
255B
  8
3
 10
51.324837544038047
 20
64.706949995662541
 30
0.0
  0
VERTEX
  5
255C
  8
3
 10
51.674936386768451
 20
64.810000000000002
 30
0.0
  0
SEQEND
  5
255D
  8
3
  0
POLYLINE
  5
17B7
  8
0
 66
     1
 10
0.0
 20
0.0
 30
0.0
  0
VERTEX
  5
255E
  8
0
 10
53.249217570669913
 20
58.860497011862329
 30
0.0
  0
VERTEX
  5
255F
  8
0
 10
52.823275268964302
 20
59.10824157476376
 30
0.0
  0
VERTEX
  5
2560
  8
0
 10
52.400993002985153
 20
59.376882522164529
 30
0.0
  0
VERTEX
  5
2561
  8
0
 10
52.010100188513313
 20
59.649601129871883
 30
0.0
  0
VERTEX
  5
2562
  8
0
 10
51.641141648854209
 20
59.932918614518798
 30
0.0
  0
VERTEX
  5
2563
  8
0
 10
51.306498127854702
 20
60.217465442501563
 30
0.0
  0
VERTEX
  5
2564
  8
0
 10
51.00759644261688
 20
60.501143742281187
 30
0.0
  0
VERTEX
  5
2565
  8
0
 10
50.734925947299438
 20
60.794387940207827
 30
0.0
  0
VERTEX
  5
2566
  8
0
 10
50.502680779175151
 20
61.083834453629407
 30
0.0
  0
VERTEX
  5
2567
  8
0
 10
50.312392753648062
 20
61.367391986340436
 30
0.0
  0
VERTEX
  5
2568
  8
0
 10
50.160749094356468
 20
61.653337688083219
 30
0.0
  0
VERTEX
  5
2569
  8
0
 10
50.056157442644839
 20
61.930412218042079
 30
0.0
  0
VERTEX
  5
256A
  8
0
 10
50.0
 20
62.196621267114267
 30
0.0
  0
SEQEND
  5
256B
  8
0
  0
POLYLINE
  5
17B8
  8
0
 66
     1
 10
0.0
 20
0.0
 30
0.0
  0
VERTEX
  5
256C
  8
0
 10
71.5
 20
62.196621267114239
 30
0.0
  0
VERTEX
  5
256D
  8
0
 10
71.453026612715689
 20
61.962399954460068
 30
0.0
  0
VERTEX
  5
256E
  8
0
 10
71.368273063379746
 20
61.719620689030513
 30
0.0
  0
VERTEX
  5
256F
  8
0
 10
71.246667841124378
 20
61.469637235308973
 30
0.0
  0
VERTEX
  5
2570
  8
0
 10
71.083590992776521
 20
61.205473346804787
 30
0.0
  0
VERTEX
  5
2571
  8
0
 10
70.883005528539002
 20
60.935542804815668
 30
0.0
  0
VERTEX
  5
2572
  8
0
 10
70.646166275570096
 20
60.661550943659321
 30
0.0
  0
VERTEX
  5
2573
  8
0
 10
70.382312210194982
 20
60.392811072484371
 30
0.0
  0
VERTEX
  5
2574
  8
0
 10
70.085635378327254
 20
60.122414679900871
 30
0.0
  0
VERTEX
  5
2575
  8
0
 10
69.757352482274854
 20
59.852117232195141
 30
0.0
  0
VERTEX
  5
2576
  8
0
 10
69.38766028334777
 20
59.575789244759711
 30
0.0
  0
VERTEX
  5
2577
  8
0
 10
68.985671263900684
 20
59.30232290064086
 30
0.0
  0
VERTEX
  5
2578
  8
0
 10
68.552796612746889
 20
59.033895930583931
 30
0.0
  0
VERTEX
  5
2579
  8
0
 10
68.25054524087416
 20
58.860364974223252
 30
0.0
  0
SEQEND
  5
257A
  8
0
  0
POLYLINE
  5
17B9
  8
3
 66
     1
 10
0.0
 20
0.0
 30
0.0
  0
VERTEX
  5
257B
  8
3
 10
69.25
 20
64.531421841922253
 30
0.0
  0
VERTEX
  5
257C
  8
3
 10
69.700576925078494
 20
64.796983990766563
 30
0.0
  0
VERTEX
  5
257D
  8
3
 10
69.825063613231549
 20
64.810000000000002
 30
0.0
  0
SEQEND
  5
257E
  8
3
  0
POLYLINE
  5
17BA
  8
3
 66
     1
 10
0.0
 20
0.0
 30
0.0
  0
VERTEX
  5
257F
  8
3
 10
51.674936386768451
 20
64.810000000000002
 30
0.0
  0
VERTEX
  5
2580
  8
3
 10
52.126117494006252
 20
64.63872336110947
 30
0.0
  0
VERTEX
  5
2581
  8
3
 10
52.249999999999993
 20
64.531421841922253
 30
0.0
  0
SEQEND
  5
2582
  8
3
  0
POLYLINE
  5
17BB
  8
3
 66
     1
 10
0.0
 20
0.0
 30
0.0
  0
VERTEX
  5
2583
  8
3
 10
69.825063613231549
 20
64.810000000000002
 30
0.0
  0
VERTEX
  5
2584
  8
3
 10
70.27624472046935
 20
64.63872336110947
 30
0.0
  0
VERTEX
  5
2585
  8
3
 10
70.723992067050489
 20
64.126196963079479
 30
0.0
  0
VERTEX
  5
2586
  8
3
 10
71.164898025310194
 20
63.276321441270973
 30
0.0
  0
VERTEX
  5
2587
  8
3
 10
71.5
 20
62.388937348610909
 30
0.0
  0
SEQEND
  5
2588
  8
3
  0
POLYLINE
  5
17BC
  8
0
 66
     1
 10
0.0
 20
0.0
 30
0.0
  0
VERTEX
  5
2589
  8
0
 10
50.26785771449125
 20
69.197556350111384
 30
0.0
  0
VERTEX
  5
258A
  8
0
 10
50.76837413027723
 20
70.075856960491706
 30
0.0
  0
VERTEX
  5
258B
  8
0
 10
51.275790032232372
 20
70.571527942010249
 30
0.0
  0
VERTEX
  5
258C
  8
0
 10
51.674936386768451
 20
70.690000000000026
 30
0.0
  0
SEQEND
  5
258D
  8
0
  0
POLYLINE
  5
17BD
  8
3
 66
     1
 10
0.0
 20
0.0
 30
0.0
  0
VERTEX
  5
258E
  8
3
 10
69.25
 20
70.443776517949374
 30
0.0
  0
VERTEX
  5
258F
  8
3
 10
69.759842482268283
 20
70.686840372262708
 30
0.0
  0
VERTEX
  5
2590
  8
3
 10
69.825063613231549
 20
70.690000000000026
 30
0.0
  0
SEQEND
  5
2591
  8
3
  0
LINE
  5
17BE
  8
0
 10
53.249999999999993
 20
70.690000000000026
 30
0.0
 11
51.674936386768451
 21
70.690000000000026
 31
0.0
  0
LINE
  5
17BF
  8
0
 10
63.75
 20
70.690000000000026
 30
0.0
 11
57.749999999999993
 21
70.690000000000026
 31
0.0
  0
LINE
  5
17C0
  8
0
 10
69.825063613231549
 20
70.690000000000026
 30
0.0
 11
68.25
 21
70.690000000000026
 31
0.0
  0
POLYLINE
  5
17C1
  8
3
 66
     1
 10
0.0
 20
0.0
 30
0.0
  0
VERTEX
  5
2592
  8
3
 10
51.674936386768451
 20
70.690000000000026
 30
0.0
  0
VERTEX
  5
2593
  8
3
 10
52.185058727300152
 20
70.496348185888934
 30
0.0
  0
VERTEX
  5
2594
  8
3
 10
52.249999999999993
 20
70.443776517949374
 30
0.0
  0
SEQEND
  5
2595
  8
3
  0
POLYLINE
  5
17C2
  8
0
 66
     1
 10
0.0
 20
0.0
 30
0.0
  0
VERTEX
  5
2596
  8
0
 10
69.825063613231549
 20
70.690000000000026
 30
0.0
  0
VERTEX
  5
2597
  8
0
 10
70.335185953763244
 20
70.496348185888934
 30
0.0
  0
VERTEX
  5
2598
  8
0
 10
70.841425955263219
 20
69.916866550791298
 30
0.0
  0
VERTEX
  5
2599
  8
0
 10
71.232142285508743
 20
69.197556350111384
 30
0.0
  0
SEQEND
  5
259A
  8
0
  0
POLYLINE
  5
17C3
  8
3
 66
     1
 10
0.0
 20
0.0
 30
0.0
  0
VERTEX
  5
259B
  8
3
 10
68.996797351610795
 20
63.627620689437187
 30
0.0
  0
VERTEX
  5
259C
  8
3
 10
69.182944431116539
 20
64.354093059619203
 30
0.0
  0
VERTEX
  5
259D
  8
3
 10
69.25
 20
64.531421841922253
 30
0.0
  0
SEQEND
  5
259E
  8
3
  0
POLYLINE
  5
17C5
  8
3
 66
     1
 10
0.0
 20
0.0
 30
0.0
  0
VERTEX
  5
259F
  8
3
 10
68.736477797268705
 20
68.225367425898156
 30
0.0
  0
VERTEX
  5
25A0
  8
3
 10
68.942945911781806
 20
69.404673355059344
 30
0.0
  0
VERTEX
  5
25A1
  8
3
 10
69.153586543049229
 20
70.206457767867875
 30
0.0
  0
VERTEX
  5
25A2
  8
3
 10
69.25
 20
70.443776517949374
 30
0.0
  0
SEQEND
  5
25A3
  8
3
  0
POLYLINE
  5
17C6
  8
3
 66
     1
 10
0.0
 20
0.0
 30
0.0
  0
VERTEX
  5
25A4
  8
3
 10
52.249999999999993
 20
70.443776517949374
 30
0.0
  0
VERTEX
  5
25A5
  8
3
 10
52.462005279711853
 20
69.815282944786105
 30
0.0
  0
VERTEX
  5
25A6
  8
3
 10
52.670561421494163
 20
68.806142868359501
 30
0.0
  0
VERTEX
  5
25A7
  8
3
 10
52.763522202731281
 20
68.225367425898156
 30
0.0
  0
SEQEND
  5
25A8
  8
3
  0
POLYLINE
  5
17C8
  8
3
 66
     1
 10
0.0
 20
0.0
 30
0.0
  0
VERTEX
  5
25A9
  8
3
 10
52.249999999999993
 20
64.531421841922253
 30
0.0
  0
VERTEX
  5
25AA
  8
3
 10
52.43714779475399
 20
63.925426563289967
 30
0.0
  0
VERTEX
  5
25AB
  8
3
 10
52.503202648389198
 20
63.627620689437187
 30
0.0
  0
SEQEND
  5
25AC
  8
3
  0
LINE
  5
17C9
  8
3
 10
53.249999999999993
 20
62.483444745775138
 30
0.0
 11
53.141944042450532
 21
62.450000000000003
 31
0.0
  0
POLYLINE
  5
17CA
  8
3
 66
     1
 10
0.0
 20
0.0
 30
0.0
  0
VERTEX
  5
25AD
  8
3
 10
68.996797351610795
 20
63.627620689437187
 30
0.0
  0
VERTEX
  5
25AE
  8
3
 10
68.68386703852758
 20
62.754612591040122
 30
0.0
  0
VERTEX
  5
25AF
  8
3
 10
68.368457106388007
 20
62.450309811247799
 30
0.0
  0
VERTEX
  5
25B0
  8
3
 10
68.358055957549453
 20
62.450000000000003
 30
0.0
  0
SEQEND
  5
25B1
  8
3
  0
LINE
  5
17CB
  8
3
 10
68.25
 20
62.450000000000003
 30
0.0
 11
68.358055957549453
 21
62.450000000000003
 31
0.0
  0
LINE
  5
17CC
  8
3
 10
53.141944042450532
 20
62.450000000000003
 30
0.0
 11
53.249999999999993
 21
62.450000000000003
 31
0.0
  0
POLYLINE
  5
17CD
  8
3
 66
     1
 10
0.0
 20
0.0
 30
0.0
  0
VERTEX
  5
25B2
  8
3
 10
53.141944042450532
 20
62.450000000000003
 30
0.0
  0
VERTEX
  5
25B3
  8
3
 10
52.826493228250989
 20
62.735511802176333
 30
0.0
  0
VERTEX
  5
25B4
  8
3
 10
52.513443185221909
 20
63.589874291494013
 30
0.0
  0
VERTEX
  5
25B5
  8
3
 10
52.503202648389198
 20
63.627620689437187
 30
0.0
  0
SEQEND
  5
25B6
  8
3
  0
LINE
  5
17CE
  8
3
 10
68.358055957549453
 20
62.450000000000003
 30
0.0
 11
68.25
 21
62.483444745775138
 31
0.0
  0
POLYLINE
  5
17CF
  8
3
 66
     1
 10
0.0
 20
0.0
 30
0.0
  0
VERTEX
  5
25B7
  8
3
 10
68.736477797268705
 20
68.225367425898156
 30
0.0
  0
VERTEX
  5
25B8
  8
3
 10
68.464058546360661
 20
67.591318043375054
 30
0.0
  0
VERTEX
  5
25B9
  8
3
 10
68.25
 20
67.440000000000026
 30
0.0
  0
SEQEND
  5
25BA
  8
3
  0
POLYLINE
  5
17D2
  8
3
 66
     1
 10
0.0
 20
0.0
 30
0.0
  0
VERTEX
  5
25BB
  8
3
 10
53.249999999999993
 20
67.440000000000026
 30
0.0
  0
VERTEX
  5
25BC
  8
3
 10
52.9761300008402
 20
67.687877366303724
 30
0.0
  0
VERTEX
  5
25BD
  8
3
 10
52.763522202731281
 20
68.225367425898156
 30
0.0
  0
SEQEND
  5
25BE
  8
3
  0
LINE
  5
17D3
  8
0
 10
62.749999999999993
 20
69.063041347708662
 30
0.0
 11
58.75
 21
69.063041347708662
 31
0.0
  0
POLYLINE
  5
17D4
  8
0
 66
     1
 10
0.0
 20
0.0
 30
0.0
  0
VERTEX
  5
25BF
  8
0
 10
62.749999999999993
 20
69.063041347708662
 30
0.0
  0
VERTEX
  5
25C0
  8
0
 10
62.906621881998809
 20
69.068599330824284
 30
0.0
  0
VERTEX
  5
25C1
  8
0
 10
63.058706974595438
 20
69.084952901091953
 30
0.0
  0
VERTEX
  5
25C2
  8
0
 10
63.20165408768257
 20
69.111727991473572
 30
0.0
  0
VERTEX
  5
25C3
  8
0
 10
63.332306976735097
 20
69.148086417544903
 30
0.0
  0
VERTEX
  5
25C4
  8
0
 10
63.450908784553377
 20
69.194753445303519
 30
0.0
  0
VERTEX
  5
25C5
  8
0
 10
63.551205036948772
 20
69.249506071076979
 30
0.0
  0
VERTEX
  5
25C6
  8
0
 10
63.637201999859229
 20
69.316536564033271
 30
0.0
  0
VERTEX
  5
25C7
  8
0
 10
63.699192737774581
 20
69.390058627542004
 30
0.0
  0
VERTEX
  5
25C8
  8
0
 10
63.737308194243717
 20
69.470678294566284
 30
0.0
  0
VERTEX
  5
25C9
  8
0
 10
63.75
 20
69.554847504338653
 30
0.0
  0
SEQEND
  5
25CA
  8
0
  0
POLYLINE
  5
17D7
  8
0
 66
     1
 10
0.0
 20
0.0
 30
0.0
  0
VERTEX
  5
25CB
  8
0
 10
57.749999999999993
 20
69.554847504338653
 30
0.0
  0
VERTEX
  5
25CC
  8
0
 10
57.76683295356861
 20
69.458301720931871
 30
0.0
  0
VERTEX
  5
25CD
  8
0
 10
57.817304466447908
 20
69.366775601815391
 30
0.0
  0
VERTEX
  5
25CE
  8
0
 10
57.902417538551227
 20
69.282538437521765
 30
0.0
  0
VERTEX
  5
25CF
  8
0
 10
58.02062621002996
 20
69.208489764808775
 30
0.0
  0
VERTEX
  5
25D0
  8
0
 10
58.156156697847642
 20
69.152068830151961
 30
0.0
  0
VERTEX
  5
25D1
  8
0
 10
58.313999049295042
 20
69.10815228145168
 30
0.0
  0
VERTEX
  5
25D2
  8
0
 10
58.470294599479793
 20
69.080988534786314
 30
0.0
  0
VERTEX
  5
25D3
  8
0
 10
58.635832645898823
 20
69.065962462015023
 30
0.0
  0
VERTEX
  5
25D4
  8
0
 10
58.75
 20
69.063041347708605
 30
0.0
  0
SEQEND
  5
25D5
  8
0
  0
POLYLINE
  5
17DA
  8
0
 66
     1
 10
0.0
 20
0.0
 30
0.0
  0
VERTEX
  5
25D6
  8
0
 10
62.749999999999993
 20
57.91738054811816
 30
0.0
  0
VERTEX
  5
25D7
  8
0
 10
62.878144899912868
 20
57.907492636488229
 30
0.0
  0
VERTEX
  5
25D8
  8
0
 10
63.001690304119911
 20
57.879463452985512
 30
0.0
  0
VERTEX
  5
25D9
  8
0
 10
63.115910163832893
 20
57.836153917726172
 30
0.0
  0
VERTEX
  5
25DA
  8
0
 10
63.2205336662308
 20
57.780759590028573
 30
0.0
  0
VERTEX
  5
25DB
  8
0
 10
63.361082515013372
 20
57.678783191811057
 30
0.0
  0
VERTEX
  5
25DC
  8
0
 10
63.47842250241407
 20
57.562878085676147
 30
0.0
  0
VERTEX
  5
25DD
  8
0
 10
63.607137684444297
 20
57.38557886244579
 30
0.0
  0
VERTEX
  5
25DE
  8
0
 10
63.694713394081909
 20
57.200329715968429
 30
0.0
  0
VERTEX
  5
25DF
  8
0
 10
63.735960830035772
 20
57.049082946463251
 30
0.0
  0
VERTEX
  5
25E0
  8
0
 10
63.75
 20
56.899382795775672
 30
0.0
  0
SEQEND
  5
25E1
  8
0
  0
LINE
  5
17DB
  8
0
 10
62.749999999999993
 20
57.91738054811816
 30
0.0
 11
58.75
 21
57.91738054811816
 31
0.0
  0
POLYLINE
  5
17DC
  8
0
 66
     1
 10
0.0
 20
0.0
 30
0.0
  0
VERTEX
  5
25E2
  8
0
 10
57.749999999999993
 20
56.899382795775672
 30
0.0
  0
VERTEX
  5
25E3
  8
0
 10
57.76778862374087
 20
57.068244429287411
 30
0.0
  0
VERTEX
  5
25E4
  8
0
 10
57.819981386246511
 20
57.238658483572991
 30
0.0
  0
VERTEX
  5
25E5
  8
0
 10
57.927601928904373
 20
57.44082607762315
 30
0.0
  0
VERTEX
  5
25E6
  8
0
 10
58.085681274108289
 20
57.630261590401069
 30
0.0
  0
VERTEX
  5
25E7
  8
0
 10
58.193941337987411
 20
57.722848363558832
 30
0.0
  0
VERTEX
  5
25E8
  8
0
 10
58.318985027853181
 20
57.803580829465233
 30
0.0
  0
VERTEX
  5
25E9
  8
0
 10
58.430338103865651
 20
57.855725053271343
 30
0.0
  0
VERTEX
  5
25EA
  8
0
 10
58.551174555084017
 20
57.893817603480173
 30
0.0
  0
VERTEX
  5
25EB
  8
0
 10
58.75
 20
57.91738054811816
 30
0.0
  0
SEQEND
  5
25EC
  8
0
  0
LINE
  5
17DD
  8
0
 10
57.749999999999993
 20
56.699999999999989
 30
0.0
 11
57.749999999999993
 21
72.050000000000011
 31
0.0
  0
LINE
  5
17DE
  8
0
 10
57.749999999999993
 20
72.050000000000011
 30
0.0
 11
53.249999999999993
 21
72.050000000000011
 31
0.0
  0
LINE
  5
17DF
  8
0
 10
53.249999999999993
 20
72.050000000000011
 30
0.0
 11
53.249999999999993
 21
56.043620107861962
 31
0.0
  0
LINE
  5
17E0
  8
0
 10
68.25
 20
56.04373088855013
 30
0.0
 11
68.25
 21
72.050000000000011
 31
0.0
  0
LINE
  5
17E1
  8
0
 10
68.25
 20
72.050000000000011
 30
0.0
 11
63.75
 21
72.050000000000011
 31
0.0
  0
LINE
  5
17E2
  8
0
 10
63.75
 20
72.050000000000011
 30
0.0
 11
63.75
 21
56.699999999999989
 31
0.0
  0
LINE
  5
181F
  8
1
 10
105.7499999999999
 20
122.05
 30
0.0
 11
195.19999999999999
 21
122.05
 31
0.0
  0
LINE
  5
1820
  8
1
 10
119.8
 20
136.09999999999999
 30
0.0
 11
119.8
 21
108.0
 31
0.0
  0
LINE
  5
182A
  8
0
 10
125.8
 20
119.0500000000001
 30
0.0
 11
125.8
 21
125.05
 31
0.0
  0
LINE
  5
182C
  8
0
 10
113.8
 20
125.05
 30
0.0
 11
113.8
 21
119.0500000000001
 31
0.0
  0
ARC
  5
182E
  8
0
 10
119.8
 20
122.05
 30
0.0
 40
9.0500000000000114
 50
55.968424940933197
 51
124.0315750590668
  0
ARC
  5
182F
  8
0
 10
119.8
 20
122.0500000000001
 30
0.0
 40
9.0500000000000238
 50
160.6406585917027
 51
199.35934140829721
  0
ARC
  5
1830
  8
0
 10
119.8
 20
122.0500000000001
 30
0.0
 40
9.0500000000000025
 50
235.9684249409332
 51
304.03157505906682
  0
LINE
  5
1839
  8
0
 10
124.3
 20
119.0500000000001
 30
0.0
 11
124.3
 21
125.05
 31
0.0
  0
LINE
  5
183A
  8
0
 10
115.3
 20
125.05
 30
0.0
 11
115.3
 21
119.0500000000001
 31
0.0
  0
POLYLINE
  5
183C
  8
0
 66
     1
 10
0.0
 20
0.0
 30
0.0
  0
VERTEX
  5
25ED
  8
0
 10
190.19999999999999
 20
122.5137848373676
 30
0.0
  0
VERTEX
  5
25EE
  8
0
 10
190.1996107610712
 20
122.5227207007989
 30
0.0
  0
VERTEX
  5
25EF
  8
0
 10
190.19813727565139
 20
122.5551153133203
 30
0.0
  0
VERTEX
  5
25F0
  8
0
 10
190.19474511031549
 20
122.6225794728783
 30
0.0
  0
VERTEX
  5
25F1
  8
0
 10
190.1904136307046
 20
122.6989309824455
 30
0.0
  0
VERTEX
  5
25F2
  8
0
 10
190.17208034823631
 20
122.95125511006211
 30
0.0
  0
VERTEX
  5
25F3
  8
0
 10
190.146791461167
 20
123.2135674397956
 30
0.0
  0
VERTEX
  5
25F4
  8
0
 10
190.11470616468671
 20
123.47885927404521
 30
0.0
  0
VERTEX
  5
25F5
  8
0
 10
190.01319068847661
 20
124.0974867342201
 30
0.0
  0
VERTEX
  5
25F6
  8
0
 10
189.8735663855164
 20
124.7177937383058
 30
0.0
  0
VERTEX
  5
25F7
  8
0
 10
189.6953447179603
 20
125.3364798680317
 30
0.0
  0
VERTEX
  5
25F8
  8
0
 10
189.4780371479622
 20
125.95024470512681
 30
0.0
  0
VERTEX
  5
25F9
  8
0
 10
189.22115513767631
 20
126.5557878313204
 30
0.0
  0
SEQEND
  5
25FA
  8
0
  0
POLYLINE
  5
183D
  8
0
 66
     1
 10
0.0
 20
0.0
 30
0.0
  0
VERTEX
  5
25FB
  8
0
 10
189.22115513767619
 20
117.54421216867949
 30
0.0
  0
VERTEX
  5
25FC
  8
0
 10
189.48825591360631
 20
118.1763243980115
 30
0.0
  0
VERTEX
  5
25FD
  8
0
 10
189.71233333499981
 20
118.81748557500239
 30
0.0
  0
VERTEX
  5
25FE
  8
0
 10
189.89393375347041
 20
119.463753654638
 30
0.0
  0
VERTEX
  5
25FF
  8
0
 10
190.0336035206316
 20
120.1111865919044
 30
0.0
  0
VERTEX
  5
2600
  8
0
 10
190.1318889880969
 20
120.7558423417873
 30
0.0
  0
VERTEX
  5
2601
  8
0
 10
190.166519844509
 20
121.0836673404545
 30
0.0
  0
VERTEX
  5
2602
  8
0
 10
190.18323132417919
 20
121.2914871637973
 30
0.0
  0
VERTEX
  5
2603
  8
0
 10
190.1916445307628
 20
121.4217730084416
 30
0.0
  0
VERTEX
  5
2604
  8
0
 10
190.19732105560411
 20
121.52780606663531
 30
0.0
  0
VERTEX
  5
2605
  8
0
 10
190.19905302208301
 20
121.5647624250558
 30
0.0
  0
VERTEX
  5
2606
  8
0
 10
190.1998672995278
 20
121.58314946936029
 30
0.0
  0
VERTEX
  5
2607
  8
0
 10
190.19999999999999
 20
121.5862151626325
 30
0.0
  0
SEQEND
  5
2608
  8
0
  0
LINE
  5
183E
  8
0
 10
190.19999999999999
 20
121.5862151626325
 30
0.0
 11
190.19999999999999
 21
122.5137848373676
 31
0.0
  0
LINE
  5
183F
  8
0
 10
159.80000000000001
 20
113.55
 30
0.0
 11
139.06999999999999
 21
114.55
 31
0.0
  0
LINE
  5
1840
  8
0
 10
139.06999999999991
 20
129.55000000000001
 30
0.0
 11
159.80000000000001
 21
130.55000000000001
 31
0.0
  0
LINE
  5
1841
  8
0
 10
159.80000000000001
 20
113.55
 30
0.0
 11
179.3630530973451
 21
111.3
 31
0.0
  0
LINE
  5
1842
  8
0
 10
179.3630530973451
 20
132.80000000000001
 30
0.0
 11
159.80000000000001
 21
130.55000000000001
 31
0.0
  0
POLYLINE
  5
1843
  8
0
 66
     1
 10
0.0
 20
0.0
 30
0.0
  0
VERTEX
  5
2609
  8
0
 10
189.22115513767619
 20
126.5557878313205
 30
0.0
  0
VERTEX
  5
260A
  8
0
 10
188.9395900255434
 20
127.1219200184152
 30
0.0
  0
VERTEX
  5
260B
  8
0
 10
188.6280802451067
 20
127.6660057767166
 30
0.0
  0
VERTEX
  5
260C
  8
0
 10
188.28883421562639
 20
128.1861719930622
 30
0.0
  0
VERTEX
  5
260D
  8
0
 10
187.9110953481198
 20
128.69732557992299
 30
0.0
  0
VERTEX
  5
260E
  8
0
 10
187.50631406112541
 20
129.1825216467179
 30
0.0
  0
VERTEX
  5
260F
  8
0
 10
187.07646056196259
 20
129.6404345544494
 30
0.0
  0
VERTEX
  5
2610
  8
0
 10
186.6373874205766
 20
130.0574138865006
 30
0.0
  0
VERTEX
  5
2611
  8
0
 10
186.17641116684561
 20
130.4483692039932
 30
0.0
  0
VERTEX
  5
2612
  8
0
 10
185.69510528317011
 20
130.81220622311699
 30
0.0
  0
VERTEX
  5
2613
  8
0
 10
185.1815908166827
 20
131.15636737638269
 30
0.0
  0
VERTEX
  5
2614
  8
0
 10
184.64807792465439
 20
131.4710959701514
 30
0.0
  0
VERTEX
  5
2615
  8
0
 10
184.0963488943373
 20
131.75510383177121
 30
0.0
  0
VERTEX
  5
2616
  8
0
 10
183.4568849795161
 20
132.03604956245121
 30
0.0
  0
VERTEX
  5
2617
  8
0
 10
182.79657474791631
 20
132.27627814277031
 30
0.0
  0
VERTEX
  5
2618
  8
0
 10
182.11856369101051
 20
132.47383647834371
 30
0.0
  0
VERTEX
  5
2619
  8
0
 10
181.39758469904089
 20
132.63216511182131
 30
0.0
  0
VERTEX
  5
261A
  8
0
 10
180.66106977584101
 20
132.74152171068661
 30
0.0
  0
VERTEX
  5
261B
  8
0
 10
179.91378857642491
 20
132.80000000000001
 30
0.0
  0
SEQEND
  5
261C
  8
0
  0
POLYLINE
  5
1844
  8
0
 66
     1
 10
0.0
 20
0.0
 30
0.0
  0
VERTEX
  5
261D
  8
0
 10
179.91378857642499
 20
111.3
 30
0.0
  0
VERTEX
  5
261E
  8
0
 10
180.5498275032277
 20
111.34641393993719
 30
0.0
  0
VERTEX
  5
261F
  8
0
 10
181.1783346229488
 20
111.4297728554412
 30
0.0
  0
VERTEX
  5
2620
  8
0
 10
181.79631279351219
 20
111.5489326502549
 30
0.0
  0
VERTEX
  5
2621
  8
0
 10
182.42080008654179
 20
111.7082885876582
 30
0.0
  0
VERTEX
  5
2622
  8
0
 10
183.03157314557811
 20
111.90362270217
 30
0.0
  0
VERTEX
  5
2623
  8
0
 10
183.6261221958238
 20
112.1334682475442
 30
0.0
  0
VERTEX
  5
2624
  8
0
 10
184.18598921197889
 20
112.3883521517045
 30
0.0
  0
VERTEX
  5
2625
  8
0
 10
184.7289791651705
 20
112.6739983252357
 30
0.0
  0
VERTEX
  5
2626
  8
0
 10
185.25328878063081
 20
112.9891260150093
 30
0.0
  0
VERTEX
  5
2627
  8
0
 10
185.77071930055209
 20
113.3422079643139
 30
0.0
  0
VERTEX
  5
2628
  8
0
 10
186.26712298552891
 20
113.72509939904771
 30
0.0
  0
VERTEX
  5
2629
  8
0
 10
186.74074641105489
 20
114.1365548392983
 30
0.0
  0
VERTEX
  5
262A
  8
0
 10
187.22719259767899
 20
114.61412885964209
 30
0.0
  0
VERTEX
  5
262B
  8
0
 10
187.68492840281411
 20
115.1244767424065
 30
0.0
  0
VERTEX
  5
262C
  8
0
 10
188.11150500401999
 20
115.6659630213403
 30
0.0
  0
VERTEX
  5
262D
  8
0
 10
188.5193896593706
 20
116.2601666227081
 30
0.0
  0
VERTEX
  5
262E
  8
0
 10
188.89041665936921
 20
116.887194426981
 30
0.0
  0
VERTEX
  5
262F
  8
0
 10
189.22115513767619
 20
117.54421216867961
 30
0.0
  0
SEQEND
  5
2630
  8
0
  0
LINE
  5
1845
  8
0
 10
179.91378857642491
 20
132.80000000000001
 30
0.0
 11
179.3630530973451
 21
132.80000000000001
 31
0.0
  0
LINE
  5
1846
  8
0
 10
179.91378857642499
 20
111.3
 30
0.0
 11
179.3630530973451
 21
111.3
 31
0.0
  0
LINE
  5
1848
  8
0
 10
111.05
 20
119.0500000000001
 30
0.0
 11
126.3
 21
119.0500000000001
 31
0.0
  0
LINE
  5
1849
  8
0
 10
126.3
 20
125.05
 30
0.0
 11
111.05
 21
125.05
 31
0.0
  0
POLYLINE
  5
184A
  8
0
 66
     1
 10
0.0
 20
0.0
 30
0.0
  0
VERTEX
  5
2631
  8
0
 10
126.3
 20
125.05
 30
0.0
  0
VERTEX
  5
2632
  8
0
 10
126.4822057421253
 20
125.0331670464314
 30
0.0
  0
VERTEX
  5
2633
  8
0
 10
126.6606647219953
 20
124.9826955335521
 30
0.0
  0
VERTEX
  5
2634
  8
0
 10
126.83038864568989
 20
124.89758246144881
 30
0.0
  0
VERTEX
  5
2635
  8
0
 10
126.9841153956057
 20
124.77937378997009
 30
0.0
  0
VERTEX
  5
2636
  8
0
 10
127.1043839266019
 20
124.6438433021524
 30
0.0
  0
VERTEX
  5
2637
  8
0
 10
127.19994620449459
 20
124.48600095070501
 30
0.0
  0
VERTEX
  5
2638
  8
0
 10
127.2599468337596
 20
124.3297054005203
 30
0.0
  0
VERTEX
  5
2639
  8
0
 10
127.29346153184579
 20
124.1641673541012
 30
0.0
  0
VERTEX
  5
263A
  8
0
 10
127.3
 20
124.05
 30
0.0
  0
SEQEND
  5
263B
  8
0
  0
LINE
  5
184B
  8
0
 10
127.3
 20
120.0500000000001
 30
0.0
 11
127.3
 21
124.05
 31
0.0
  0
POLYLINE
  5
184C
  8
0
 66
     1
 10
0.0
 20
0.0
 30
0.0
  0
VERTEX
  5
263C
  8
0
 10
127.3
 20
120.0500000000001
 30
0.0
  0
VERTEX
  5
263D
  8
0
 10
127.28755349587411
 20
119.89337811800119
 30
0.0
  0
VERTEX
  5
263E
  8
0
 10
127.2511571919699
 20
119.7412930254046
 30
0.0
  0
VERTEX
  5
263F
  8
0
 10
127.1920959523343
 20
119.5983459123175
 30
0.0
  0
VERTEX
  5
2640
  8
0
 10
127.11296899377869
 20
119.4676930232649
 30
0.0
  0
VERTEX
  5
2641
  8
0
 10
127.0131500993287
 20
119.34909121544671
 30
0.0
  0
VERTEX
  5
2642
  8
0
 10
126.89838991365821
 20
119.2487949630513
 30
0.0
  0
VERTEX
  5
2643
  8
0
 10
126.76123638379229
 20
119.1627980001408
 30
0.0
  0
VERTEX
  5
2644
  8
0
 10
126.6146953233779
 20
119.1008072622254
 30
0.0
  0
VERTEX
  5
2645
  8
0
 10
126.45849395291749
 20
119.0626918057563
 30
0.0
  0
VERTEX
  5
2646
  8
0
 10
126.3
 20
119.0500000000001
 30
0.0
  0
SEQEND
  5
2647
  8
0
  0
LINE
  5
1851
  8
0
 10
139.06999999999999
 20
129.55000000000001
 30
0.0
 11
111.05
 21
129.55000000000001
 31
0.0
  0
LINE
  5
1852
  8
0
 10
111.05
 20
129.55000000000001
 30
0.0
 11
111.05
 21
125.05
 31
0.0
  0
LINE
  5
1854
  8
0
 10
111.05
 20
119.0500000000001
 30
0.0
 11
111.05
 21
114.55
 31
0.0
  0
LINE
  5
1855
  8
0
 10
111.05
 20
114.55
 30
0.0
 11
139.06999999999999
 21
114.55
 31
0.0
  0
CIRCLE
  5
1AEB
  8
3
 10
119.8
 20
122.0500000000001
 30
0.0
 40
3.0
  0
CIRCLE
  5
1AEC
  8
0
 10
119.8
 20
122.0500000000001
 30
0.0
 40
2.458499999999999
  0
LINE
  5
1E2A
  8
2
 10
58.291500000000013
 20
68.797712424176581
 30
0.0
 11
58.291500000000013
 21
60.202253317652207
 31
0.0
  0
LINE
  5
1E2B
  8
2
 10
63.208500000000001
 20
60.202287575823419
 30
0.0
 11
63.208500000000001
 21
68.797746682347793
 31
0.0
  0
LINE
  5
1E2C
  8
2
 10
63.75
 20
59.999999999999979
 30
0.0
 11
63.75
 21
69.000000000000028
 31
0.0
  0
LINE
  5
1E2D
  8
2
 10
57.750000000000007
 20
60.0
 30
0.0
 11
57.750000000000007
 21
69.0
 31
0.0
  0
LINE
  5
2096
  8
0
 10
128.84999999999999
 20
52.000000000000007
 30
0.0
 11
110.75
 21
52.000000000000007
 31
0.0
  0
LINE
  5
2098
  8
0
 10
69.799999999999997
 20
52.000000000000007
 30
0.0
 11
51.700000000000003
 21
52.000000000000007
 31
0.0
  0
ENDSEC
  0
EOF
