  0
SECTION
  2
HEADER
  9
$ACADVER
  1
AC1009
  9
$INSBASE
 10
0.0
 20
0.0
 30
0.0
  9
$EXTMIN
 10
0.0
 20
-2.960436562073669
 30
0.0
  9
$EXTMAX
 10
170.5251330462000112
 20
111.8995865718260063
 30
0.0
  9
$LIMMIN
 10
0.0
 20
0.0
  9
$LIMMAX
 10
375.0
 20
270.0
  9
$ORTHOMODE
 70
     0
  9
$REGENMODE
 70
     1
  9
$FILLMODE
 70
     1
  9
$QTEXTMODE
 70
     0
  9
$MIRRTEXT
 70
     0
  9
$DRAGMODE
 70
     2
  9
$LTSCALE
 40
5.0
  9
$OSMODE
 70
    37
  9
$ATTMODE
 70
     1
  9
$TEXTSIZE
 40
0.2
  9
$TRACEWID
 40
0.05
  9
$TEXTSTYLE
  7
STANDARD
  9
$CLAYER
  8
0
  9
$CELTYPE
  6
BYLAYER
  9
$CECOLOR
 62
   256
  9
$DIMSCALE
 40
1.0
  9
$DIMASZ
 40
3.0
  9
$DIMEXO
 40
2.0
  9
$DIMDLI
 40
10.0
  9
$DIMRND
 40
0.0
  9
$DIMDLE
 40
0.0
  9
$DIMEXE
 40
2.0
  9
$DIMTP
 40
0.0
  9
$DIMTM
 40
0.0
  9
$DIMTXT
 40
3.2000000000000002
  9
$DIMCEN
 40
0.09
  9
$DIMTSZ
 40
0.0
  9
$DIMTOL
 70
     0
  9
$DIMLIM
 70
     0
  9
$DIMTIH
 70
     0
  9
$DIMTOH
 70
     0
  9
$DIMSE1
 70
     0
  9
$DIMSE2
 70
     0
  9
$DIMTAD
 70
     1
  9
$DIMZIN
 70
     8
  9
$DIMBLK
  1

  9
$DIMASO
 70
     0
  9
$DIMSHO
 70
     0
  9
$DIMPOST
  1

  9
$DIMAPOST
  1

  9
$DIMALT
 70
     0
  9
$DIMALTD
 70
     2
  9
$DIMALTF
 40
25.3999999999999986
  9
$DIMLFAC
 40
1.0
  9
$DIMTOFL
 70
     1
  9
$DIMTVP
 40
1.6000000000000001
  9
$DIMTIX
 70
     0
  9
$DIMSOXD
 70
     0
  9
$DIMSAH
 70
     0
  9
$DIMBLK1
  1

  9
$DIMBLK2
  1

  9
$DIMSTYLE
  2
STANDARD
  9
$DIMCLRD
 70
   256
  9
$DIMCLRE
 70
   256
  9
$DIMCLRT
 70
   256
  9
$DIMTFAC
 40
1.0
  9
$DIMGAP
 40
0.5
  9
$LUNITS
 70
     2
  9
$LUPREC
 70
     1
  9
$SKETCHINC
 40
0.1
  9
$FILLETRAD
 40
0.0
  9
$AUNITS
 70
     0
  9
$AUPREC
 70
     1
  9
$MENU
  1
E:\r13\win\SUPPORT\ACAD
  9
$ELEVATION
 40
0.0
  9
$PELEVATION
 40
0.0
  9
$THICKNESS
 40
0.0
  9
$LIMCHECK
 70
     0
  9
$BLIPMODE
 70
     0
  9
$CHAMFERA
 40
0.0
  9
$CHAMFERB
 40
0.0
  9
$SKPOLY
 70
     0
  9
$TDCREATE
 40
2449840.6171180559322238
  9
$TDUPDATE
 40
2460566.5216203709132969
  9
$TDINDWG
 40
0.2130452083
  9
$TDUSRTIMER
 40
0.2130452083
  9
$USRTIMER
 70
     1
  9
$ANGBASE
 50
0.0
  9
$ANGDIR
 70
     0
  9
$PDMODE
 70
     0
  9
$PDSIZE
 40
0.0
  9
$PLINEWID
 40
0.0
  9
$COORDS
 70
     1
  9
$SPLFRAME
 70
     0
  9
$SPLINETYPE
 70
     6
  9
$SPLINESEGS
 70
     8
  9
$ATTDIA
 70
     1
  9
$ATTREQ
 70
     1
  9
$HANDLING
 70
     1
  9
$HANDSEED
  5
2A94
  9
$SURFTAB1
 70
     6
  9
$SURFTAB2
 70
     6
  9
$SURFTYPE
 70
     6
  9
$SURFU
 70
     6
  9
$SURFV
 70
     6
  9
$UCSNAME
  2

  9
$UCSORG
 10
0.0
 20
0.0
 30
0.0
  9
$UCSXDIR
 10
1.0
 20
0.0
 30
0.0
  9
$UCSYDIR
 10
0.0
 20
1.0
 30
0.0
  9
$PUCSNAME
  2

  9
$PUCSORG
 10
0.0
 20
0.0
 30
0.0
  9
$PUCSXDIR
 10
1.0
 20
0.0
 30
0.0
  9
$PUCSYDIR
 10
0.0
 20
1.0
 30
0.0
  9
$USERI1
 70
     0
  9
$USERI2
 70
     1
  9
$USERI3
 70
     0
  9
$USERI4
 70
     0
  9
$USERI5
 70
     0
  9
$USERR1
 40
0.0
  9
$USERR2
 40
0.0
  9
$USERR3
 40
0.0
  9
$USERR4
 40
0.0
  9
$USERR5
 40
0.0
  9
$WORLDVIEW
 70
     1
  9
$SHADEDGE
 70
     3
  9
$SHADEDIF
 70
    70
  9
$TILEMODE
 70
     1
  9
$MAXACTVP
 70
    16
  9
$PLIMCHECK
 70
     0
  9
$PEXTMIN
 10
1.0000000000000000E+20
 20
1.0000000000000000E+20
 30
1.0000000000000000E+20
  9
$PEXTMAX
 10
-1.0000000000000000E+20
 20
-1.0000000000000000E+20
 30
-1.0000000000000000E+20
  9
$PLIMMIN
 10
0.0
 20
0.0
  9
$PLIMMAX
 10
12.0
 20
9.0
  9
$UNITMODE
 70
     0
  9
$VISRETAIN
 70
     0
  9
$PLINEGEN
 70
     0
  9
$PSLTSCALE
 70
     0
  0
ENDSEC
  0
SECTION
  2
TABLES
  0
TABLE
  2
VPORT
 70
     1
  0
VPORT
  2
*ACTIVE
 70
     0
 10
0.0
 20
0.0
 11
1.0
 21
1.0
 12
103.3285389529273033
 22
54.4672144226842718
 13
0.0
 23
0.0
 14
10.0
 24
10.0
 15
10.0
 25
10.0
 16
0.0
 26
0.0
 36
1.0
 17
0.0
 27
0.0
 37
0.0
 40
115.8020982164316024
 41
2.3485221674876842
 42
50.0
 43
0.0
 44
0.0
 50
0.0
 51
0.0
 71
     0
 72
   100
 73
     1
 74
     0
 75
     0
 76
     0
 77
     0
 78
     0
  0
ENDTAB
  0
TABLE
  2
LTYPE
 70
     4
  0
LTYPE
  2
CONTINUOUS
 70
     0
  3
Solid Line
 72
    65
 73
     0
 40
0.0
  0
LTYPE
  2
CENTER
 70
     0
  3
____ _ ____ _ ____ _ ____ _ ____ _ ____ _ ____
 72
    65
 73
     4
 40
2.0
 49
1.25
 49
-0.25
 49
0.25
 49
-0.25
  0
LTYPE
  2
HIDDEN
 70
     0
  3
Hidden __ __ __ __ __ __ __ __ __ __ __ __ __ _
 72
    65
 73
     2
 40
0.375
 49
0.25
 49
-0.125
  0
LTYPE
  2
PHANTOM2
 70
     0
  3
___ _ _ ___ _ _ ___ _ _ ___ _ _
 72
    65
 73
     6
 40
1.25
 49
0.625
 49
-0.125
 49
0.125
 49
-0.125
 49
0.125
 49
-0.125
  0
ENDTAB
  0
TABLE
  2
LAYER
 70
     5
  0
LAYER
  2
0
 70
     0
 62
     7
  6
CONTINUOUS
  0
LAYER
  2
1
 70
     0
 62
     1
  6
CENTER
  0
LAYER
  2
3
 70
     0
 62
     3
  6
CONTINUOUS
  0
LAYER
  2
2
 70
     0
 62
     2
  6
HIDDEN
  0
LAYER
  2
DEFPOINTS
 70
     0
 62
     7
  6
CONTINUOUS
  0
ENDTAB
  0
TABLE
  2
STYLE
 70
     2
  0
STYLE
  2
STANDARD
 70
     0
 40
0.0
 41
1.0
 50
0.0
 71
     0
 42
0.2
  3
TXT
  4
BIGFONT
  0
STYLE
  2
STANDARD1
 70
     0
 40
0.0
 41
1.0
 50
0.0
 71
     0
 42
3.0
  3
txt
  4

  0
ENDTAB
  0
TABLE
  2
VIEW
 70
     1
  0
VIEW
  2
ALL
 70
     0
 40
270.0
 10
220.9915970000000129
 20
135.0
 41
0.0
 11
0.0
 21
0.0
 31
1.0
 12
0.0
 22
0.0
 32
0.0
 42
0.0
 43
0.0
 44
0.0
 50
0.0
 71
     0
  0
ENDTAB
  0
TABLE
  2
UCS
 70
     0
  0
ENDTAB
  0
TABLE
  2
APPID
 70
     6
  0
APPID
  2
ACAD
 70
     0
  0
APPID
  2
ACAD_EXEMPT_FROM_CAD_STANDARDS
 70
     0
  0
APPID
  2
ACAD_MLEADERVER
 70
     0
  0
APPID
  2
ACAD_NAV_VCDISPLAY
 70
     0
  0
APPID
  2
ACAD_DSTYLE_DIMJAG
 70
     0
  0
APPID
  2
ACAD_DSTYLE_DIMTALN
 70
     0
  0
ENDTAB
  0
TABLE
  2
DIMSTYLE
 70
     1
  0
DIMSTYLE
  2
STANDARD
 70
     0
  3

  4

  5

  6

  7

 40
1.0
 41
0.18
 42
0.0625
 43
0.38
 44
0.18
 45
0.0
 46
0.0
 47
0.0
 48
0.0
140
0.18
141
0.09
142
0.0
143
25.3999999999999986
144
1.0
145
0.0
146
1.0
147
0.09
 71
     0
 72
     0
 73
     1
 74
     1
 75
     0
 76
     0
 77
     0
 78
     0
170
     0
171
     2
172
     0
173
     0
174
     0
175
     0
176
     0
177
     0
178
     0
  0
ENDTAB
  0
ENDSEC
  0
SECTION
  2
BLOCKS
  0
BLOCK
  8
0
  2
$MODEL_SPACE
 70
     0
 10
0.0
 20
0.0
 30
0.0
  3
$MODEL_SPACE
  1

  0
ENDBLK
  5
E8
  8
0
  0
BLOCK
 67
     1
  8
0
  2
$PAPER_SPACE
 70
     0
 10
0.0
 20
0.0
 30
0.0
  3
$PAPER_SPACE
  1

  0
ENDBLK
  5
E6
 67
     1
  8
0
  0
ENDSEC
  0
SECTION
  2
ENTITIES
  0
TEXT
  5
129C
  8
0
 62
     3
 10
0.0
 20
0.0
 30
0.0
 40
10.0
  1
KCL06-RE
  7
STANDARD1
  0
CIRCLE
  5
1AEB
  8
3
 10
95.1251330462000482
 20
97.8495865718260234
 30
0.0
 40
3.0
  0
CIRCLE
  5
1AEC
  8
0
 10
95.1251330462000482
 20
97.8495865718260234
 30
0.0
 40
2.458499999999999
  0
LINE
  5
1E2A
  8
2
 10
36.9026531605220001
 20
58.5168333867525376
 30
0.0
 11
36.9026531605220001
 21
49.5391257339516571
 31
0.0
  0
LINE
  5
1E2B
  8
2
 10
41.819653160522023
 20
49.5391257339513302
 30
0.0
 11
41.819653160522023
 21
58.5168333867525376
 31
0.0
  0
LINE
  5
1E2C
  8
2
 10
42.361153160522008
 20
49.5279795603520085
 30
0.0
 11
42.361153160522008
 21
58.5279795603520512
 31
0.0
  0
LINE
  5
1E2D
  8
2
 10
36.361153160522008
 20
49.527979560352037
 30
0.0
 11
36.361153160522008
 21
58.5279795603520228
 31
0.0
  0
LINE
  5
24C5
  8
0
 10
87.1251330462001192
 20
40.3279795603520199
 30
0.0
 11
88.125133046200105
 21
39.327979560352027
 31
0.0
  0
LINE
  5
24C6
  8
0
 10
102.1251330462000055
 20
39.327979560352027
 30
0.0
 11
103.1251330462000055
 21
40.3279795603520199
 31
0.0
  0
LINE
  5
24C7
  8
0
 10
103.1251330462000055
 20
40.3279795603520199
 30
0.0
 11
103.1251330462000055
 21
45.0279795603521222
 31
0.0
  0
LINE
  5
24C8
  8
0
 10
87.1251330462001192
 20
45.0279795603521222
 30
0.0
 11
87.1251330462001192
 21
40.3279795603520199
 31
0.0
  0
LINE
  5
24C9
  8
0
 10
88.125133046200105
 20
46.0279795603520085
 30
0.0
 11
87.1251330462002187
 21
45.0279795603521222
 31
0.0
  0
LINE
  5
24CA
  8
0
 10
103.1251330461999061
 20
45.0279795603521222
 30
0.0
 11
102.1251330462000055
 21
46.0279795603520085
 31
0.0
  0
LINE
  5
24CB
  8
0
 10
87.1251330462001192
 20
40.3279795603520199
 30
0.0
 11
103.1251330462000055
 21
40.3279795603520199
 31
0.0
  0
LINE
  5
24CC
  8
0
 10
88.1251330462000624
 20
39.327979560352027
 30
0.0
 11
102.1251330462000055
 21
39.327979560352027
 31
0.0
  0
LINE
  5
24CD
  8
0
 10
103.1251330462000055
 20
45.0279795603521222
 30
0.0
 11
99.5144308543710281
 21
45.0279795603521507
 31
0.0
  0
LINE
  5
24CE
  8
0
 10
91.159972267618457
 20
45.0279795603521222
 30
0.0
 11
87.1251330462001192
 21
45.0279795603521222
 31
0.0
  0
LINE
  5
24CF
  8
0
 10
89.6185460814822363
 20
46.0279795603520085
 30
0.0
 11
88.125133046200105
 21
46.0279795603520085
 31
0.0
  0
LINE
  5
24D0
  8
0
 10
102.1251330462000055
 20
46.0279795603520085
 30
0.0
 11
101.1372168243923966
 21
46.0279795603520085
 31
0.0
  0
CIRCLE
  5
24D1
  8
0
 10
95.1251330462000482
 20
54.0279795603520014
 30
0.0
 40
4.5
  0
LINE
  5
24D2
  8
0
 10
165.5251330462000965
 20
50.1175407249440923
 30
0.0
 11
165.5251330462000965
 21
50.9508803556416012
 31
0.0
  0
ARC
  5
24D3
  8
0
 10
163.5152047054791069
 20
50.1174170283488607
 30
0.0
 40
2.0099283445272769
 50
240.1651766476219905
 51
0.003526142050936
  0
ARC
  5
24D4
  8
0
 10
163.0317274708270929
 20
50.9541339126982109
 30
0.0
 40
2.4934076980980659
 50
359.9252367991045958
 51
52.596380782975757
  0
ARC
  5
24D5
  8
0
 10
144.9051330461994098
 20
27.3179795603507891
 30
0.0
 40
32.2800000000014222
 50
52.5216175820793225
 51
71.3292277442377127
  0
ARC
  5
24D6
  8
0
 10
140.1234220239944932
 20
9.3242639496607822
 30
0.0
 40
45.0140744153158607
 50
60.169166131274693
 51
70.3791133258036439
  0
LINE
  5
24D7
  8
0
 10
154.6881861435450958
 20
58.0798109768091209
 30
0.0
 11
155.2389216226250994
 21
57.8992027807816783
 31
0.0
  0
LINE
  5
24D8
  8
0
 10
154.6881861435450958
 20
51.9169169089629534
 30
0.0
 11
155.2389216226250994
 21
51.7246008274662401
 31
0.0
  0
ARC
  5
24D9
  8
0
 10
140.1251330462000908
 20
9.3279795603529365
 30
0.0
 40
50.8899999999990698
 50
76.0896677445099101
 51
95.6384716391328027
  0
LINE
  5
24DA
  8
0
 10
152.3592462808227026
 20
58.7255359104634422
 30
0.0
 11
154.6881861435450958
 21
58.0798109768091209
 31
0.0
  0
ARC
  5
24DB
  8
0
 10
140.1251330462000055
 20
9.3279795603517996
 30
0.0
 40
45.0100000000001828
 50
71.1221587576221168
 51
96.3779470016016404
  0
ARC
  5
24DC
  8
0
 10
114.3951330462003
 20
122.1079795603510973
 30
0.0
 40
65.1399999999991195
 50
270.0
 51
278.9060987494024744
  0
ARC
  5
24DD
  8
0
 10
116.6351330462002949
 20
127.0079795603501935
 30
0.0
 40
75.0299999999982816
 50
268.2891960663245072
 51
280.1646527152312842
  0
ARC
  5
24DE
  8
0
 10
140.1251330462000055
 20
9.3279795603519986
 30
0.0
 40
50.8900000000000077
 50
95.6384716391311258
 51
107.9046580861959939
  0
ARC
  5
24DF
  8
0
 10
140.1251330462000055
 20
9.3279795603517996
 30
0.0
 40
45.010000000000197
 50
96.3779470016016404
 51
103.1618477545109016
  0
ARC
  5
24E0
  8
0
 10
111.1950431112702944
 20
42.1680598405381772
 30
0.0
 40
10.0100000000000495
 50
90.1994608608010253
 51
144.3093582997547912
  0
ARC
  5
24E1
  8
0
 10
95.3671184371144705
 20
53.5748971166217203
 30
0.0
 40
9.4999999999999751
 50
268.5403956471843117
 51
324.1269467429282258
  0
ARC
  5
24E2
  8
0
 10
95.1251330462000482
 20
52.8279795603520199
 30
0.0
 40
8.7500000000000142
 50
55.0211520291482188
 51
270.0
  0
ARC
  5
24E3
  8
0
 10
108.7403902807050997
 20
72.2878683174402283
 30
0.0
 40
14.9999999999997904
 50
235.0211520291481122
 51
263.5244580538733885
  0
POLYLINE
  5
24E4
  8
0
 66
     1
 10
0.0
 20
0.0
 30
0.0
  0
VERTEX
  5
25C4
  8
0
 10
114.395133046200101
 20
56.9679795603520134
 30
0.0
  0
VERTEX
  5
25C5
  8
0
 10
110.7160458594246961
 20
57.0719594063472968
 30
0.0
  0
VERTEX
  5
25C6
  8
0
 10
107.0487041721604982
 20
57.3835669882886066
 30
0.0
  0
SEQEND
  5
25C7
  8
0
  0
LINE
  5
24E5
  8
0
 10
114.395133046200101
 20
52.0114243061271608
 30
0.0
 11
111.1601958816706031
 21
52.1779991845396935
 31
0.0
  0
LINE
  5
24E6
  8
0
 10
90.6251330462000624
 20
100.849586571825995
 30
0.0
 11
90.6251330462000624
 21
94.8495865718259239
 31
0.0
  0
LINE
  5
24E7
  8
0
 10
99.6251330462000624
 20
94.8495865718259239
 30
0.0
 11
99.6251330462000624
 21
100.849586571825995
 31
0.0
  0
LINE
  5
24E8
  8
0
 10
86.3751330462000482
 20
105.349586571825995
 30
0.0
 11
86.3751330462000482
 21
100.849586571825995
 31
0.0
  0
LINE
  5
24E9
  8
0
 10
86.3751330462000482
 20
94.849586571825995
 30
0.0
 11
86.3751330462000482
 21
90.349586571825995
 31
0.0
  0
ARC
  5
24EA
  8
0
 10
95.1208503009738138
 20
97.1950984540794991
 30
0.0
 40
7.3700398042937998
 50
248.2531158296731064
 51
291.7468841703287126
  0
ARC
  5
24EB
  8
0
 10
95.1294157914320522
 20
98.5040746894055843
 30
0.0
 40
7.3700398044532243
 50
68.2531158288718416
 51
111.7468841711281016
  0
ARC
  5
24EC
  8
0
 10
95.1251330462000482
 20
97.849586571825995
 30
0.0
 40
6.9999999999999947
 50
154.5531861029504057
 51
205.5097039963910106
  0
ARC
  5
24ED
  8
0
 10
95.1251330462000482
 20
97.849586571825995
 30
0.0
 40
7.999999999999992
 50
157.8773108123826034
 51
202.0482870069438945
  0
ARC
  5
24EE
  8
0
 10
95.1251330462000482
 20
97.849586571825995
 30
0.0
 40
6.9999999999999813
 50
334.6230664748483719
 51
25.376933525151621
  0
POLYLINE
  5
24EF
  8
0
 66
     1
 10
0.0
 20
0.0
 30
0.0
  0
VERTEX
  5
25C8
  8
0
 10
124.4798177835803017
 20
89.8631087745572756
 30
0.0
  0
VERTEX
  5
25C9
  8
0
 10
126.7547271623646026
 20
89.7533115171208067
 30
0.0
  0
VERTEX
  5
25CA
  8
0
 10
129.2866043725624081
 20
89.6311253975200941
 30
0.0
  0
VERTEX
  5
25CB
  8
0
 10
132.0772511082172969
 20
89.4965504157551379
 30
0.0
  0
VERTEX
  5
25CC
  8
0
 10
135.1251330462000055
 20
89.349586571825995
 30
0.0
  0
SEQEND
  5
25CD
  8
0
  0
LINE
  5
24F0
  8
0
 10
135.1251330462000055
 20
106.349586571825995
 30
0.0
 11
124.4798177835803017
 21
105.8360643690946006
 31
0.0
  0
LINE
  5
24F1
  8
0
 10
152.3592462808198036
 20
108.3317288573343973
 30
0.0
 11
135.1251330462000055
 21
106.349586571825995
 31
0.0
  0
POLYLINE
  5
24F2
  8
0
 66
     1
 10
0.0
 20
0.0
 30
0.0
  0
VERTEX
  5
25CE
  8
0
 10
135.1251330462000055
 20
89.349586571825995
 30
0.0
  0
VERTEX
  5
25CF
  8
0
 10
138.5899286213158064
 20
88.9515553691991983
 30
0.0
  0
VERTEX
  5
25D0
  8
0
 10
142.0618696930476119
 20
88.5523930103431383
 30
0.0
  0
VERTEX
  5
25D1
  8
0
 10
145.5221897766585926
 20
88.153174596845389
 30
0.0
  0
VERTEX
  5
25D2
  8
0
 10
148.9587170798700129
 20
87.7580850632998875
 30
0.0
  0
VERTEX
  5
25D3
  8
0
 10
152.3592462808225889
 20
87.3674442863171805
 30
0.0
  0
SEQEND
  5
25D4
  8
0
  0
ARC
  5
24F3
  8
0
 10
101.625133046200105
 20
95.8495865718259381
 30
0.0
 40
0.9999999999999715
 50
269.9999999999984084
 51
0.0000000000016284
  0
LINE
  5
24F4
  8
0
 10
102.6251330462000055
 20
95.849586571825995
 30
0.0
 11
102.6251330462000055
 21
99.849586571825995
 31
0.0
  0
ARC
  5
24F5
  8
0
 10
101.6251330462002045
 20
99.8495865718260518
 30
0.0
 40
0.999999999999943
 50
359.9999999999968168
 51
90.0000000000032543
  0
LINE
  5
24F6
  8
0
 10
86.3751330462000482
 20
94.849586571825995
 30
0.0
 11
101.6251330462000055
 21
94.849586571825995
 31
0.0
  0
LINE
  5
24F7
  8
0
 10
101.6251330462000055
 20
100.849586571825995
 30
0.0
 11
86.3751330462000482
 21
100.849586571825995
 31
0.0
  0
ARC
  5
24F8
  8
0
 10
154.7751328776126911
 20
97.8495865718261655
 30
0.0
 40
10.7600000000002094
 50
272.4703878077360741
 51
335.2440832748525281
  0
LINE
  5
24F9
  8
0
 10
154.6881861435450958
 20
87.099586571825995
 30
0.0
 11
155.2389216226250994
 21
87.099586571825995
 31
0.0
  0
LINE
  5
24FA
  8
0
 10
155.2389216226250142
 20
108.599586571825995
 30
0.0
 11
154.6881861435450958
 21
108.599586571825995
 31
0.0
  0
ARC
  5
24FB
  8
0
 10
154.7751328776128048
 20
97.8495865718259381
 30
0.0
 40
10.7600000000000602
 50
24.7559167251475216
 51
87.5296121922654748
  0
LINE
  5
24FC
  8
0
 10
154.6881861435450958
 20
108.599586571825995
 30
0.0
 11
152.3592462808198036
 21
108.3317288573343973
 31
0.0
  0
LINE
  5
24FD
  8
0
 10
152.3592462808227026
 20
87.3674442863171805
 30
0.0
 11
154.6881861435450958
 21
87.099586571825995
 31
0.0
  0
LINE
  5
24FE
  8
0
 10
124.4798177835803017
 20
105.8360643690946006
 30
0.0
 11
114.395133046200101
 21
105.349586571825995
 31
0.0
  0
POLYLINE
  5
24FF
  8
0
 66
     1
 10
0.0
 20
0.0
 30
0.0
  0
VERTEX
  5
25D5
  8
0
 10
114.395133046200101
 20
90.349586571825995
 30
0.0
  0
VERTEX
  5
25D6
  8
0
 10
117.7687598199571966
 20
90.1874273060697362
 30
0.0
  0
VERTEX
  5
25D7
  8
0
 10
121.1333316217495053
 20
90.0252680403134633
 30
0.0
  0
VERTEX
  5
25D8
  8
0
 10
124.4798177835803017
 20
89.8631087745572756
 30
0.0
  0
SEQEND
  5
25D9
  8
0
  0
LINE
  5
2500
  8
0
 10
114.395133046200101
 20
90.349586571825995
 30
0.0
 11
86.3751330462001192
 21
90.349586571825995
 31
0.0
  0
LINE
  5
2501
  8
0
 10
86.3751330462001192
 20
105.349586571825995
 30
0.0
 11
114.395133046200101
 21
105.349586571825995
 31
0.0
  0
LINE
  5
2502
  8
0
 10
165.5251330462000965
 20
97.3858017344581839
 30
0.0
 11
165.5251330462000965
 21
98.313371409194005
 31
0.0
  0
ARC
  5
2503
  8
0
 10
154.7751328775970876
 20
97.8495865718221864
 30
0.0
 40
10.76000000001582
 50
2.4703669806342399
 51
24.7559167251316694
  0
ARC
  5
2504
  8
0
 10
154.7751328776080868
 20
97.8495865718272029
 30
0.0
 40
10.7600000000047196
 50
335.2440832748570188
 51
357.5296330193837093
  0
LINE
  5
2505
  8
0
 10
47.361153160522008
 20
40.3279795603520199
 30
0.0
 11
47.361153160522008
 21
44.0305367995595418
 31
0.0
  0
LINE
  5
2506
  8
0
 10
31.3611531605220115
 20
44.0305367995595418
 30
0.0
 11
31.3611531605220115
 21
40.3279795603520199
 31
0.0
  0
LINE
  5
2507
  8
0
 10
31.3611531605220115
 20
40.3279795603520199
 30
0.0
 11
32.361153160522008
 21
39.327979560352027
 31
0.0
  0
LINE
  5
2508
  8
0
 10
46.3611531605220009
 20
39.327979560352027
 30
0.0
 11
47.361153160522008
 21
40.3279795603520199
 31
0.0
  0
LINE
  5
2509
  8
0
 10
41.8500267889548923
 20
49.5279795603520085
 30
0.0
 11
42.361153160522008
 21
49.5279795603520085
 31
0.0
  0
LINE
  5
250A
  8
0
 10
36.3611531605220719
 20
49.5279795603520085
 30
0.0
 11
36.8722795320891308
 21
49.5279795603520085
 31
0.0
  0
LINE
  5
250B
  8
0
 10
36.8722795320893013
 20
58.5279795603520085
 30
0.0
 11
36.361153160522008
 21
58.5279795603520085
 31
0.0
  0
LINE
  5
250C
  8
0
 10
42.361153160522008
 20
58.5279795603520085
 30
0.0
 11
41.8500267889547786
 21
58.5279795603520085
 31
0.0
  0
LINE
  5
250D
  8
0
 10
36.361153160522008
 20
61.5779795603520199
 30
0.0
 11
31.8611531605220115
 21
61.5779795603520199
 31
0.0
  0
LINE
  5
250E
  8
0
 10
46.861153160522008
 20
61.5779795603520199
 30
0.0
 11
42.361153160522008
 21
61.5779795603520199
 31
0.0
  0
LINE
  5
250F
  8
0
 10
48.2651084591725521
 20
60.2179795603519992
 30
0.0
 11
46.8611531605221785
 21
60.2179795603519992
 31
0.0
  0
LINE
  5
2510
  8
0
 10
42.3611531605221785
 20
60.2179795603519992
 30
0.0
 11
36.3611531605221785
 21
60.2179795603519992
 31
0.0
  0
LINE
  5
2511
  8
0
 10
31.8611531605221785
 20
60.2179795603519992
 30
0.0
 11
30.2860895472904303
 21
60.2179795603519992
 31
0.0
  0
ARC
  5
2512
  8
0
 10
62.0598906744646612
 20
5.7061486783596322
 30
0.0
 40
49.1016760319490331
 50
126.791080255543406
 51
128.6926330096048048
  0
LINE
  5
2513
  8
0
 10
46.0693570930211465
 20
45.0279795603521222
 30
0.0
 11
32.6529492280229192
 21
45.0279795603521507
 31
0.0
  0
POLYLINE
  5
2514
  8
0
 66
     1
 10
0.0
 20
0.0
 30
0.0
  0
VERTEX
  5
25DA
  8
0
 10
47.3579505707684234
 20
44.0305367995595418
 30
0.0
  0
VERTEX
  5
25DB
  8
0
 10
47.3610337869866882
 20
44.0280750589237471
 30
0.0
  0
VERTEX
  5
25DC
  8
0
 10
47.2837235220483691
 20
44.0898146828036133
 30
0.0
  0
VERTEX
  5
25DD
  8
0
 10
47.0596188825880404
 20
44.2675300587242404
 30
0.0
  0
VERTEX
  5
25DE
  8
0
 10
46.7153049800525579
 20
44.5367441831893132
 30
0.0
  0
VERTEX
  5
25DF
  8
0
 10
46.2493050756974
 20
44.8930664898004181
 30
0.0
  0
VERTEX
  5
25E0
  8
0
 10
46.0693570930211465
 20
45.0279795603521791
 30
0.0
  0
SEQEND
  5
25E1
  8
0
  0
LINE
  5
2515
  8
0
 10
31.3611531605220115
 20
40.3279795603520199
 30
0.0
 11
47.361153160522008
 21
40.3279795603520199
 31
0.0
  0
LINE
  5
2516
  8
0
 10
32.361153160522008
 20
39.327979560352027
 30
0.0
 11
46.3611531605220009
 21
39.327979560352027
 31
0.0
  0
ARC
  5
2517
  8
0
 10
41.5313917020611711
 20
22.8335100412450416
 30
0.0
 40
23.9044183781865094
 50
104.5648502037212069
 51
111.8028664056810015
  0
LINE
  5
2518
  8
0
 10
35.5200127691695116
 20
45.9697271331675381
 30
0.0
 11
35.9260403530585108
 21
46.0279795603520085
 31
0.0
  0
LINE
  5
2519
  8
0
 10
42.7962659679855619
 20
46.0279795603520085
 30
0.0
 11
35.9260403530585108
 21
46.0279795603520085
 31
0.0
  0
LINE
  5
251A
  8
0
 10
42.7962659679855619
 20
46.0279795603520085
 30
0.0
 11
43.2022935518744973
 21
45.9697271331675381
 31
0.0
  0
ARC
  5
251B
  8
0
 10
37.1776946311709935
 20
22.7932630088512092
 30
0.0
 40
23.9466966711708515
 50
68.2035315017398176
 51
75.4287518888570787
  0
ARC
  5
251C
  8
0
 10
39.361153160522008
 20
62.108485109660343
 30
0.0
 40
4.0830386716670768
 50
259.4108765866693034
 51
280.5891234133308103
  0
ARC
  5
251D
  8
0
 10
39.7090986006908224
 20
66.2114316715640143
 30
0.0
 40
8.1904199387618775
 50
249.7352728796483063
 51
262.2939226624807247
  0
LINE
  5
251E
  8
0
 10
36.361153160522008
 20
46.0279795603520085
 30
0.0
 11
36.361153160522008
 21
61.5681275284137186
 31
0.0
  0
LINE
  5
251F
  8
0
 10
31.8611531605220115
 20
61.5681275284137186
 30
0.0
 11
31.8611531605220115
 21
44.4227075732216008
 31
0.0
  0
LINE
  5
2520
  8
0
 10
46.861153160522008
 20
44.4227075732215724
 30
0.0
 11
46.861153160522008
 21
61.5681275284137186
 31
0.0
  0
LINE
  5
2521
  8
0
 10
42.361153160522008
 20
61.5681275284137186
 30
0.0
 11
42.361153160522008
 21
46.0279795603520085
 31
0.0
  0
LINE
  5
2522
  8
0
 10
41.3611531605220009
 20
47.4453601084701617
 30
0.0
 11
37.361153160522008
 21
47.4453601084701617
 31
0.0
  0
ARC
  5
2523
  8
0
 10
41.3220833588235266
 20
46.4068219475038219
 30
0.0
 40
1.039272804026051
 50
1.132479703177754
 51
87.8455489799281679
  0
ARC
  5
2524
  8
0
 10
37.4071813135178104
 20
46.3999866167957578
 30
0.0
 40
1.0463863187005951
 50
92.5211244332545562
 51
178.5008468836383031
  0
POLYLINE
  5
2525
  8
0
 66
     1
 10
0.0
 20
0.0
 30
0.0
  0
VERTEX
  5
25E2
  8
0
 10
37.361153160522008
 20
58.591020908060699
 30
0.0
  0
VERTEX
  5
25E3
  8
0
 10
37.1631315018832424
 20
58.6000915094927493
 30
0.0
  0
VERTEX
  5
25E4
  8
0
 10
36.9700164462379419
 20
58.6273033137890209
 30
0.0
  0
VERTEX
  5
25E5
  8
0
 10
36.7902696539276235
 20
58.6726563209494714
 30
0.0
  0
VERTEX
  5
25E6
  8
0
 10
36.6324100583534573
 20
58.7361505309740224
 30
0.0
  0
VERTEX
  5
25E7
  8
0
 10
36.4447391407675809
 20
58.8758958232985989
 30
0.0
  0
VERTEX
  5
25E8
  8
0
 10
36.361153160522008
 20
59.0828270646906901
 30
0.0
  0
SEQEND
  5
25E9
  8
0
  0
POLYLINE
  5
2526
  8
0
 66
     1
 10
0.0
 20
0.0
 30
0.0
  0
VERTEX
  5
25EA
  8
0
 10
42.361153160522008
 20
59.0828270646906901
 30
0.0
  0
VERTEX
  5
25EB
  8
0
 10
42.2774218224761213
 20
58.8757550572443904
 30
0.0
  0
VERTEX
  5
25EC
  8
0
 10
42.0891183575101877
 20
58.7357581881933228
 30
0.0
  0
VERTEX
  5
25ED
  8
0
 10
41.9314769321062499
 20
58.672435628135311
 30
0.0
  0
VERTEX
  5
25EE
  8
0
 10
41.751975896881099
 20
58.6272052280938567
 30
0.0
  0
VERTEX
  5
25EF
  8
0
 10
41.5590631367965102
 20
58.60006698806896
 30
0.0
  0
VERTEX
  5
25F0
  8
0
 10
41.3611531605220009
 20
58.591020908060699
 30
0.0
  0
SEQEND
  5
25F1
  8
0
  0
LINE
  5
2527
  8
0
 10
41.3611531605220009
 20
58.5910209080606421
 30
0.0
 11
37.361153160522008
 21
58.5910209080606421
 31
0.0
  0
POLYLINE
  5
2528
  8
0
 10
31.3746753632533064
 20
57.7533469862501221
 30
0.0
 66
     1
 70
     8
  0
VERTEX
  8
0
  5
2602
 10
31.3747
 20
57.7533
 30
0.00000
  70
    32
  0
VERTEX
  8
0
  5
2603
 10
31.3784
 20
57.7411
 30
0.00000
  70
    32
  0
VERTEX
  8
0
  5
2604
 10
31.3822
 20
57.7290
 30
0.00000
  70
    32
  0
VERTEX
  8
0
  5
2605
 10
31.3860
 20
57.7170
 30
0.00000
  70
    32
  0
VERTEX
  8
0
  5
2606
 10
31.3898
 20
57.7051
 30
0.00000
  70
    32
  0
VERTEX
  8
0
  5
2607
 10
31.3935
 20
57.6933
 30
0.00000
  70
    32
  0
VERTEX
  8
0
  5
2608
 10
31.3973
 20
57.6816
 30
0.00000
  70
    32
  0
VERTEX
  8
0
  5
2609
 10
31.4011
 20
57.6699
 30
0.00000
  70
    32
  0
VERTEX
  8
0
  5
260A
 10
31.4049
 20
57.6584
 30
0.00000
  70
    32
  0
VERTEX
  8
0
  5
260B
 10
31.4086
 20
57.6470
 30
0.00000
  70
    32
  0
VERTEX
  8
0
  5
260C
 10
31.4124
 20
57.6356
 30
0.00000
  70
    32
  0
VERTEX
  8
0
  5
260D
 10
31.4162
 20
57.6244
 30
0.00000
  70
    32
  0
VERTEX
  8
0
  5
260E
 10
31.4200
 20
57.6132
 30
0.00000
  70
    32
  0
VERTEX
  8
0
  5
260F
 10
31.4237
 20
57.6022
 30
0.00000
  70
    32
  0
VERTEX
  8
0
  5
2610
 10
31.4275
 20
57.5912
 30
0.00000
  70
    32
  0
VERTEX
  8
0
  5
2611
 10
31.4313
 20
57.5803
 30
0.00000
  70
    32
  0
VERTEX
  8
0
  5
2612
 10
31.4351
 20
57.5696
 30
0.00000
  70
    32
  0
VERTEX
  8
0
  5
2613
 10
31.4389
 20
57.5589
 30
0.00000
  70
    32
  0
VERTEX
  8
0
  5
2614
 10
31.4426
 20
57.5483
 30
0.00000
  70
    32
  0
VERTEX
  8
0
  5
2615
 10
31.4464
 20
57.5378
 30
0.00000
  70
    32
  0
VERTEX
  8
0
  5
2616
 10
31.4502
 20
57.5274
 30
0.00000
  70
    32
  0
VERTEX
  8
0
  5
2617
 10
31.4540
 20
57.5171
 30
0.00000
  70
    32
  0
VERTEX
  8
0
  5
2618
 10
31.4578
 20
57.5069
 30
0.00000
  70
    32
  0
VERTEX
  8
0
  5
2619
 10
31.4616
 20
57.4968
 30
0.00000
  70
    32
  0
VERTEX
  8
0
  5
261A
 10
31.4653
 20
57.4868
 30
0.00000
  70
    32
  0
VERTEX
  8
0
  5
261B
 10
31.4691
 20
57.4769
 30
0.00000
  70
    32
  0
VERTEX
  8
0
  5
261C
 10
31.4729
 20
57.4671
 30
0.00000
  70
    32
  0
VERTEX
  8
0
  5
261D
 10
31.4767
 20
57.4573
 30
0.00000
  70
    32
  0
VERTEX
  8
0
  5
261E
 10
31.4805
 20
57.4477
 30
0.00000
  70
    32
  0
VERTEX
  8
0
  5
261F
 10
31.4843
 20
57.4382
 30
0.00000
  70
    32
  0
VERTEX
  8
0
  5
2620
 10
31.4881
 20
57.4287
 30
0.00000
  70
    32
  0
VERTEX
  8
0
  5
2621
 10
31.4919
 20
57.4194
 30
0.00000
  70
    32
  0
VERTEX
  8
0
  5
2622
 10
31.4957
 20
57.4101
 30
0.00000
  70
    32
  0
VERTEX
  8
0
  5
2623
 10
31.4994
 20
57.4010
 30
0.00000
  70
    32
  0
VERTEX
  8
0
  5
2624
 10
31.5032
 20
57.3919
 30
0.00000
  70
    32
  0
VERTEX
  8
0
  5
2625
 10
31.5070
 20
57.3830
 30
0.00000
  70
    32
  0
VERTEX
  8
0
  5
2626
 10
31.5108
 20
57.3741
 30
0.00000
  70
    32
  0
VERTEX
  8
0
  5
2627
 10
31.5146
 20
57.3653
 30
0.00000
  70
    32
  0
VERTEX
  8
0
  5
2628
 10
31.5184
 20
57.3566
 30
0.00000
  70
    32
  0
VERTEX
  8
0
  5
2629
 10
31.5222
 20
57.3481
 30
0.00000
  70
    32
  0
VERTEX
  8
0
  5
262A
 10
31.5260
 20
57.3396
 30
0.00000
  70
    32
  0
VERTEX
  8
0
  5
262B
 10
31.5298
 20
57.3312
 30
0.00000
  70
    32
  0
VERTEX
  8
0
  5
262C
 10
31.5336
 20
57.3229
 30
0.00000
  70
    32
  0
VERTEX
  8
0
  5
262D
 10
31.5374
 20
57.3147
 30
0.00000
  70
    32
  0
VERTEX
  8
0
  5
262E
 10
31.5412
 20
57.3066
 30
0.00000
  70
    32
  0
VERTEX
  8
0
  5
262F
 10
31.5450
 20
57.2986
 30
0.00000
  70
    32
  0
VERTEX
  8
0
  5
2630
 10
31.5488
 20
57.2907
 30
0.00000
  70
    32
  0
VERTEX
  8
0
  5
2631
 10
31.5526
 20
57.2829
 30
0.00000
  70
    32
  0
VERTEX
  8
0
  5
2632
 10
31.5564
 20
57.2751
 30
0.00000
  70
    32
  0
VERTEX
  8
0
  5
2633
 10
31.5602
 20
57.2675
 30
0.00000
  70
    32
  0
VERTEX
  8
0
  5
2634
 10
31.5640
 20
57.2600
 30
0.00000
  70
    32
  0
VERTEX
  8
0
  5
2635
 10
31.5678
 20
57.2526
 30
0.00000
  70
    32
  0
VERTEX
  8
0
  5
2636
 10
31.5716
 20
57.2452
 30
0.00000
  70
    32
  0
VERTEX
  8
0
  5
2637
 10
31.5754
 20
57.2380
 30
0.00000
  70
    32
  0
VERTEX
  8
0
  5
2638
 10
31.5792
 20
57.2308
 30
0.00000
  70
    32
  0
VERTEX
  8
0
  5
2639
 10
31.5830
 20
57.2238
 30
0.00000
  70
    32
  0
VERTEX
  8
0
  5
263A
 10
31.5868
 20
57.2168
 30
0.00000
  70
    32
  0
VERTEX
  8
0
  5
263B
 10
31.5906
 20
57.2100
 30
0.00000
  70
    32
  0
VERTEX
  8
0
  5
263C
 10
31.5944
 20
57.2032
 30
0.00000
  70
    32
  0
VERTEX
  8
0
  5
263D
 10
31.5982
 20
57.1965
 30
0.00000
  70
    32
  0
VERTEX
  8
0
  5
263E
 10
31.6020
 20
57.1900
 30
0.00000
  70
    32
  0
VERTEX
  8
0
  5
263F
 10
31.6058
 20
57.1835
 30
0.00000
  70
    32
  0
VERTEX
  8
0
  5
2640
 10
31.6096
 20
57.1771
 30
0.00000
  70
    32
  0
VERTEX
  8
0
  5
2641
 10
31.6134
 20
57.1708
 30
0.00000
  70
    32
  0
VERTEX
  8
0
  5
2642
 10
31.6172
 20
57.1646
 30
0.00000
  70
    32
  0
VERTEX
  8
0
  5
2643
 10
31.6210
 20
57.1585
 30
0.00000
  70
    32
  0
VERTEX
  8
0
  5
2644
 10
31.6248
 20
57.1525
 30
0.00000
  70
    32
  0
VERTEX
  8
0
  5
2645
 10
31.6286
 20
57.1466
 30
0.00000
  70
    32
  0
VERTEX
  8
0
  5
2646
 10
31.6324
 20
57.1408
 30
0.00000
  70
    32
  0
VERTEX
  8
0
  5
2647
 10
31.6362
 20
57.1351
 30
0.00000
  70
    32
  0
VERTEX
  8
0
  5
2648
 10
31.6400
 20
57.1295
 30
0.00000
  70
    32
  0
VERTEX
  8
0
  5
2649
 10
31.6438
 20
57.1240
 30
0.00000
  70
    32
  0
VERTEX
  8
0
  5
264A
 10
31.6476
 20
57.1185
 30
0.00000
  70
    32
  0
VERTEX
  8
0
  5
264B
 10
31.6514
 20
57.1132
 30
0.00000
  70
    32
  0
VERTEX
  8
0
  5
264C
 10
31.6552
 20
57.1080
 30
0.00000
  70
    32
  0
VERTEX
  8
0
  5
264D
 10
31.6590
 20
57.1029
 30
0.00000
  70
    32
  0
VERTEX
  8
0
  5
264E
 10
31.6629
 20
57.0978
 30
0.00000
  70
    32
  0
VERTEX
  8
0
  5
264F
 10
31.6667
 20
57.0929
 30
0.00000
  70
    32
  0
VERTEX
  8
0
  5
2650
 10
31.6705
 20
57.0880
 30
0.00000
  70
    32
  0
VERTEX
  8
0
  5
2651
 10
31.6743
 20
57.0833
 30
0.00000
  70
    32
  0
VERTEX
  8
0
  5
2652
 10
31.6781
 20
57.0786
 30
0.00000
  70
    32
  0
VERTEX
  8
0
  5
2653
 10
31.6819
 20
57.0741
 30
0.00000
  70
    32
  0
VERTEX
  8
0
  5
2654
 10
31.6857
 20
57.0696
 30
0.00000
  70
    32
  0
VERTEX
  8
0
  5
2655
 10
31.6895
 20
57.0652
 30
0.00000
  70
    32
  0
VERTEX
  8
0
  5
2656
 10
31.6933
 20
57.0609
 30
0.00000
  70
    32
  0
VERTEX
  8
0
  5
2657
 10
31.6971
 20
57.0568
 30
0.00000
  70
    32
  0
VERTEX
  8
0
  5
2658
 10
31.7010
 20
57.0527
 30
0.00000
  70
    32
  0
VERTEX
  8
0
  5
2659
 10
31.7048
 20
57.0487
 30
0.00000
  70
    32
  0
VERTEX
  8
0
  5
265A
 10
31.7086
 20
57.0448
 30
0.00000
  70
    32
  0
VERTEX
  8
0
  5
265B
 10
31.7124
 20
57.0410
 30
0.00000
  70
    32
  0
VERTEX
  8
0
  5
265C
 10
31.7162
 20
57.0373
 30
0.00000
  70
    32
  0
VERTEX
  8
0
  5
265D
 10
31.7200
 20
57.0337
 30
0.00000
  70
    32
  0
VERTEX
  8
0
  5
265E
 10
31.7238
 20
57.0302
 30
0.00000
  70
    32
  0
VERTEX
  8
0
  5
265F
 10
31.7276
 20
57.0268
 30
0.00000
  70
    32
  0
VERTEX
  8
0
  5
2660
 10
31.7314
 20
57.0235
 30
0.00000
  70
    32
  0
VERTEX
  8
0
  5
2661
 10
31.7353
 20
57.0203
 30
0.00000
  70
    32
  0
VERTEX
  8
0
  5
2662
 10
31.7391
 20
57.0172
 30
0.00000
  70
    32
  0
VERTEX
  8
0
  5
2663
 10
31.7429
 20
57.0141
 30
0.00000
  70
    32
  0
VERTEX
  8
0
  5
2664
 10
31.7467
 20
57.0112
 30
0.00000
  70
    32
  0
VERTEX
  8
0
  5
2665
 10
31.7505
 20
57.0084
 30
0.00000
  70
    32
  0
VERTEX
  8
0
  5
2666
 10
31.7543
 20
57.0056
 30
0.00000
  70
    32
  0
VERTEX
  8
0
  5
2667
 10
31.7581
 20
57.0030
 30
0.00000
  70
    32
  0
VERTEX
  8
0
  5
2668
 10
31.7620
 20
57.0004
 30
0.00000
  70
    32
  0
VERTEX
  8
0
  5
2669
 10
31.7658
 20
56.9980
 30
0.00000
  70
    32
  0
VERTEX
  8
0
  5
266A
 10
31.7696
 20
56.9956
 30
0.00000
  70
    32
  0
VERTEX
  8
0
  5
266B
 10
31.7734
 20
56.9934
 30
0.00000
  70
    32
  0
VERTEX
  8
0
  5
266C
 10
31.7772
 20
56.9912
 30
0.00000
  70
    32
  0
VERTEX
  8
0
  5
266D
 10
31.7810
 20
56.9892
 30
0.00000
  70
    32
  0
VERTEX
  8
0
  5
266E
 10
31.7848
 20
56.9872
 30
0.00000
  70
    32
  0
VERTEX
  8
0
  5
266F
 10
31.7887
 20
56.9853
 30
0.00000
  70
    32
  0
VERTEX
  8
0
  5
2670
 10
31.7925
 20
56.9835
 30
0.00000
  70
    32
  0
VERTEX
  8
0
  5
2671
 10
31.7963
 20
56.9819
 30
0.00000
  70
    32
  0
VERTEX
  8
0
  5
2672
 10
31.8001
 20
56.9803
 30
0.00000
  70
    32
  0
VERTEX
  8
0
  5
2673
 10
31.8039
 20
56.9788
 30
0.00000
  70
    32
  0
VERTEX
  8
0
  5
2674
 10
31.8077
 20
56.9774
 30
0.00000
  70
    32
  0
VERTEX
  8
0
  5
2675
 10
31.8115
 20
56.9761
 30
0.00000
  70
    32
  0
VERTEX
  8
0
  5
2676
 10
31.8154
 20
56.9749
 30
0.00000
  70
    32
  0
VERTEX
  8
0
  5
2677
 10
31.8192
 20
56.9738
 30
0.00000
  70
    32
  0
VERTEX
  8
0
  5
2678
 10
31.8230
 20
56.9728
 30
0.00000
  70
    32
  0
VERTEX
  8
0
  5
2679
 10
31.8268
 20
56.9719
 30
0.00000
  70
    32
  0
VERTEX
  8
0
  5
267A
 10
31.8306
 20
56.9711
 30
0.00000
  70
    32
  0
VERTEX
  8
0
  5
267B
 10
31.8344
 20
56.9703
 30
0.00000
  70
    32
  0
VERTEX
  8
0
  5
267C
 10
31.8383
 20
56.9697
 30
0.00000
  70
    32
  0
VERTEX
  8
0
  5
267D
 10
31.8421
 20
56.9692
 30
0.00000
  70
    32
  0
VERTEX
  8
0
  5
267E
 10
31.8459
 20
56.9687
 30
0.00000
  70
    32
  0
VERTEX
  8
0
  5
267F
 10
31.8497
 20
56.9684
 30
0.00000
  70
    32
  0
VERTEX
  8
0
  5
2680
 10
31.8535
 20
56.9682
 30
0.00000
  70
    32
  0
VERTEX
  8
0
  5
2681
 10
31.8573
 20
56.9680
 30
0.00000
  70
    32
  0
VERTEX
  8
0
  5
2682
 10
31.8612
 20
56.9680
 30
0.00000
  70
    32
  0
SEQEND
  8
0
  5
2683
  0
ARC
  5
2529
  8
0
 10
46.3664851344788573
 20
57.8177427541516309
 30
0.0
 40
0.9832568034475571
 50
300.2047359433024099
 51
356.2448788420063011
  0
POLYLINE
  5
252A
  8
0
 10
31.1143558089112275
 20
53.1556002497892877
 30
0.0
 66
     1
 70
     8
  0
VERTEX
  8
0
  5
2684
 10
31.1144
 20
53.1556
 30
0.00000
  70
    32
  0
VERTEX
  8
0
  5
2685
 10
31.1201
 20
53.1343
 30
0.00000
  70
    32
  0
VERTEX
  8
0
  5
2686
 10
31.1259
 20
53.1131
 30
0.00000
  70
    32
  0
VERTEX
  8
0
  5
2687
 10
31.1317
 20
53.0921
 30
0.00000
  70
    32
  0
VERTEX
  8
0
  5
2688
 10
31.1374
 20
53.0714
 30
0.00000
  70
    32
  0
VERTEX
  8
0
  5
2689
 10
31.1432
 20
53.0508
 30
0.00000
  70
    32
  0
VERTEX
  8
0
  5
268A
 10
31.1490
 20
53.0304
 30
0.00000
  70
    32
  0
VERTEX
  8
0
  5
268B
 10
31.1548
 20
53.0103
 30
0.00000
  70
    32
  0
VERTEX
  8
0
  5
268C
 10
31.1606
 20
52.9903
 30
0.00000
  70
    32
  0
VERTEX
  8
0
  5
268D
 10
31.1663
 20
52.9705
 30
0.00000
  70
    32
  0
VERTEX
  8
0
  5
268E
 10
31.1721
 20
52.9509
 30
0.00000
  70
    32
  0
VERTEX
  8
0
  5
268F
 10
31.1779
 20
52.9315
 30
0.00000
  70
    32
  0
VERTEX
  8
0
  5
2690
 10
31.1837
 20
52.9123
 30
0.00000
  70
    32
  0
VERTEX
  8
0
  5
2691
 10
31.1895
 20
52.8933
 30
0.00000
  70
    32
  0
VERTEX
  8
0
  5
2692
 10
31.1953
 20
52.8744
 30
0.00000
  70
    32
  0
VERTEX
  8
0
  5
2693
 10
31.2011
 20
52.8558
 30
0.00000
  70
    32
  0
VERTEX
  8
0
  5
2694
 10
31.2069
 20
52.8374
 30
0.00000
  70
    32
  0
VERTEX
  8
0
  5
2695
 10
31.2127
 20
52.8191
 30
0.00000
  70
    32
  0
VERTEX
  8
0
  5
2696
 10
31.2185
 20
52.8011
 30
0.00000
  70
    32
  0
VERTEX
  8
0
  5
2697
 10
31.2242
 20
52.7832
 30
0.00000
  70
    32
  0
VERTEX
  8
0
  5
2698
 10
31.2300
 20
52.7656
 30
0.00000
  70
    32
  0
VERTEX
  8
0
  5
2699
 10
31.2358
 20
52.7481
 30
0.00000
  70
    32
  0
VERTEX
  8
0
  5
269A
 10
31.2416
 20
52.7309
 30
0.00000
  70
    32
  0
VERTEX
  8
0
  5
269B
 10
31.2474
 20
52.7138
 30
0.00000
  70
    32
  0
VERTEX
  8
0
  5
269C
 10
31.2533
 20
52.6969
 30
0.00000
  70
    32
  0
VERTEX
  8
0
  5
269D
 10
31.2591
 20
52.6802
 30
0.00000
  70
    32
  0
VERTEX
  8
0
  5
269E
 10
31.2649
 20
52.6637
 30
0.00000
  70
    32
  0
VERTEX
  8
0
  5
269F
 10
31.2707
 20
52.6475
 30
0.00000
  70
    32
  0
VERTEX
  8
0
  5
26A0
 10
31.2765
 20
52.6314
 30
0.00000
  70
    32
  0
VERTEX
  8
0
  5
26A1
 10
31.2823
 20
52.6155
 30
0.00000
  70
    32
  0
VERTEX
  8
0
  5
26A2
 10
31.2881
 20
52.5997
 30
0.00000
  70
    32
  0
VERTEX
  8
0
  5
26A3
 10
31.2939
 20
52.5842
 30
0.00000
  70
    32
  0
VERTEX
  8
0
  5
26A4
 10
31.2997
 20
52.5689
 30
0.00000
  70
    32
  0
VERTEX
  8
0
  5
26A5
 10
31.3055
 20
52.5538
 30
0.00000
  70
    32
  0
VERTEX
  8
0
  5
26A6
 10
31.3114
 20
52.5389
 30
0.00000
  70
    32
  0
VERTEX
  8
0
  5
26A7
 10
31.3172
 20
52.5241
 30
0.00000
  70
    32
  0
VERTEX
  8
0
  5
26A8
 10
31.3230
 20
52.5096
 30
0.00000
  70
    32
  0
VERTEX
  8
0
  5
26A9
 10
31.3288
 20
52.4953
 30
0.00000
  70
    32
  0
VERTEX
  8
0
  5
26AA
 10
31.3346
 20
52.4811
 30
0.00000
  70
    32
  0
VERTEX
  8
0
  5
26AB
 10
31.3405
 20
52.4672
 30
0.00000
  70
    32
  0
VERTEX
  8
0
  5
26AC
 10
31.3463
 20
52.4534
 30
0.00000
  70
    32
  0
VERTEX
  8
0
  5
26AD
 10
31.3521
 20
52.4399
 30
0.00000
  70
    32
  0
VERTEX
  8
0
  5
26AE
 10
31.3579
 20
52.4265
 30
0.00000
  70
    32
  0
VERTEX
  8
0
  5
26AF
 10
31.3638
 20
52.4133
 30
0.00000
  70
    32
  0
VERTEX
  8
0
  5
26B0
 10
31.3696
 20
52.4004
 30
0.00000
  70
    32
  0
VERTEX
  8
0
  5
26B1
 10
31.3754
 20
52.3876
 30
0.00000
  70
    32
  0
VERTEX
  8
0
  5
26B2
 10
31.3812
 20
52.3750
 30
0.00000
  70
    32
  0
VERTEX
  8
0
  5
26B3
 10
31.3871
 20
52.3626
 30
0.00000
  70
    32
  0
VERTEX
  8
0
  5
26B4
 10
31.3929
 20
52.3504
 30
0.00000
  70
    32
  0
VERTEX
  8
0
  5
26B5
 10
31.3987
 20
52.3384
 30
0.00000
  70
    32
  0
VERTEX
  8
0
  5
26B6
 10
31.4046
 20
52.3266
 30
0.00000
  70
    32
  0
VERTEX
  8
0
  5
26B7
 10
31.4104
 20
52.3150
 30
0.00000
  70
    32
  0
VERTEX
  8
0
  5
26B8
 10
31.4162
 20
52.3036
 30
0.00000
  70
    32
  0
VERTEX
  8
0
  5
26B9
 10
31.4221
 20
52.2924
 30
0.00000
  70
    32
  0
VERTEX
  8
0
  5
26BA
 10
31.4279
 20
52.2814
 30
0.00000
  70
    32
  0
VERTEX
  8
0
  5
26BB
 10
31.4338
 20
52.2706
 30
0.00000
  70
    32
  0
VERTEX
  8
0
  5
26BC
 10
31.4396
 20
52.2600
 30
0.00000
  70
    32
  0
VERTEX
  8
0
  5
26BD
 10
31.4454
 20
52.2496
 30
0.00000
  70
    32
  0
VERTEX
  8
0
  5
26BE
 10
31.4513
 20
52.2393
 30
0.00000
  70
    32
  0
VERTEX
  8
0
  5
26BF
 10
31.4571
 20
52.2293
 30
0.00000
  70
    32
  0
VERTEX
  8
0
  5
26C0
 10
31.4629
 20
52.2195
 30
0.00000
  70
    32
  0
VERTEX
  8
0
  5
26C1
 10
31.4688
 20
52.2098
 30
0.00000
  70
    32
  0
VERTEX
  8
0
  5
26C2
 10
31.4746
 20
52.2004
 30
0.00000
  70
    32
  0
VERTEX
  8
0
  5
26C3
 10
31.4805
 20
52.1911
 30
0.00000
  70
    32
  0
VERTEX
  8
0
  5
26C4
 10
31.4863
 20
52.1821
 30
0.00000
  70
    32
  0
VERTEX
  8
0
  5
26C5
 10
31.4922
 20
52.1732
 30
0.00000
  70
    32
  0
VERTEX
  8
0
  5
26C6
 10
31.4980
 20
52.1645
 30
0.00000
  70
    32
  0
VERTEX
  8
0
  5
26C7
 10
31.5039
 20
52.1561
 30
0.00000
  70
    32
  0
VERTEX
  8
0
  5
26C8
 10
31.5097
 20
52.1478
 30
0.00000
  70
    32
  0
VERTEX
  8
0
  5
26C9
 10
31.5156
 20
52.1397
 30
0.00000
  70
    32
  0
VERTEX
  8
0
  5
26CA
 10
31.5214
 20
52.1319
 30
0.00000
  70
    32
  0
VERTEX
  8
0
  5
26CB
 10
31.5273
 20
52.1242
 30
0.00000
  70
    32
  0
VERTEX
  8
0
  5
26CC
 10
31.5331
 20
52.1167
 30
0.00000
  70
    32
  0
VERTEX
  8
0
  5
26CD
 10
31.5390
 20
52.1094
 30
0.00000
  70
    32
  0
VERTEX
  8
0
  5
26CE
 10
31.5448
 20
52.1023
 30
0.00000
  70
    32
  0
VERTEX
  8
0
  5
26CF
 10
31.5507
 20
52.0954
 30
0.00000
  70
    32
  0
VERTEX
  8
0
  5
26D0
 10
31.5565
 20
52.0887
 30
0.00000
  70
    32
  0
VERTEX
  8
0
  5
26D1
 10
31.5624
 20
52.0822
 30
0.00000
  70
    32
  0
VERTEX
  8
0
  5
26D2
 10
31.5682
 20
52.0759
 30
0.00000
  70
    32
  0
VERTEX
  8
0
  5
26D3
 10
31.5741
 20
52.0698
 30
0.00000
  70
    32
  0
VERTEX
  8
0
  5
26D4
 10
31.5799
 20
52.0639
 30
0.00000
  70
    32
  0
VERTEX
  8
0
  5
26D5
 10
31.5858
 20
52.0582
 30
0.00000
  70
    32
  0
VERTEX
  8
0
  5
26D6
 10
31.5916
 20
52.0527
 30
0.00000
  70
    32
  0
VERTEX
  8
0
  5
26D7
 10
31.5975
 20
52.0474
 30
0.00000
  70
    32
  0
VERTEX
  8
0
  5
26D8
 10
31.6033
 20
52.0422
 30
0.00000
  70
    32
  0
VERTEX
  8
0
  5
26D9
 10
31.6092
 20
52.0373
 30
0.00000
  70
    32
  0
VERTEX
  8
0
  5
26DA
 10
31.6151
 20
52.0326
 30
0.00000
  70
    32
  0
VERTEX
  8
0
  5
26DB
 10
31.6209
 20
52.0280
 30
0.00000
  70
    32
  0
VERTEX
  8
0
  5
26DC
 10
31.6268
 20
52.0237
 30
0.00000
  70
    32
  0
VERTEX
  8
0
  5
26DD
 10
31.6326
 20
52.0196
 30
0.00000
  70
    32
  0
VERTEX
  8
0
  5
26DE
 10
31.6385
 20
52.0156
 30
0.00000
  70
    32
  0
VERTEX
  8
0
  5
26DF
 10
31.6443
 20
52.0119
 30
0.00000
  70
    32
  0
VERTEX
  8
0
  5
26E0
 10
31.6502
 20
52.0083
 30
0.00000
  70
    32
  0
VERTEX
  8
0
  5
26E1
 10
31.6561
 20
52.0050
 30
0.00000
  70
    32
  0
VERTEX
  8
0
  5
26E2
 10
31.6619
 20
52.0018
 30
0.00000
  70
    32
  0
VERTEX
  8
0
  5
26E3
 10
31.6678
 20
51.9988
 30
0.00000
  70
    32
  0
VERTEX
  8
0
  5
26E4
 10
31.6736
 20
51.9961
 30
0.00000
  70
    32
  0
VERTEX
  8
0
  5
26E5
 10
31.6795
 20
51.9935
 30
0.00000
  70
    32
  0
VERTEX
  8
0
  5
26E6
 10
31.6854
 20
51.9911
 30
0.00000
  70
    32
  0
VERTEX
  8
0
  5
26E7
 10
31.6912
 20
51.9889
 30
0.00000
  70
    32
  0
VERTEX
  8
0
  5
26E8
 10
31.6971
 20
51.9870
 30
0.00000
  70
    32
  0
VERTEX
  8
0
  5
26E9
 10
31.7029
 20
51.9852
 30
0.00000
  70
    32
  0
VERTEX
  8
0
  5
26EA
 10
31.7088
 20
51.9836
 30
0.00000
  70
    32
  0
VERTEX
  8
0
  5
26EB
 10
31.7147
 20
51.9822
 30
0.00000
  70
    32
  0
VERTEX
  8
0
  5
26EC
 10
31.7205
 20
51.9810
 30
0.00000
  70
    32
  0
VERTEX
  8
0
  5
26ED
 10
31.7264
 20
51.9800
 30
0.00000
  70
    32
  0
VERTEX
  8
0
  5
26EE
 10
31.7322
 20
51.9792
 30
0.00000
  70
    32
  0
VERTEX
  8
0
  5
26EF
 10
31.7381
 20
51.9786
 30
0.00000
  70
    32
  0
VERTEX
  8
0
  5
26F0
 10
31.7440
 20
51.9782
 30
0.00000
  70
    32
  0
VERTEX
  8
0
  5
26F1
 10
31.7498
 20
51.9780
 30
0.00000
  70
    32
  0
VERTEX
  8
0
  5
26F2
 10
31.7557
 20
51.9780
 30
0.00000
  70
    32
  0
VERTEX
  8
0
  5
26F3
 10
31.7615
 20
51.9782
 30
0.00000
  70
    32
  0
VERTEX
  8
0
  5
26F4
 10
31.7674
 20
51.9786
 30
0.00000
  70
    32
  0
VERTEX
  8
0
  5
26F5
 10
31.7733
 20
51.9791
 30
0.00000
  70
    32
  0
VERTEX
  8
0
  5
26F6
 10
31.7791
 20
51.9799
 30
0.00000
  70
    32
  0
VERTEX
  8
0
  5
26F7
 10
31.7850
 20
51.9809
 30
0.00000
  70
    32
  0
VERTEX
  8
0
  5
26F8
 10
31.7908
 20
51.9821
 30
0.00000
  70
    32
  0
VERTEX
  8
0
  5
26F9
 10
31.7967
 20
51.9834
 30
0.00000
  70
    32
  0
VERTEX
  8
0
  5
26FA
 10
31.8026
 20
51.9850
 30
0.00000
  70
    32
  0
VERTEX
  8
0
  5
26FB
 10
31.8084
 20
51.9867
 30
0.00000
  70
    32
  0
VERTEX
  8
0
  5
26FC
 10
31.8143
 20
51.9887
 30
0.00000
  70
    32
  0
VERTEX
  8
0
  5
26FD
 10
31.8201
 20
51.9909
 30
0.00000
  70
    32
  0
VERTEX
  8
0
  5
26FE
 10
31.8260
 20
51.9932
 30
0.00000
  70
    32
  0
VERTEX
  8
0
  5
26FF
 10
31.8319
 20
51.9957
 30
0.00000
  70
    32
  0
VERTEX
  8
0
  5
2700
 10
31.8377
 20
51.9985
 30
0.00000
  70
    32
  0
VERTEX
  8
0
  5
2701
 10
31.8436
 20
52.0014
 30
0.00000
  70
    32
  0
VERTEX
  8
0
  5
2702
 10
31.8494
 20
52.0046
 30
0.00000
  70
    32
  0
VERTEX
  8
0
  5
2703
 10
31.8553
 20
52.0079
 30
0.00000
  70
    32
  0
VERTEX
  8
0
  5
2704
 10
31.8612
 20
52.0114
 30
0.00000
  70
    32
  0
SEQEND
  8
0
  5
2705
  0
POLYLINE
  5
252B
  8
0
 66
     1
 10
0.0
 20
0.0
 30
0.0
  0
VERTEX
  5
25F2
  8
0
 10
47.6079505121327813
 20
53.1556002497891598
 30
0.0
  0
VERTEX
  5
25F3
  8
0
 10
47.5445838782317196
 20
52.9323525195469031
 30
0.0
  0
VERTEX
  5
25F4
  8
0
 10
47.4667776769829288
 20
52.6909983814439613
 30
0.0
  0
VERTEX
  5
25F5
  8
0
 10
47.3745319083863023
 20
52.4507635629232922
 30
0.0
  0
VERTEX
  5
25F6
  8
0
 10
47.267846572441897
 20
52.2344752199134916
 30
0.0
  0
VERTEX
  5
25F7
  8
0
 10
47.1467216691497129
 20
52.0685661286270474
 30
0.0
  0
VERTEX
  5
25F8
  8
0
 10
47.0111571985097427
 20
51.9830458447780472
 30
0.0
  0
VERTEX
  5
25F9
  8
0
 10
46.861153160522008
 20
52.0114243061271608
 30
0.0
  0
SEQEND
  5
25FA
  8
0
  0
ARC
  5
252C
  8
0
 10
56.8611062001086793
 20
56.7197870382300025
 30
0.0
 40
9.569454391570531
 50
160.1336016102131907
 51
173.7996082951470953
  0
POLYLINE
  5
252D
  8
0
 10
47.8611531605220364
 20
54.0594014022742329
 30
0.0
 66
     1
 70
     8
  0
VERTEX
  8
0
  5
2706
 10
47.8612
 20
54.0594
 30
0.00000
  70
    32
  0
VERTEX
  8
0
  5
2707
 10
47.8592
 20
54.0548
 30
0.00000
  70
    32
  0
VERTEX
  8
0
  5
2708
 10
47.8572
 20
54.0501
 30
0.00000
  70
    32
  0
VERTEX
  8
0
  5
2709
 10
47.8552
 20
54.0454
 30
0.00000
  70
    32
  0
VERTEX
  8
0
  5
270A
 10
47.8532
 20
54.0406
 30
0.00000
  70
    32
  0
VERTEX
  8
0
  5
270B
 10
47.8512
 20
54.0358
 30
0.00000
  70
    32
  0
VERTEX
  8
0
  5
270C
 10
47.8492
 20
54.0310
 30
0.00000
  70
    32
  0
VERTEX
  8
0
  5
270D
 10
47.8472
 20
54.0261
 30
0.00000
  70
    32
  0
VERTEX
  8
0
  5
270E
 10
47.8452
 20
54.0212
 30
0.00000
  70
    32
  0
VERTEX
  8
0
  5
270F
 10
47.8432
 20
54.0162
 30
0.00000
  70
    32
  0
VERTEX
  8
0
  5
2710
 10
47.8412
 20
54.0112
 30
0.00000
  70
    32
  0
VERTEX
  8
0
  5
2711
 10
47.8392
 20
54.0062
 30
0.00000
  70
    32
  0
VERTEX
  8
0
  5
2712
 10
47.8372
 20
54.0011
 30
0.00000
  70
    32
  0
VERTEX
  8
0
  5
2713
 10
47.8352
 20
53.9960
 30
0.00000
  70
    32
  0
VERTEX
  8
0
  5
2714
 10
47.8332
 20
53.9909
 30
0.00000
  70
    32
  0
VERTEX
  8
0
  5
2715
 10
47.8312
 20
53.9857
 30
0.00000
  70
    32
  0
VERTEX
  8
0
  5
2716
 10
47.8292
 20
53.9805
 30
0.00000
  70
    32
  0
VERTEX
  8
0
  5
2717
 10
47.8273
 20
53.9752
 30
0.00000
  70
    32
  0
VERTEX
  8
0
  5
2718
 10
47.8253
 20
53.9700
 30
0.00000
  70
    32
  0
VERTEX
  8
0
  5
2719
 10
47.8233
 20
53.9646
 30
0.00000
  70
    32
  0
VERTEX
  8
0
  5
271A
 10
47.8213
 20
53.9593
 30
0.00000
  70
    32
  0
VERTEX
  8
0
  5
271B
 10
47.8193
 20
53.9538
 30
0.00000
  70
    32
  0
VERTEX
  8
0
  5
271C
 10
47.8173
 20
53.9484
 30
0.00000
  70
    32
  0
VERTEX
  8
0
  5
271D
 10
47.8153
 20
53.9429
 30
0.00000
  70
    32
  0
VERTEX
  8
0
  5
271E
 10
47.8133
 20
53.9374
 30
0.00000
  70
    32
  0
VERTEX
  8
0
  5
271F
 10
47.8113
 20
53.9318
 30
0.00000
  70
    32
  0
VERTEX
  8
0
  5
2720
 10
47.8093
 20
53.9262
 30
0.00000
  70
    32
  0
VERTEX
  8
0
  5
2721
 10
47.8073
 20
53.9206
 30
0.00000
  70
    32
  0
VERTEX
  8
0
  5
2722
 10
47.8054
 20
53.9149
 30
0.00000
  70
    32
  0
VERTEX
  8
0
  5
2723
 10
47.8034
 20
53.9092
 30
0.00000
  70
    32
  0
VERTEX
  8
0
  5
2724
 10
47.8014
 20
53.9034
 30
0.00000
  70
    32
  0
VERTEX
  8
0
  5
2725
 10
47.7994
 20
53.8977
 30
0.00000
  70
    32
  0
VERTEX
  8
0
  5
2726
 10
47.7974
 20
53.8918
 30
0.00000
  70
    32
  0
VERTEX
  8
0
  5
2727
 10
47.7954
 20
53.8860
 30
0.00000
  70
    32
  0
VERTEX
  8
0
  5
2728
 10
47.7934
 20
53.8801
 30
0.00000
  70
    32
  0
VERTEX
  8
0
  5
2729
 10
47.7914
 20
53.8741
 30
0.00000
  70
    32
  0
VERTEX
  8
0
  5
272A
 10
47.7894
 20
53.8681
 30
0.00000
  70
    32
  0
VERTEX
  8
0
  5
272B
 10
47.7875
 20
53.8621
 30
0.00000
  70
    32
  0
VERTEX
  8
0
  5
272C
 10
47.7855
 20
53.8561
 30
0.00000
  70
    32
  0
VERTEX
  8
0
  5
272D
 10
47.7835
 20
53.8500
 30
0.00000
  70
    32
  0
VERTEX
  8
0
  5
272E
 10
47.7815
 20
53.8438
 30
0.00000
  70
    32
  0
VERTEX
  8
0
  5
272F
 10
47.7795
 20
53.8377
 30
0.00000
  70
    32
  0
VERTEX
  8
0
  5
2730
 10
47.7775
 20
53.8314
 30
0.00000
  70
    32
  0
VERTEX
  8
0
  5
2731
 10
47.7755
 20
53.8252
 30
0.00000
  70
    32
  0
VERTEX
  8
0
  5
2732
 10
47.7736
 20
53.8189
 30
0.00000
  70
    32
  0
VERTEX
  8
0
  5
2733
 10
47.7716
 20
53.8126
 30
0.00000
  70
    32
  0
VERTEX
  8
0
  5
2734
 10
47.7696
 20
53.8062
 30
0.00000
  70
    32
  0
VERTEX
  8
0
  5
2735
 10
47.7676
 20
53.7998
 30
0.00000
  70
    32
  0
VERTEX
  8
0
  5
2736
 10
47.7656
 20
53.7934
 30
0.00000
  70
    32
  0
VERTEX
  8
0
  5
2737
 10
47.7636
 20
53.7869
 30
0.00000
  70
    32
  0
VERTEX
  8
0
  5
2738
 10
47.7616
 20
53.7804
 30
0.00000
  70
    32
  0
VERTEX
  8
0
  5
2739
 10
47.7597
 20
53.7738
 30
0.00000
  70
    32
  0
VERTEX
  8
0
  5
273A
 10
47.7577
 20
53.7673
 30
0.00000
  70
    32
  0
VERTEX
  8
0
  5
273B
 10
47.7557
 20
53.7606
 30
0.00000
  70
    32
  0
VERTEX
  8
0
  5
273C
 10
47.7537
 20
53.7540
 30
0.00000
  70
    32
  0
VERTEX
  8
0
  5
273D
 10
47.7517
 20
53.7473
 30
0.00000
  70
    32
  0
VERTEX
  8
0
  5
273E
 10
47.7498
 20
53.7405
 30
0.00000
  70
    32
  0
VERTEX
  8
0
  5
273F
 10
47.7478
 20
53.7337
 30
0.00000
  70
    32
  0
VERTEX
  8
0
  5
2740
 10
47.7458
 20
53.7269
 30
0.00000
  70
    32
  0
VERTEX
  8
0
  5
2741
 10
47.7438
 20
53.7201
 30
0.00000
  70
    32
  0
VERTEX
  8
0
  5
2742
 10
47.7418
 20
53.7132
 30
0.00000
  70
    32
  0
VERTEX
  8
0
  5
2743
 10
47.7398
 20
53.7062
 30
0.00000
  70
    32
  0
VERTEX
  8
0
  5
2744
 10
47.7379
 20
53.6993
 30
0.00000
  70
    32
  0
VERTEX
  8
0
  5
2745
 10
47.7359
 20
53.6923
 30
0.00000
  70
    32
  0
VERTEX
  8
0
  5
2746
 10
47.7339
 20
53.6852
 30
0.00000
  70
    32
  0
VERTEX
  8
0
  5
2747
 10
47.7319
 20
53.6781
 30
0.00000
  70
    32
  0
VERTEX
  8
0
  5
2748
 10
47.7299
 20
53.6710
 30
0.00000
  70
    32
  0
VERTEX
  8
0
  5
2749
 10
47.7280
 20
53.6638
 30
0.00000
  70
    32
  0
VERTEX
  8
0
  5
274A
 10
47.7260
 20
53.6566
 30
0.00000
  70
    32
  0
VERTEX
  8
0
  5
274B
 10
47.7240
 20
53.6494
 30
0.00000
  70
    32
  0
VERTEX
  8
0
  5
274C
 10
47.7220
 20
53.6421
 30
0.00000
  70
    32
  0
VERTEX
  8
0
  5
274D
 10
47.7201
 20
53.6348
 30
0.00000
  70
    32
  0
VERTEX
  8
0
  5
274E
 10
47.7181
 20
53.6275
 30
0.00000
  70
    32
  0
VERTEX
  8
0
  5
274F
 10
47.7161
 20
53.6201
 30
0.00000
  70
    32
  0
VERTEX
  8
0
  5
2750
 10
47.7141
 20
53.6127
 30
0.00000
  70
    32
  0
VERTEX
  8
0
  5
2751
 10
47.7122
 20
53.6052
 30
0.00000
  70
    32
  0
VERTEX
  8
0
  5
2752
 10
47.7102
 20
53.5977
 30
0.00000
  70
    32
  0
VERTEX
  8
0
  5
2753
 10
47.7082
 20
53.5902
 30
0.00000
  70
    32
  0
VERTEX
  8
0
  5
2754
 10
47.7062
 20
53.5826
 30
0.00000
  70
    32
  0
VERTEX
  8
0
  5
2755
 10
47.7043
 20
53.5750
 30
0.00000
  70
    32
  0
VERTEX
  8
0
  5
2756
 10
47.7023
 20
53.5673
 30
0.00000
  70
    32
  0
VERTEX
  8
0
  5
2757
 10
47.7003
 20
53.5596
 30
0.00000
  70
    32
  0
VERTEX
  8
0
  5
2758
 10
47.6983
 20
53.5519
 30
0.00000
  70
    32
  0
VERTEX
  8
0
  5
2759
 10
47.6964
 20
53.5441
 30
0.00000
  70
    32
  0
VERTEX
  8
0
  5
275A
 10
47.6944
 20
53.5363
 30
0.00000
  70
    32
  0
VERTEX
  8
0
  5
275B
 10
47.6924
 20
53.5285
 30
0.00000
  70
    32
  0
VERTEX
  8
0
  5
275C
 10
47.6904
 20
53.5206
 30
0.00000
  70
    32
  0
VERTEX
  8
0
  5
275D
 10
47.6885
 20
53.5127
 30
0.00000
  70
    32
  0
VERTEX
  8
0
  5
275E
 10
47.6865
 20
53.5047
 30
0.00000
  70
    32
  0
VERTEX
  8
0
  5
275F
 10
47.6845
 20
53.4967
 30
0.00000
  70
    32
  0
VERTEX
  8
0
  5
2760
 10
47.6826
 20
53.4887
 30
0.00000
  70
    32
  0
VERTEX
  8
0
  5
2761
 10
47.6806
 20
53.4806
 30
0.00000
  70
    32
  0
VERTEX
  8
0
  5
2762
 10
47.6786
 20
53.4725
 30
0.00000
  70
    32
  0
VERTEX
  8
0
  5
2763
 10
47.6766
 20
53.4644
 30
0.00000
  70
    32
  0
VERTEX
  8
0
  5
2764
 10
47.6747
 20
53.4562
 30
0.00000
  70
    32
  0
VERTEX
  8
0
  5
2765
 10
47.6727
 20
53.4480
 30
0.00000
  70
    32
  0
VERTEX
  8
0
  5
2766
 10
47.6707
 20
53.4397
 30
0.00000
  70
    32
  0
VERTEX
  8
0
  5
2767
 10
47.6688
 20
53.4314
 30
0.00000
  70
    32
  0
VERTEX
  8
0
  5
2768
 10
47.6668
 20
53.4231
 30
0.00000
  70
    32
  0
VERTEX
  8
0
  5
2769
 10
47.6648
 20
53.4147
 30
0.00000
  70
    32
  0
VERTEX
  8
0
  5
276A
 10
47.6629
 20
53.4063
 30
0.00000
  70
    32
  0
VERTEX
  8
0
  5
276B
 10
47.6609
 20
53.3979
 30
0.00000
  70
    32
  0
VERTEX
  8
0
  5
276C
 10
47.6589
 20
53.3894
 30
0.00000
  70
    32
  0
VERTEX
  8
0
  5
276D
 10
47.6570
 20
53.3809
 30
0.00000
  70
    32
  0
VERTEX
  8
0
  5
276E
 10
47.6550
 20
53.3723
 30
0.00000
  70
    32
  0
VERTEX
  8
0
  5
276F
 10
47.6530
 20
53.3637
 30
0.00000
  70
    32
  0
VERTEX
  8
0
  5
2770
 10
47.6511
 20
53.3551
 30
0.00000
  70
    32
  0
VERTEX
  8
0
  5
2771
 10
47.6491
 20
53.3464
 30
0.00000
  70
    32
  0
VERTEX
  8
0
  5
2772
 10
47.6471
 20
53.3377
 30
0.00000
  70
    32
  0
VERTEX
  8
0
  5
2773
 10
47.6452
 20
53.3289
 30
0.00000
  70
    32
  0
VERTEX
  8
0
  5
2774
 10
47.6432
 20
53.3202
 30
0.00000
  70
    32
  0
VERTEX
  8
0
  5
2775
 10
47.6413
 20
53.3113
 30
0.00000
  70
    32
  0
VERTEX
  8
0
  5
2776
 10
47.6393
 20
53.3025
 30
0.00000
  70
    32
  0
VERTEX
  8
0
  5
2777
 10
47.6373
 20
53.2936
 30
0.00000
  70
    32
  0
VERTEX
  8
0
  5
2778
 10
47.6354
 20
53.2846
 30
0.00000
  70
    32
  0
VERTEX
  8
0
  5
2779
 10
47.6334
 20
53.2757
 30
0.00000
  70
    32
  0
VERTEX
  8
0
  5
277A
 10
47.6314
 20
53.2667
 30
0.00000
  70
    32
  0
VERTEX
  8
0
  5
277B
 10
47.6295
 20
53.2576
 30
0.00000
  70
    32
  0
VERTEX
  8
0
  5
277C
 10
47.6275
 20
53.2485
 30
0.00000
  70
    32
  0
VERTEX
  8
0
  5
277D
 10
47.6256
 20
53.2394
 30
0.00000
  70
    32
  0
VERTEX
  8
0
  5
277E
 10
47.6236
 20
53.2302
 30
0.00000
  70
    32
  0
VERTEX
  8
0
  5
277F
 10
47.6217
 20
53.2210
 30
0.00000
  70
    32
  0
VERTEX
  8
0
  5
2780
 10
47.6197
 20
53.2118
 30
0.00000
  70
    32
  0
VERTEX
  8
0
  5
2781
 10
47.6177
 20
53.2025
 30
0.00000
  70
    32
  0
VERTEX
  8
0
  5
2782
 10
47.6158
 20
53.1932
 30
0.00000
  70
    32
  0
VERTEX
  8
0
  5
2783
 10
47.6138
 20
53.1839
 30
0.00000
  70
    32
  0
VERTEX
  8
0
  5
2784
 10
47.6119
 20
53.1745
 30
0.00000
  70
    32
  0
VERTEX
  8
0
  5
2785
 10
47.6099
 20
53.1651
 30
0.00000
  70
    32
  0
VERTEX
  8
0
  5
2786
 10
47.6080
 20
53.1556
 30
0.00000
  70
    32
  0
SEQEND
  8
0
  5
2787
  0
POLYLINE
  5
252E
  8
0
 10
31.1143558089106378
 20
53.1556002497920446
 30
0.0
 66
     1
 70
     8
  0
VERTEX
  8
0
  5
2788
 10
31.1144
 20
53.1556
 30
0.00000
  70
    32
  0
VERTEX
  8
0
  5
2789
 10
31.1124
 20
53.1651
 30
0.00000
  70
    32
  0
VERTEX
  8
0
  5
278A
 10
31.1104
 20
53.1745
 30
0.00000
  70
    32
  0
VERTEX
  8
0
  5
278B
 10
31.1085
 20
53.1839
 30
0.00000
  70
    32
  0
VERTEX
  8
0
  5
278C
 10
31.1065
 20
53.1932
 30
0.00000
  70
    32
  0
VERTEX
  8
0
  5
278D
 10
31.1046
 20
53.2025
 30
0.00000
  70
    32
  0
VERTEX
  8
0
  5
278E
 10
31.1026
 20
53.2118
 30
0.00000
  70
    32
  0
VERTEX
  8
0
  5
278F
 10
31.1007
 20
53.2210
 30
0.00000
  70
    32
  0
VERTEX
  8
0
  5
2790
 10
31.0987
 20
53.2302
 30
0.00000
  70
    32
  0
VERTEX
  8
0
  5
2791
 10
31.0967
 20
53.2394
 30
0.00000
  70
    32
  0
VERTEX
  8
0
  5
2792
 10
31.0948
 20
53.2485
 30
0.00000
  70
    32
  0
VERTEX
  8
0
  5
2793
 10
31.0928
 20
53.2576
 30
0.00000
  70
    32
  0
VERTEX
  8
0
  5
2794
 10
31.0909
 20
53.2667
 30
0.00000
  70
    32
  0
VERTEX
  8
0
  5
2795
 10
31.0889
 20
53.2757
 30
0.00000
  70
    32
  0
VERTEX
  8
0
  5
2796
 10
31.0869
 20
53.2846
 30
0.00000
  70
    32
  0
VERTEX
  8
0
  5
2797
 10
31.0850
 20
53.2936
 30
0.00000
  70
    32
  0
VERTEX
  8
0
  5
2798
 10
31.0830
 20
53.3025
 30
0.00000
  70
    32
  0
VERTEX
  8
0
  5
2799
 10
31.0810
 20
53.3113
 30
0.00000
  70
    32
  0
VERTEX
  8
0
  5
279A
 10
31.0791
 20
53.3202
 30
0.00000
  70
    32
  0
VERTEX
  8
0
  5
279B
 10
31.0771
 20
53.3289
 30
0.00000
  70
    32
  0
VERTEX
  8
0
  5
279C
 10
31.0752
 20
53.3377
 30
0.00000
  70
    32
  0
VERTEX
  8
0
  5
279D
 10
31.0732
 20
53.3464
 30
0.00000
  70
    32
  0
VERTEX
  8
0
  5
279E
 10
31.0712
 20
53.3551
 30
0.00000
  70
    32
  0
VERTEX
  8
0
  5
279F
 10
31.0693
 20
53.3637
 30
0.00000
  70
    32
  0
VERTEX
  8
0
  5
27A0
 10
31.0673
 20
53.3723
 30
0.00000
  70
    32
  0
VERTEX
  8
0
  5
27A1
 10
31.0653
 20
53.3809
 30
0.00000
  70
    32
  0
VERTEX
  8
0
  5
27A2
 10
31.0634
 20
53.3894
 30
0.00000
  70
    32
  0
VERTEX
  8
0
  5
27A3
 10
31.0614
 20
53.3979
 30
0.00000
  70
    32
  0
VERTEX
  8
0
  5
27A4
 10
31.0594
 20
53.4063
 30
0.00000
  70
    32
  0
VERTEX
  8
0
  5
27A5
 10
31.0575
 20
53.4147
 30
0.00000
  70
    32
  0
VERTEX
  8
0
  5
27A6
 10
31.0555
 20
53.4231
 30
0.00000
  70
    32
  0
VERTEX
  8
0
  5
27A7
 10
31.0535
 20
53.4314
 30
0.00000
  70
    32
  0
VERTEX
  8
0
  5
27A8
 10
31.0516
 20
53.4397
 30
0.00000
  70
    32
  0
VERTEX
  8
0
  5
27A9
 10
31.0496
 20
53.4480
 30
0.00000
  70
    32
  0
VERTEX
  8
0
  5
27AA
 10
31.0476
 20
53.4562
 30
0.00000
  70
    32
  0
VERTEX
  8
0
  5
27AB
 10
31.0457
 20
53.4644
 30
0.00000
  70
    32
  0
VERTEX
  8
0
  5
27AC
 10
31.0437
 20
53.4725
 30
0.00000
  70
    32
  0
VERTEX
  8
0
  5
27AD
 10
31.0417
 20
53.4806
 30
0.00000
  70
    32
  0
VERTEX
  8
0
  5
27AE
 10
31.0398
 20
53.4887
 30
0.00000
  70
    32
  0
VERTEX
  8
0
  5
27AF
 10
31.0378
 20
53.4967
 30
0.00000
  70
    32
  0
VERTEX
  8
0
  5
27B0
 10
31.0358
 20
53.5047
 30
0.00000
  70
    32
  0
VERTEX
  8
0
  5
27B1
 10
31.0338
 20
53.5127
 30
0.00000
  70
    32
  0
VERTEX
  8
0
  5
27B2
 10
31.0319
 20
53.5206
 30
0.00000
  70
    32
  0
VERTEX
  8
0
  5
27B3
 10
31.0299
 20
53.5285
 30
0.00000
  70
    32
  0
VERTEX
  8
0
  5
27B4
 10
31.0279
 20
53.5363
 30
0.00000
  70
    32
  0
VERTEX
  8
0
  5
27B5
 10
31.0259
 20
53.5441
 30
0.00000
  70
    32
  0
VERTEX
  8
0
  5
27B6
 10
31.0240
 20
53.5519
 30
0.00000
  70
    32
  0
VERTEX
  8
0
  5
27B7
 10
31.0220
 20
53.5596
 30
0.00000
  70
    32
  0
VERTEX
  8
0
  5
27B8
 10
31.0200
 20
53.5673
 30
0.00000
  70
    32
  0
VERTEX
  8
0
  5
27B9
 10
31.0181
 20
53.5750
 30
0.00000
  70
    32
  0
VERTEX
  8
0
  5
27BA
 10
31.0161
 20
53.5826
 30
0.00000
  70
    32
  0
VERTEX
  8
0
  5
27BB
 10
31.0141
 20
53.5902
 30
0.00000
  70
    32
  0
VERTEX
  8
0
  5
27BC
 10
31.0121
 20
53.5977
 30
0.00000
  70
    32
  0
VERTEX
  8
0
  5
27BD
 10
31.0102
 20
53.6052
 30
0.00000
  70
    32
  0
VERTEX
  8
0
  5
27BE
 10
31.0082
 20
53.6127
 30
0.00000
  70
    32
  0
VERTEX
  8
0
  5
27BF
 10
31.0062
 20
53.6201
 30
0.00000
  70
    32
  0
VERTEX
  8
0
  5
27C0
 10
31.0042
 20
53.6275
 30
0.00000
  70
    32
  0
VERTEX
  8
0
  5
27C1
 10
31.0022
 20
53.6348
 30
0.00000
  70
    32
  0
VERTEX
  8
0
  5
27C2
 10
31.0003
 20
53.6421
 30
0.00000
  70
    32
  0
VERTEX
  8
0
  5
27C3
 10
30.9983
 20
53.6494
 30
0.00000
  70
    32
  0
VERTEX
  8
0
  5
27C4
 10
30.9963
 20
53.6566
 30
0.00000
  70
    32
  0
VERTEX
  8
0
  5
27C5
 10
30.9943
 20
53.6638
 30
0.00000
  70
    32
  0
VERTEX
  8
0
  5
27C6
 10
30.9924
 20
53.6710
 30
0.00000
  70
    32
  0
VERTEX
  8
0
  5
27C7
 10
30.9904
 20
53.6781
 30
0.00000
  70
    32
  0
VERTEX
  8
0
  5
27C8
 10
30.9884
 20
53.6852
 30
0.00000
  70
    32
  0
VERTEX
  8
0
  5
27C9
 10
30.9864
 20
53.6923
 30
0.00000
  70
    32
  0
VERTEX
  8
0
  5
27CA
 10
30.9844
 20
53.6993
 30
0.00000
  70
    32
  0
VERTEX
  8
0
  5
27CB
 10
30.9825
 20
53.7062
 30
0.00000
  70
    32
  0
VERTEX
  8
0
  5
27CC
 10
30.9805
 20
53.7132
 30
0.00000
  70
    32
  0
VERTEX
  8
0
  5
27CD
 10
30.9785
 20
53.7201
 30
0.00000
  70
    32
  0
VERTEX
  8
0
  5
27CE
 10
30.9765
 20
53.7269
 30
0.00000
  70
    32
  0
VERTEX
  8
0
  5
27CF
 10
30.9745
 20
53.7337
 30
0.00000
  70
    32
  0
VERTEX
  8
0
  5
27D0
 10
30.9726
 20
53.7405
 30
0.00000
  70
    32
  0
VERTEX
  8
0
  5
27D1
 10
30.9706
 20
53.7473
 30
0.00000
  70
    32
  0
VERTEX
  8
0
  5
27D2
 10
30.9686
 20
53.7540
 30
0.00000
  70
    32
  0
VERTEX
  8
0
  5
27D3
 10
30.9666
 20
53.7606
 30
0.00000
  70
    32
  0
VERTEX
  8
0
  5
27D4
 10
30.9646
 20
53.7673
 30
0.00000
  70
    32
  0
VERTEX
  8
0
  5
27D5
 10
30.9626
 20
53.7738
 30
0.00000
  70
    32
  0
VERTEX
  8
0
  5
27D6
 10
30.9607
 20
53.7804
 30
0.00000
  70
    32
  0
VERTEX
  8
0
  5
27D7
 10
30.9587
 20
53.7869
 30
0.00000
  70
    32
  0
VERTEX
  8
0
  5
27D8
 10
30.9567
 20
53.7934
 30
0.00000
  70
    32
  0
VERTEX
  8
0
  5
27D9
 10
30.9547
 20
53.7998
 30
0.00000
  70
    32
  0
VERTEX
  8
0
  5
27DA
 10
30.9527
 20
53.8062
 30
0.00000
  70
    32
  0
VERTEX
  8
0
  5
27DB
 10
30.9507
 20
53.8126
 30
0.00000
  70
    32
  0
VERTEX
  8
0
  5
27DC
 10
30.9488
 20
53.8189
 30
0.00000
  70
    32
  0
VERTEX
  8
0
  5
27DD
 10
30.9468
 20
53.8252
 30
0.00000
  70
    32
  0
VERTEX
  8
0
  5
27DE
 10
30.9448
 20
53.8314
 30
0.00000
  70
    32
  0
VERTEX
  8
0
  5
27DF
 10
30.9428
 20
53.8377
 30
0.00000
  70
    32
  0
VERTEX
  8
0
  5
27E0
 10
30.9408
 20
53.8438
 30
0.00000
  70
    32
  0
VERTEX
  8
0
  5
27E1
 10
30.9388
 20
53.8500
 30
0.00000
  70
    32
  0
VERTEX
  8
0
  5
27E2
 10
30.9368
 20
53.8561
 30
0.00000
  70
    32
  0
VERTEX
  8
0
  5
27E3
 10
30.9348
 20
53.8621
 30
0.00000
  70
    32
  0
VERTEX
  8
0
  5
27E4
 10
30.9329
 20
53.8681
 30
0.00000
  70
    32
  0
VERTEX
  8
0
  5
27E5
 10
30.9309
 20
53.8741
 30
0.00000
  70
    32
  0
VERTEX
  8
0
  5
27E6
 10
30.9289
 20
53.8801
 30
0.00000
  70
    32
  0
VERTEX
  8
0
  5
27E7
 10
30.9269
 20
53.8860
 30
0.00000
  70
    32
  0
VERTEX
  8
0
  5
27E8
 10
30.9249
 20
53.8918
 30
0.00000
  70
    32
  0
VERTEX
  8
0
  5
27E9
 10
30.9229
 20
53.8977
 30
0.00000
  70
    32
  0
VERTEX
  8
0
  5
27EA
 10
30.9209
 20
53.9034
 30
0.00000
  70
    32
  0
VERTEX
  8
0
  5
27EB
 10
30.9189
 20
53.9092
 30
0.00000
  70
    32
  0
VERTEX
  8
0
  5
27EC
 10
30.9170
 20
53.9149
 30
0.00000
  70
    32
  0
VERTEX
  8
0
  5
27ED
 10
30.9150
 20
53.9206
 30
0.00000
  70
    32
  0
VERTEX
  8
0
  5
27EE
 10
30.9130
 20
53.9262
 30
0.00000
  70
    32
  0
VERTEX
  8
0
  5
27EF
 10
30.9110
 20
53.9318
 30
0.00000
  70
    32
  0
VERTEX
  8
0
  5
27F0
 10
30.9090
 20
53.9374
 30
0.00000
  70
    32
  0
VERTEX
  8
0
  5
27F1
 10
30.9070
 20
53.9429
 30
0.00000
  70
    32
  0
VERTEX
  8
0
  5
27F2
 10
30.9050
 20
53.9484
 30
0.00000
  70
    32
  0
VERTEX
  8
0
  5
27F3
 10
30.9030
 20
53.9538
 30
0.00000
  70
    32
  0
VERTEX
  8
0
  5
27F4
 10
30.9010
 20
53.9593
 30
0.00000
  70
    32
  0
VERTEX
  8
0
  5
27F5
 10
30.8990
 20
53.9646
 30
0.00000
  70
    32
  0
VERTEX
  8
0
  5
27F6
 10
30.8970
 20
53.9700
 30
0.00000
  70
    32
  0
VERTEX
  8
0
  5
27F7
 10
30.8951
 20
53.9752
 30
0.00000
  70
    32
  0
VERTEX
  8
0
  5
27F8
 10
30.8931
 20
53.9805
 30
0.00000
  70
    32
  0
VERTEX
  8
0
  5
27F9
 10
30.8911
 20
53.9857
 30
0.00000
  70
    32
  0
VERTEX
  8
0
  5
27FA
 10
30.8891
 20
53.9909
 30
0.00000
  70
    32
  0
VERTEX
  8
0
  5
27FB
 10
30.8871
 20
53.9960
 30
0.00000
  70
    32
  0
VERTEX
  8
0
  5
27FC
 10
30.8851
 20
54.0011
 30
0.00000
  70
    32
  0
VERTEX
  8
0
  5
27FD
 10
30.8831
 20
54.0062
 30
0.00000
  70
    32
  0
VERTEX
  8
0
  5
27FE
 10
30.8811
 20
54.0112
 30
0.00000
  70
    32
  0
VERTEX
  8
0
  5
27FF
 10
30.8791
 20
54.0162
 30
0.00000
  70
    32
  0
VERTEX
  8
0
  5
2800
 10
30.8771
 20
54.0212
 30
0.00000
  70
    32
  0
VERTEX
  8
0
  5
2801
 10
30.8751
 20
54.0261
 30
0.00000
  70
    32
  0
VERTEX
  8
0
  5
2802
 10
30.8731
 20
54.0310
 30
0.00000
  70
    32
  0
VERTEX
  8
0
  5
2803
 10
30.8711
 20
54.0358
 30
0.00000
  70
    32
  0
VERTEX
  8
0
  5
2804
 10
30.8691
 20
54.0406
 30
0.00000
  70
    32
  0
VERTEX
  8
0
  5
2805
 10
30.8671
 20
54.0454
 30
0.00000
  70
    32
  0
VERTEX
  8
0
  5
2806
 10
30.8651
 20
54.0501
 30
0.00000
  70
    32
  0
VERTEX
  8
0
  5
2807
 10
30.8631
 20
54.0548
 30
0.00000
  70
    32
  0
VERTEX
  8
0
  5
2808
 10
30.8612
 20
54.0594
 30
0.00000
  70
    32
  0
SEQEND
  8
0
  5
2809
  0
POLYLINE
  5
252F
  8
0
 10
31.3746753632527131
 20
57.7533469862542432
 30
0.0
 66
     1
 70
     8
  0
VERTEX
  8
0
  5
280A
 10
31.3747
 20
57.7533
 30
0.00000
  70
    32
  0
VERTEX
  8
0
  5
280B
 10
31.3708
 20
57.7794
 30
0.00000
  70
    32
  0
VERTEX
  8
0
  5
280C
 10
31.3669
 20
57.8054
 30
0.00000
  70
    32
  0
VERTEX
  8
0
  5
280D
 10
31.3629
 20
57.8312
 30
0.00000
  70
    32
  0
VERTEX
  8
0
  5
280E
 10
31.3590
 20
57.8569
 30
0.00000
  70
    32
  0
VERTEX
  8
0
  5
280F
 10
31.3551
 20
57.8825
 30
0.00000
  70
    32
  0
VERTEX
  8
0
  5
2810
 10
31.3512
 20
57.9079
 30
0.00000
  70
    32
  0
VERTEX
  8
0
  5
2811
 10
31.3473
 20
57.9332
 30
0.00000
  70
    32
  0
VERTEX
  8
0
  5
2812
 10
31.3434
 20
57.9583
 30
0.00000
  70
    32
  0
VERTEX
  8
0
  5
2813
 10
31.3394
 20
57.9834
 30
0.00000
  70
    32
  0
VERTEX
  8
0
  5
2814
 10
31.3355
 20
58.0082
 30
0.00000
  70
    32
  0
VERTEX
  8
0
  5
2815
 10
31.3316
 20
58.0330
 30
0.00000
  70
    32
  0
VERTEX
  8
0
  5
2816
 10
31.3276
 20
58.0576
 30
0.00000
  70
    32
  0
VERTEX
  8
0
  5
2817
 10
31.3237
 20
58.0821
 30
0.00000
  70
    32
  0
VERTEX
  8
0
  5
2818
 10
31.3198
 20
58.1064
 30
0.00000
  70
    32
  0
VERTEX
  8
0
  5
2819
 10
31.3158
 20
58.1306
 30
0.00000
  70
    32
  0
VERTEX
  8
0
  5
281A
 10
31.3119
 20
58.1546
 30
0.00000
  70
    32
  0
VERTEX
  8
0
  5
281B
 10
31.3080
 20
58.1786
 30
0.00000
  70
    32
  0
VERTEX
  8
0
  5
281C
 10
31.3040
 20
58.2023
 30
0.00000
  70
    32
  0
VERTEX
  8
0
  5
281D
 10
31.3001
 20
58.2260
 30
0.00000
  70
    32
  0
VERTEX
  8
0
  5
281E
 10
31.2961
 20
58.2495
 30
0.00000
  70
    32
  0
VERTEX
  8
0
  5
281F
 10
31.2922
 20
58.2729
 30
0.00000
  70
    32
  0
VERTEX
  8
0
  5
2820
 10
31.2882
 20
58.2961
 30
0.00000
  70
    32
  0
VERTEX
  8
0
  5
2821
 10
31.2843
 20
58.3192
 30
0.00000
  70
    32
  0
VERTEX
  8
0
  5
2822
 10
31.2803
 20
58.3422
 30
0.00000
  70
    32
  0
VERTEX
  8
0
  5
2823
 10
31.2764
 20
58.3650
 30
0.00000
  70
    32
  0
VERTEX
  8
0
  5
2824
 10
31.2724
 20
58.3877
 30
0.00000
  70
    32
  0
VERTEX
  8
0
  5
2825
 10
31.2685
 20
58.4103
 30
0.00000
  70
    32
  0
VERTEX
  8
0
  5
2826
 10
31.2645
 20
58.4327
 30
0.00000
  70
    32
  0
VERTEX
  8
0
  5
2827
 10
31.2605
 20
58.4550
 30
0.00000
  70
    32
  0
VERTEX
  8
0
  5
2828
 10
31.2566
 20
58.4771
 30
0.00000
  70
    32
  0
VERTEX
  8
0
  5
2829
 10
31.2526
 20
58.4991
 30
0.00000
  70
    32
  0
VERTEX
  8
0
  5
282A
 10
31.2486
 20
58.5210
 30
0.00000
  70
    32
  0
VERTEX
  8
0
  5
282B
 10
31.2447
 20
58.5427
 30
0.00000
  70
    32
  0
VERTEX
  8
0
  5
282C
 10
31.2407
 20
58.5643
 30
0.00000
  70
    32
  0
VERTEX
  8
0
  5
282D
 10
31.2367
 20
58.5857
 30
0.00000
  70
    32
  0
VERTEX
  8
0
  5
282E
 10
31.2327
 20
58.6071
 30
0.00000
  70
    32
  0
VERTEX
  8
0
  5
282F
 10
31.2288
 20
58.6282
 30
0.00000
  70
    32
  0
VERTEX
  8
0
  5
2830
 10
31.2248
 20
58.6493
 30
0.00000
  70
    32
  0
VERTEX
  8
0
  5
2831
 10
31.2208
 20
58.6702
 30
0.00000
  70
    32
  0
VERTEX
  8
0
  5
2832
 10
31.2168
 20
58.6909
 30
0.00000
  70
    32
  0
VERTEX
  8
0
  5
2833
 10
31.2128
 20
58.7116
 30
0.00000
  70
    32
  0
VERTEX
  8
0
  5
2834
 10
31.2089
 20
58.7320
 30
0.00000
  70
    32
  0
VERTEX
  8
0
  5
2835
 10
31.2049
 20
58.7524
 30
0.00000
  70
    32
  0
VERTEX
  8
0
  5
2836
 10
31.2009
 20
58.7726
 30
0.00000
  70
    32
  0
VERTEX
  8
0
  5
2837
 10
31.1969
 20
58.7927
 30
0.00000
  70
    32
  0
VERTEX
  8
0
  5
2838
 10
31.1929
 20
58.8126
 30
0.00000
  70
    32
  0
VERTEX
  8
0
  5
2839
 10
31.1889
 20
58.8324
 30
0.00000
  70
    32
  0
VERTEX
  8
0
  5
283A
 10
31.1849
 20
58.8521
 30
0.00000
  70
    32
  0
VERTEX
  8
0
  5
283B
 10
31.1809
 20
58.8716
 30
0.00000
  70
    32
  0
VERTEX
  8
0
  5
283C
 10
31.1769
 20
58.8910
 30
0.00000
  70
    32
  0
VERTEX
  8
0
  5
283D
 10
31.1729
 20
58.9102
 30
0.00000
  70
    32
  0
VERTEX
  8
0
  5
283E
 10
31.1689
 20
58.9293
 30
0.00000
  70
    32
  0
VERTEX
  8
0
  5
283F
 10
31.1649
 20
58.9483
 30
0.00000
  70
    32
  0
VERTEX
  8
0
  5
2840
 10
31.1609
 20
58.9671
 30
0.00000
  70
    32
  0
VERTEX
  8
0
  5
2841
 10
31.1569
 20
58.9858
 30
0.00000
  70
    32
  0
VERTEX
  8
0
  5
2842
 10
31.1529
 20
59.0043
 30
0.00000
  70
    32
  0
VERTEX
  8
0
  5
2843
 10
31.1489
 20
59.0227
 30
0.00000
  70
    32
  0
VERTEX
  8
0
  5
2844
 10
31.1449
 20
59.0410
 30
0.00000
  70
    32
  0
VERTEX
  8
0
  5
2845
 10
31.1409
 20
59.0591
 30
0.00000
  70
    32
  0
VERTEX
  8
0
  5
2846
 10
31.1368
 20
59.0771
 30
0.00000
  70
    32
  0
VERTEX
  8
0
  5
2847
 10
31.1328
 20
59.0950
 30
0.00000
  70
    32
  0
VERTEX
  8
0
  5
2848
 10
31.1288
 20
59.1127
 30
0.00000
  70
    32
  0
VERTEX
  8
0
  5
2849
 10
31.1248
 20
59.1303
 30
0.00000
  70
    32
  0
VERTEX
  8
0
  5
284A
 10
31.1208
 20
59.1477
 30
0.00000
  70
    32
  0
VERTEX
  8
0
  5
284B
 10
31.1168
 20
59.1650
 30
0.00000
  70
    32
  0
VERTEX
  8
0
  5
284C
 10
31.1127
 20
59.1821
 30
0.00000
  70
    32
  0
VERTEX
  8
0
  5
284D
 10
31.1087
 20
59.1992
 30
0.00000
  70
    32
  0
VERTEX
  8
0
  5
284E
 10
31.1047
 20
59.2160
 30
0.00000
  70
    32
  0
VERTEX
  8
0
  5
284F
 10
31.1007
 20
59.2328
 30
0.00000
  70
    32
  0
VERTEX
  8
0
  5
2850
 10
31.0966
 20
59.2494
 30
0.00000
  70
    32
  0
VERTEX
  8
0
  5
2851
 10
31.0926
 20
59.2658
 30
0.00000
  70
    32
  0
VERTEX
  8
0
  5
2852
 10
31.0886
 20
59.2822
 30
0.00000
  70
    32
  0
VERTEX
  8
0
  5
2853
 10
31.0845
 20
59.2983
 30
0.00000
  70
    32
  0
VERTEX
  8
0
  5
2854
 10
31.0805
 20
59.3144
 30
0.00000
  70
    32
  0
VERTEX
  8
0
  5
2855
 10
31.0765
 20
59.3303
 30
0.00000
  70
    32
  0
VERTEX
  8
0
  5
2856
 10
31.0724
 20
59.3460
 30
0.00000
  70
    32
  0
VERTEX
  8
0
  5
2857
 10
31.0684
 20
59.3616
 30
0.00000
  70
    32
  0
VERTEX
  8
0
  5
2858
 10
31.0644
 20
59.3771
 30
0.00000
  70
    32
  0
VERTEX
  8
0
  5
2859
 10
31.0603
 20
59.3925
 30
0.00000
  70
    32
  0
VERTEX
  8
0
  5
285A
 10
31.0563
 20
59.4077
 30
0.00000
  70
    32
  0
VERTEX
  8
0
  5
285B
 10
31.0523
 20
59.4227
 30
0.00000
  70
    32
  0
VERTEX
  8
0
  5
285C
 10
31.0482
 20
59.4376
 30
0.00000
  70
    32
  0
VERTEX
  8
0
  5
285D
 10
31.0442
 20
59.4524
 30
0.00000
  70
    32
  0
VERTEX
  8
0
  5
285E
 10
31.0401
 20
59.4671
 30
0.00000
  70
    32
  0
VERTEX
  8
0
  5
285F
 10
31.0361
 20
59.4816
 30
0.00000
  70
    32
  0
VERTEX
  8
0
  5
2860
 10
31.0320
 20
59.4959
 30
0.00000
  70
    32
  0
VERTEX
  8
0
  5
2861
 10
31.0280
 20
59.5101
 30
0.00000
  70
    32
  0
VERTEX
  8
0
  5
2862
 10
31.0239
 20
59.5242
 30
0.00000
  70
    32
  0
VERTEX
  8
0
  5
2863
 10
31.0199
 20
59.5381
 30
0.00000
  70
    32
  0
VERTEX
  8
0
  5
2864
 10
31.0158
 20
59.5519
 30
0.00000
  70
    32
  0
VERTEX
  8
0
  5
2865
 10
31.0118
 20
59.5656
 30
0.00000
  70
    32
  0
VERTEX
  8
0
  5
2866
 10
31.0077
 20
59.5791
 30
0.00000
  70
    32
  0
VERTEX
  8
0
  5
2867
 10
31.0037
 20
59.5925
 30
0.00000
  70
    32
  0
VERTEX
  8
0
  5
2868
 10
30.9996
 20
59.6057
 30
0.00000
  70
    32
  0
VERTEX
  8
0
  5
2869
 10
30.9956
 20
59.6188
 30
0.00000
  70
    32
  0
VERTEX
  8
0
  5
286A
 10
30.9915
 20
59.6318
 30
0.00000
  70
    32
  0
VERTEX
  8
0
  5
286B
 10
30.9874
 20
59.6446
 30
0.00000
  70
    32
  0
VERTEX
  8
0
  5
286C
 10
30.9834
 20
59.6572
 30
0.00000
  70
    32
  0
VERTEX
  8
0
  5
286D
 10
30.9793
 20
59.6698
 30
0.00000
  70
    32
  0
VERTEX
  8
0
  5
286E
 10
30.9753
 20
59.6822
 30
0.00000
  70
    32
  0
VERTEX
  8
0
  5
286F
 10
30.9712
 20
59.6944
 30
0.00000
  70
    32
  0
VERTEX
  8
0
  5
2870
 10
30.9671
 20
59.7065
 30
0.00000
  70
    32
  0
VERTEX
  8
0
  5
2871
 10
30.9631
 20
59.7185
 30
0.00000
  70
    32
  0
VERTEX
  8
0
  5
2872
 10
30.9590
 20
59.7303
 30
0.00000
  70
    32
  0
VERTEX
  8
0
  5
2873
 10
30.9549
 20
59.7420
 30
0.00000
  70
    32
  0
VERTEX
  8
0
  5
2874
 10
30.9509
 20
59.7535
 30
0.00000
  70
    32
  0
VERTEX
  8
0
  5
2875
 10
30.9468
 20
59.7649
 30
0.00000
  70
    32
  0
VERTEX
  8
0
  5
2876
 10
30.9427
 20
59.7762
 30
0.00000
  70
    32
  0
VERTEX
  8
0
  5
2877
 10
30.9387
 20
59.7873
 30
0.00000
  70
    32
  0
VERTEX
  8
0
  5
2878
 10
30.9346
 20
59.7983
 30
0.00000
  70
    32
  0
VERTEX
  8
0
  5
2879
 10
30.9305
 20
59.8091
 30
0.00000
  70
    32
  0
VERTEX
  8
0
  5
287A
 10
30.9264
 20
59.8198
 30
0.00000
  70
    32
  0
VERTEX
  8
0
  5
287B
 10
30.9224
 20
59.8304
 30
0.00000
  70
    32
  0
VERTEX
  8
0
  5
287C
 10
30.9183
 20
59.8408
 30
0.00000
  70
    32
  0
VERTEX
  8
0
  5
287D
 10
30.9142
 20
59.8511
 30
0.00000
  70
    32
  0
VERTEX
  8
0
  5
287E
 10
30.9101
 20
59.8612
 30
0.00000
  70
    32
  0
VERTEX
  8
0
  5
287F
 10
30.9061
 20
59.8712
 30
0.00000
  70
    32
  0
VERTEX
  8
0
  5
2880
 10
30.9020
 20
59.8810
 30
0.00000
  70
    32
  0
VERTEX
  8
0
  5
2881
 10
30.8979
 20
59.8908
 30
0.00000
  70
    32
  0
VERTEX
  8
0
  5
2882
 10
30.8938
 20
59.9003
 30
0.00000
  70
    32
  0
VERTEX
  8
0
  5
2883
 10
30.8897
 20
59.9097
 30
0.00000
  70
    32
  0
VERTEX
  8
0
  5
2884
 10
30.8857
 20
59.9190
 30
0.00000
  70
    32
  0
VERTEX
  8
0
  5
2885
 10
30.8816
 20
59.9282
 30
0.00000
  70
    32
  0
VERTEX
  8
0
  5
2886
 10
30.8775
 20
59.9372
 30
0.00000
  70
    32
  0
VERTEX
  8
0
  5
2887
 10
30.8734
 20
59.9460
 30
0.00000
  70
    32
  0
VERTEX
  8
0
  5
2888
 10
30.8693
 20
59.9547
 30
0.00000
  70
    32
  0
VERTEX
  8
0
  5
2889
 10
30.8652
 20
59.9633
 30
0.00000
  70
    32
  0
VERTEX
  8
0
  5
288A
 10
30.8612
 20
59.9718
 30
0.00000
  70
    32
  0
SEQEND
  8
0
  5
288B
  0
POLYLINE
  5
2530
  8
0
 10
30.8611531605212619
 20
59.9717560783020005
 30
0.0
 66
     1
 70
     8
  0
VERTEX
  8
0
  5
288C
 10
30.8612
 20
59.9718
 30
0.00000
  70
    32
  0
VERTEX
  8
0
  5
288D
 10
30.8456
 20
59.9849
 30
0.00000
  70
    32
  0
VERTEX
  8
0
  5
288E
 10
30.8301
 20
59.9977
 30
0.00000
  70
    32
  0
VERTEX
  8
0
  5
288F
 10
30.8146
 20
60.0101
 30
0.00000
  70
    32
  0
VERTEX
  8
0
  5
2890
 10
30.7990
 20
60.0222
 30
0.00000
  70
    32
  0
VERTEX
  8
0
  5
2891
 10
30.7835
 20
60.0339
 30
0.00000
  70
    32
  0
VERTEX
  8
0
  5
2892
 10
30.7679
 20
60.0452
 30
0.00000
  70
    32
  0
VERTEX
  8
0
  5
2893
 10
30.7524
 20
60.0562
 30
0.00000
  70
    32
  0
VERTEX
  8
0
  5
2894
 10
30.7368
 20
60.0669
 30
0.00000
  70
    32
  0
VERTEX
  8
0
  5
2895
 10
30.7213
 20
60.0771
 30
0.00000
  70
    32
  0
VERTEX
  8
0
  5
2896
 10
30.7057
 20
60.0870
 30
0.00000
  70
    32
  0
VERTEX
  8
0
  5
2897
 10
30.6901
 20
60.0966
 30
0.00000
  70
    32
  0
VERTEX
  8
0
  5
2898
 10
30.6746
 20
60.1058
 30
0.00000
  70
    32
  0
VERTEX
  8
0
  5
2899
 10
30.6590
 20
60.1146
 30
0.00000
  70
    32
  0
VERTEX
  8
0
  5
289A
 10
30.6434
 20
60.1230
 30
0.00000
  70
    32
  0
VERTEX
  8
0
  5
289B
 10
30.6279
 20
60.1311
 30
0.00000
  70
    32
  0
VERTEX
  8
0
  5
289C
 10
30.6123
 20
60.1389
 30
0.00000
  70
    32
  0
VERTEX
  8
0
  5
289D
 10
30.5967
 20
60.1463
 30
0.00000
  70
    32
  0
VERTEX
  8
0
  5
289E
 10
30.5811
 20
60.1533
 30
0.00000
  70
    32
  0
VERTEX
  8
0
  5
289F
 10
30.5655
 20
60.1599
 30
0.00000
  70
    32
  0
VERTEX
  8
0
  5
28A0
 10
30.5500
 20
60.1662
 30
0.00000
  70
    32
  0
VERTEX
  8
0
  5
28A1
 10
30.5344
 20
60.1722
 30
0.00000
  70
    32
  0
VERTEX
  8
0
  5
28A2
 10
30.5188
 20
60.1777
 30
0.00000
  70
    32
  0
VERTEX
  8
0
  5
28A3
 10
30.5032
 20
60.1830
 30
0.00000
  70
    32
  0
VERTEX
  8
0
  5
28A4
 10
30.4876
 20
60.1878
 30
0.00000
  70
    32
  0
VERTEX
  8
0
  5
28A5
 10
30.4720
 20
60.1923
 30
0.00000
  70
    32
  0
VERTEX
  8
0
  5
28A6
 10
30.4564
 20
60.1964
 30
0.00000
  70
    32
  0
VERTEX
  8
0
  5
28A7
 10
30.4408
 20
60.2002
 30
0.00000
  70
    32
  0
VERTEX
  8
0
  5
28A8
 10
30.4252
 20
60.2036
 30
0.00000
  70
    32
  0
VERTEX
  8
0
  5
28A9
 10
30.4096
 20
60.2066
 30
0.00000
  70
    32
  0
VERTEX
  8
0
  5
28AA
 10
30.3940
 20
60.2093
 30
0.00000
  70
    32
  0
VERTEX
  8
0
  5
28AB
 10
30.3784
 20
60.2116
 30
0.00000
  70
    32
  0
VERTEX
  8
0
  5
28AC
 10
30.3628
 20
60.2136
 30
0.00000
  70
    32
  0
VERTEX
  8
0
  5
28AD
 10
30.3472
 20
60.2152
 30
0.00000
  70
    32
  0
VERTEX
  8
0
  5
28AE
 10
30.3316
 20
60.2164
 30
0.00000
  70
    32
  0
VERTEX
  8
0
  5
28AF
 10
30.3160
 20
60.2173
 30
0.00000
  70
    32
  0
VERTEX
  8
0
  5
28B0
 10
30.3004
 20
60.2178
 30
0.00000
  70
    32
  0
VERTEX
  8
0
  5
28B1
 10
30.2848
 20
60.2180
 30
0.00000
  70
    32
  0
VERTEX
  8
0
  5
28B2
 10
30.2692
 20
60.2178
 30
0.00000
  70
    32
  0
VERTEX
  8
0
  5
28B3
 10
30.2536
 20
60.2172
 30
0.00000
  70
    32
  0
VERTEX
  8
0
  5
28B4
 10
30.2380
 20
60.2163
 30
0.00000
  70
    32
  0
VERTEX
  8
0
  5
28B5
 10
30.2224
 20
60.2150
 30
0.00000
  70
    32
  0
VERTEX
  8
0
  5
28B6
 10
30.2068
 20
60.2133
 30
0.00000
  70
    32
  0
VERTEX
  8
0
  5
28B7
 10
30.1912
 20
60.2113
 30
0.00000
  70
    32
  0
VERTEX
  8
0
  5
28B8
 10
30.1756
 20
60.2089
 30
0.00000
  70
    32
  0
VERTEX
  8
0
  5
28B9
 10
30.1600
 20
60.2062
 30
0.00000
  70
    32
  0
VERTEX
  8
0
  5
28BA
 10
30.1444
 20
60.2031
 30
0.00000
  70
    32
  0
VERTEX
  8
0
  5
28BB
 10
30.1288
 20
60.1996
 30
0.00000
  70
    32
  0
VERTEX
  8
0
  5
28BC
 10
30.1132
 20
60.1958
 30
0.00000
  70
    32
  0
VERTEX
  8
0
  5
28BD
 10
30.0976
 20
60.1916
 30
0.00000
  70
    32
  0
VERTEX
  8
0
  5
28BE
 10
30.0820
 20
60.1870
 30
0.00000
  70
    32
  0
VERTEX
  8
0
  5
28BF
 10
30.0665
 20
60.1821
 30
0.00000
  70
    32
  0
VERTEX
  8
0
  5
28C0
 10
30.0509
 20
60.1769
 30
0.00000
  70
    32
  0
VERTEX
  8
0
  5
28C1
 10
30.0353
 20
60.1712
 30
0.00000
  70
    32
  0
VERTEX
  8
0
  5
28C2
 10
30.0197
 20
60.1652
 30
0.00000
  70
    32
  0
VERTEX
  8
0
  5
28C3
 10
30.0041
 20
60.1589
 30
0.00000
  70
    32
  0
VERTEX
  8
0
  5
28C4
 10
29.9885
 20
60.1522
 30
0.00000
  70
    32
  0
VERTEX
  8
0
  5
28C5
 10
29.9729
 20
60.1451
 30
0.00000
  70
    32
  0
VERTEX
  8
0
  5
28C6
 10
29.9574
 20
60.1377
 30
0.00000
  70
    32
  0
VERTEX
  8
0
  5
28C7
 10
29.9418
 20
60.1299
 30
0.00000
  70
    32
  0
VERTEX
  8
0
  5
28C8
 10
29.9262
 20
60.1217
 30
0.00000
  70
    32
  0
VERTEX
  8
0
  5
28C9
 10
29.9106
 20
60.1132
 30
0.00000
  70
    32
  0
VERTEX
  8
0
  5
28CA
 10
29.8951
 20
60.1043
 30
0.00000
  70
    32
  0
VERTEX
  8
0
  5
28CB
 10
29.8795
 20
60.0951
 30
0.00000
  70
    32
  0
VERTEX
  8
0
  5
28CC
 10
29.8640
 20
60.0854
 30
0.00000
  70
    32
  0
VERTEX
  8
0
  5
28CD
 10
29.8484
 20
60.0755
 30
0.00000
  70
    32
  0
VERTEX
  8
0
  5
28CE
 10
29.8328
 20
60.0652
 30
0.00000
  70
    32
  0
VERTEX
  8
0
  5
28CF
 10
29.8173
 20
60.0545
 30
0.00000
  70
    32
  0
VERTEX
  8
0
  5
28D0
 10
29.8017
 20
60.0434
 30
0.00000
  70
    32
  0
VERTEX
  8
0
  5
28D1
 10
29.7862
 20
60.0320
 30
0.00000
  70
    32
  0
VERTEX
  8
0
  5
28D2
 10
29.7706
 20
60.0203
 30
0.00000
  70
    32
  0
VERTEX
  8
0
  5
28D3
 10
29.7551
 20
60.0081
 30
0.00000
  70
    32
  0
VERTEX
  8
0
  5
28D4
 10
29.7396
 20
59.9956
 30
0.00000
  70
    32
  0
VERTEX
  8
0
  5
28D5
 10
29.7240
 20
59.9828
 30
0.00000
  70
    32
  0
VERTEX
  8
0
  5
28D6
 10
29.7085
 20
59.9696
 30
0.00000
  70
    32
  0
VERTEX
  8
0
  5
28D7
 10
29.6930
 20
59.9560
 30
0.00000
  70
    32
  0
VERTEX
  8
0
  5
28D8
 10
29.6775
 20
59.9421
 30
0.00000
  70
    32
  0
VERTEX
  8
0
  5
28D9
 10
29.6620
 20
59.9278
 30
0.00000
  70
    32
  0
VERTEX
  8
0
  5
28DA
 10
29.6464
 20
59.9132
 30
0.00000
  70
    32
  0
VERTEX
  8
0
  5
28DB
 10
29.6309
 20
59.8982
 30
0.00000
  70
    32
  0
VERTEX
  8
0
  5
28DC
 10
29.6154
 20
59.8828
 30
0.00000
  70
    32
  0
VERTEX
  8
0
  5
28DD
 10
29.5999
 20
59.8671
 30
0.00000
  70
    32
  0
VERTEX
  8
0
  5
28DE
 10
29.5845
 20
59.8510
 30
0.00000
  70
    32
  0
VERTEX
  8
0
  5
28DF
 10
29.5690
 20
59.8346
 30
0.00000
  70
    32
  0
VERTEX
  8
0
  5
28E0
 10
29.5535
 20
59.8178
 30
0.00000
  70
    32
  0
VERTEX
  8
0
  5
28E1
 10
29.5380
 20
59.8006
 30
0.00000
  70
    32
  0
VERTEX
  8
0
  5
28E2
 10
29.5225
 20
59.7831
 30
0.00000
  70
    32
  0
VERTEX
  8
0
  5
28E3
 10
29.5071
 20
59.7652
 30
0.00000
  70
    32
  0
VERTEX
  8
0
  5
28E4
 10
29.4916
 20
59.7470
 30
0.00000
  70
    32
  0
VERTEX
  8
0
  5
28E5
 10
29.4762
 20
59.7284
 30
0.00000
  70
    32
  0
VERTEX
  8
0
  5
28E6
 10
29.4607
 20
59.7094
 30
0.00000
  70
    32
  0
VERTEX
  8
0
  5
28E7
 10
29.4453
 20
59.6901
 30
0.00000
  70
    32
  0
VERTEX
  8
0
  5
28E8
 10
29.4298
 20
59.6705
 30
0.00000
  70
    32
  0
VERTEX
  8
0
  5
28E9
 10
29.4144
 20
59.6504
 30
0.00000
  70
    32
  0
VERTEX
  8
0
  5
28EA
 10
29.3990
 20
59.6301
 30
0.00000
  70
    32
  0
VERTEX
  8
0
  5
28EB
 10
29.3836
 20
59.6093
 30
0.00000
  70
    32
  0
VERTEX
  8
0
  5
28EC
 10
29.3681
 20
59.5882
 30
0.00000
  70
    32
  0
VERTEX
  8
0
  5
28ED
 10
29.3527
 20
59.5668
 30
0.00000
  70
    32
  0
VERTEX
  8
0
  5
28EE
 10
29.3373
 20
59.5450
 30
0.00000
  70
    32
  0
VERTEX
  8
0
  5
28EF
 10
29.3219
 20
59.5228
 30
0.00000
  70
    32
  0
VERTEX
  8
0
  5
28F0
 10
29.3066
 20
59.5003
 30
0.00000
  70
    32
  0
VERTEX
  8
0
  5
28F1
 10
29.2912
 20
59.4774
 30
0.00000
  70
    32
  0
VERTEX
  8
0
  5
28F2
 10
29.2758
 20
59.4542
 30
0.00000
  70
    32
  0
VERTEX
  8
0
  5
28F3
 10
29.2605
 20
59.4306
 30
0.00000
  70
    32
  0
VERTEX
  8
0
  5
28F4
 10
29.2451
 20
59.4066
 30
0.00000
  70
    32
  0
VERTEX
  8
0
  5
28F5
 10
29.2297
 20
59.3823
 30
0.00000
  70
    32
  0
VERTEX
  8
0
  5
28F6
 10
29.2144
 20
59.3576
 30
0.00000
  70
    32
  0
VERTEX
  8
0
  5
28F7
 10
29.1991
 20
59.3326
 30
0.00000
  70
    32
  0
VERTEX
  8
0
  5
28F8
 10
29.1837
 20
59.3073
 30
0.00000
  70
    32
  0
VERTEX
  8
0
  5
28F9
 10
29.1684
 20
59.2815
 30
0.00000
  70
    32
  0
VERTEX
  8
0
  5
28FA
 10
29.1531
 20
59.2555
 30
0.00000
  70
    32
  0
VERTEX
  8
0
  5
28FB
 10
29.1378
 20
59.2290
 30
0.00000
  70
    32
  0
VERTEX
  8
0
  5
28FC
 10
29.1225
 20
59.2022
 30
0.00000
  70
    32
  0
VERTEX
  8
0
  5
28FD
 10
29.1072
 20
59.1751
 30
0.00000
  70
    32
  0
VERTEX
  8
0
  5
28FE
 10
29.0920
 20
59.1476
 30
0.00000
  70
    32
  0
VERTEX
  8
0
  5
28FF
 10
29.0767
 20
59.1197
 30
0.00000
  70
    32
  0
VERTEX
  8
0
  5
2900
 10
29.0614
 20
59.0915
 30
0.00000
  70
    32
  0
VERTEX
  8
0
  5
2901
 10
29.0462
 20
59.0630
 30
0.00000
  70
    32
  0
VERTEX
  8
0
  5
2902
 10
29.0309
 20
59.0341
 30
0.00000
  70
    32
  0
VERTEX
  8
0
  5
2903
 10
29.0157
 20
59.0048
 30
0.00000
  70
    32
  0
VERTEX
  8
0
  5
2904
 10
29.0005
 20
58.9752
 30
0.00000
  70
    32
  0
VERTEX
  8
0
  5
2905
 10
28.9853
 20
58.9452
 30
0.00000
  70
    32
  0
VERTEX
  8
0
  5
2906
 10
28.9701
 20
58.9149
 30
0.00000
  70
    32
  0
VERTEX
  8
0
  5
2907
 10
28.9549
 20
58.8842
 30
0.00000
  70
    32
  0
VERTEX
  8
0
  5
2908
 10
28.9397
 20
58.8532
 30
0.00000
  70
    32
  0
VERTEX
  8
0
  5
2909
 10
28.9245
 20
58.8218
 30
0.00000
  70
    32
  0
VERTEX
  8
0
  5
290A
 10
28.9093
 20
58.7901
 30
0.00000
  70
    32
  0
VERTEX
  8
0
  5
290B
 10
28.8942
 20
58.7580
 30
0.00000
  70
    32
  0
VERTEX
  8
0
  5
290C
 10
28.8790
 20
58.7255
 30
0.00000
  70
    32
  0
SEQEND
  8
0
  5
290D
  0
POLYLINE
  5
2531
  8
0
 66
     1
 10
0.0
 20
0.0
 30
0.0
  0
VERTEX
  5
25FB
  8
0
 10
47.8611531605220009
 20
59.9717560783013468
 30
0.0
  0
VERTEX
  5
25FC
  8
0
 10
48.2651084591725521
 20
60.2179795603519992
 30
0.0
  0
VERTEX
  5
25FD
  8
0
 10
48.6583467220048078
 20
60.1811127102451167
 30
0.0
  0
VERTEX
  5
25FE
  8
0
 10
49.057565135502621
 20
59.9309822247019781
 30
0.0
  0
VERTEX
  5
25FF
  8
0
 10
49.4526546690481084
 20
59.4454405207806929
 30
0.0
  0
VERTEX
  5
2600
  8
0
 10
49.8432954460308224
 20
58.7255359104633996
 30
0.0
  0
SEQEND
  5
2601
  8
0
  0
POLYLINE
  5
2532
  8
0
 10
50.1111531605215319
 20
51.9169169089643532
 30
0.0
 66
     1
 70
     8
  0
VERTEX
  8
0
  5
290E
 10
50.1112
 20
51.9169
 30
0.00000
  70
    32
  0
VERTEX
  8
0
  5
290F
 10
50.0943
 20
51.9668
 30
0.00000
  70
    32
  0
VERTEX
  8
0
  5
2910
 10
50.0774
 20
52.0162
 30
0.00000
  70
    32
  0
VERTEX
  8
0
  5
2911
 10
50.0605
 20
52.0651
 30
0.00000
  70
    32
  0
VERTEX
  8
0
  5
2912
 10
50.0435
 20
52.1135
 30
0.00000
  70
    32
  0
VERTEX
  8
0
  5
2913
 10
50.0266
 20
52.1613
 30
0.00000
  70
    32
  0
VERTEX
  8
0
  5
2914
 10
50.0096
 20
52.2087
 30
0.00000
  70
    32
  0
VERTEX
  8
0
  5
2915
 10
49.9926
 20
52.2556
 30
0.00000
  70
    32
  0
VERTEX
  8
0
  5
2916
 10
49.9756
 20
52.3019
 30
0.00000
  70
    32
  0
VERTEX
  8
0
  5
2917
 10
49.9586
 20
52.3478
 30
0.00000
  70
    32
  0
VERTEX
  8
0
  5
2918
 10
49.9415
 20
52.3931
 30
0.00000
  70
    32
  0
VERTEX
  8
0
  5
2919
 10
49.9244
 20
52.4379
 30
0.00000
  70
    32
  0
VERTEX
  8
0
  5
291A
 10
49.9074
 20
52.4822
 30
0.00000
  70
    32
  0
VERTEX
  8
0
  5
291B
 10
49.8903
 20
52.5260
 30
0.00000
  70
    32
  0
VERTEX
  8
0
  5
291C
 10
49.8731
 20
52.5693
 30
0.00000
  70
    32
  0
VERTEX
  8
0
  5
291D
 10
49.8560
 20
52.6120
 30
0.00000
  70
    32
  0
VERTEX
  8
0
  5
291E
 10
49.8389
 20
52.6543
 30
0.00000
  70
    32
  0
VERTEX
  8
0
  5
291F
 10
49.8217
 20
52.6960
 30
0.00000
  70
    32
  0
VERTEX
  8
0
  5
2920
 10
49.8045
 20
52.7373
 30
0.00000
  70
    32
  0
VERTEX
  8
0
  5
2921
 10
49.7873
 20
52.7780
 30
0.00000
  70
    32
  0
VERTEX
  8
0
  5
2922
 10
49.7701
 20
52.8182
 30
0.00000
  70
    32
  0
VERTEX
  8
0
  5
2923
 10
49.7528
 20
52.8579
 30
0.00000
  70
    32
  0
VERTEX
  8
0
  5
2924
 10
49.7356
 20
52.8970
 30
0.00000
  70
    32
  0
VERTEX
  8
0
  5
2925
 10
49.7183
 20
52.9357
 30
0.00000
  70
    32
  0
VERTEX
  8
0
  5
2926
 10
49.7011
 20
52.9738
 30
0.00000
  70
    32
  0
VERTEX
  8
0
  5
2927
 10
49.6838
 20
53.0114
 30
0.00000
  70
    32
  0
VERTEX
  8
0
  5
2928
 10
49.6665
 20
53.0485
 30
0.00000
  70
    32
  0
VERTEX
  8
0
  5
2929
 10
49.6491
 20
53.0851
 30
0.00000
  70
    32
  0
VERTEX
  8
0
  5
292A
 10
49.6318
 20
53.1211
 30
0.00000
  70
    32
  0
VERTEX
  8
0
  5
292B
 10
49.6144
 20
53.1567
 30
0.00000
  70
    32
  0
VERTEX
  8
0
  5
292C
 10
49.5971
 20
53.1917
 30
0.00000
  70
    32
  0
VERTEX
  8
0
  5
292D
 10
49.5797
 20
53.2262
 30
0.00000
  70
    32
  0
VERTEX
  8
0
  5
292E
 10
49.5623
 20
53.2602
 30
0.00000
  70
    32
  0
VERTEX
  8
0
  5
292F
 10
49.5449
 20
53.2936
 30
0.00000
  70
    32
  0
VERTEX
  8
0
  5
2930
 10
49.5275
 20
53.3266
 30
0.00000
  70
    32
  0
VERTEX
  8
0
  5
2931
 10
49.5100
 20
53.3590
 30
0.00000
  70
    32
  0
VERTEX
  8
0
  5
2932
 10
49.4926
 20
53.3909
 30
0.00000
  70
    32
  0
VERTEX
  8
0
  5
2933
 10
49.4751
 20
53.4222
 30
0.00000
  70
    32
  0
VERTEX
  8
0
  5
2934
 10
49.4577
 20
53.4531
 30
0.00000
  70
    32
  0
VERTEX
  8
0
  5
2935
 10
49.4402
 20
53.4834
 30
0.00000
  70
    32
  0
VERTEX
  8
0
  5
2936
 10
49.4227
 20
53.5132
 30
0.00000
  70
    32
  0
VERTEX
  8
0
  5
2937
 10
49.4052
 20
53.5425
 30
0.00000
  70
    32
  0
VERTEX
  8
0
  5
2938
 10
49.3877
 20
53.5712
 30
0.00000
  70
    32
  0
VERTEX
  8
0
  5
2939
 10
49.3701
 20
53.5995
 30
0.00000
  70
    32
  0
VERTEX
  8
0
  5
293A
 10
49.3526
 20
53.6272
 30
0.00000
  70
    32
  0
VERTEX
  8
0
  5
293B
 10
49.3350
 20
53.6543
 30
0.00000
  70
    32
  0
VERTEX
  8
0
  5
293C
 10
49.3175
 20
53.6810
 30
0.00000
  70
    32
  0
VERTEX
  8
0
  5
293D
 10
49.2999
 20
53.7071
 30
0.00000
  70
    32
  0
VERTEX
  8
0
  5
293E
 10
49.2823
 20
53.7327
 30
0.00000
  70
    32
  0
VERTEX
  8
0
  5
293F
 10
49.2647
 20
53.7578
 30
0.00000
  70
    32
  0
VERTEX
  8
0
  5
2940
 10
49.2471
 20
53.7823
 30
0.00000
  70
    32
  0
VERTEX
  8
0
  5
2941
 10
49.2295
 20
53.8063
 30
0.00000
  70
    32
  0
VERTEX
  8
0
  5
2942
 10
49.2119
 20
53.8298
 30
0.00000
  70
    32
  0
VERTEX
  8
0
  5
2943
 10
49.1943
 20
53.8528
 30
0.00000
  70
    32
  0
VERTEX
  8
0
  5
2944
 10
49.1766
 20
53.8752
 30
0.00000
  70
    32
  0
VERTEX
  8
0
  5
2945
 10
49.1590
 20
53.8971
 30
0.00000
  70
    32
  0
VERTEX
  8
0
  5
2946
 10
49.1413
 20
53.9185
 30
0.00000
  70
    32
  0
VERTEX
  8
0
  5
2947
 10
49.1237
 20
53.9394
 30
0.00000
  70
    32
  0
VERTEX
  8
0
  5
2948
 10
49.1060
 20
53.9597
 30
0.00000
  70
    32
  0
VERTEX
  8
0
  5
2949
 10
49.0883
 20
53.9795
 30
0.00000
  70
    32
  0
VERTEX
  8
0
  5
294A
 10
49.0706
 20
53.9987
 30
0.00000
  70
    32
  0
VERTEX
  8
0
  5
294B
 10
49.0529
 20
54.0174
 30
0.00000
  70
    32
  0
VERTEX
  8
0
  5
294C
 10
49.0352
 20
54.0357
 30
0.00000
  70
    32
  0
VERTEX
  8
0
  5
294D
 10
49.0175
 20
54.0533
 30
0.00000
  70
    32
  0
VERTEX
  8
0
  5
294E
 10
48.9998
 20
54.0705
 30
0.00000
  70
    32
  0
VERTEX
  8
0
  5
294F
 10
48.9821
 20
54.0871
 30
0.00000
  70
    32
  0
VERTEX
  8
0
  5
2950
 10
48.9643
 20
54.1031
 30
0.00000
  70
    32
  0
VERTEX
  8
0
  5
2951
 10
48.9466
 20
54.1187
 30
0.00000
  70
    32
  0
VERTEX
  8
0
  5
2952
 10
48.9288
 20
54.1337
 30
0.00000
  70
    32
  0
VERTEX
  8
0
  5
2953
 10
48.9111
 20
54.1482
 30
0.00000
  70
    32
  0
VERTEX
  8
0
  5
2954
 10
48.8933
 20
54.1621
 30
0.00000
  70
    32
  0
VERTEX
  8
0
  5
2955
 10
48.8756
 20
54.1756
 30
0.00000
  70
    32
  0
VERTEX
  8
0
  5
2956
 10
48.8578
 20
54.1885
 30
0.00000
  70
    32
  0
VERTEX
  8
0
  5
2957
 10
48.8400
 20
54.2008
 30
0.00000
  70
    32
  0
VERTEX
  8
0
  5
2958
 10
48.8223
 20
54.2126
 30
0.00000
  70
    32
  0
VERTEX
  8
0
  5
2959
 10
48.8045
 20
54.2239
 30
0.00000
  70
    32
  0
VERTEX
  8
0
  5
295A
 10
48.7867
 20
54.2347
 30
0.00000
  70
    32
  0
VERTEX
  8
0
  5
295B
 10
48.7689
 20
54.2449
 30
0.00000
  70
    32
  0
VERTEX
  8
0
  5
295C
 10
48.7511
 20
54.2546
 30
0.00000
  70
    32
  0
VERTEX
  8
0
  5
295D
 10
48.7333
 20
54.2638
 30
0.00000
  70
    32
  0
VERTEX
  8
0
  5
295E
 10
48.7155
 20
54.2724
 30
0.00000
  70
    32
  0
VERTEX
  8
0
  5
295F
 10
48.6977
 20
54.2805
 30
0.00000
  70
    32
  0
VERTEX
  8
0
  5
2960
 10
48.6799
 20
54.2881
 30
0.00000
  70
    32
  0
VERTEX
  8
0
  5
2961
 10
48.6621
 20
54.2951
 30
0.00000
  70
    32
  0
VERTEX
  8
0
  5
2962
 10
48.6443
 20
54.3016
 30
0.00000
  70
    32
  0
VERTEX
  8
0
  5
2963
 10
48.6265
 20
54.3076
 30
0.00000
  70
    32
  0
VERTEX
  8
0
  5
2964
 10
48.6087
 20
54.3130
 30
0.00000
  70
    32
  0
VERTEX
  8
0
  5
2965
 10
48.5909
 20
54.3179
 30
0.00000
  70
    32
  0
VERTEX
  8
0
  5
2966
 10
48.5730
 20
54.3223
 30
0.00000
  70
    32
  0
VERTEX
  8
0
  5
2967
 10
48.5552
 20
54.3261
 30
0.00000
  70
    32
  0
VERTEX
  8
0
  5
2968
 10
48.5374
 20
54.3294
 30
0.00000
  70
    32
  0
VERTEX
  8
0
  5
2969
 10
48.5196
 20
54.3321
 30
0.00000
  70
    32
  0
VERTEX
  8
0
  5
296A
 10
48.5017
 20
54.3344
 30
0.00000
  70
    32
  0
VERTEX
  8
0
  5
296B
 10
48.4839
 20
54.3361
 30
0.00000
  70
    32
  0
VERTEX
  8
0
  5
296C
 10
48.4661
 20
54.3372
 30
0.00000
  70
    32
  0
VERTEX
  8
0
  5
296D
 10
48.4483
 20
54.3379
 30
0.00000
  70
    32
  0
VERTEX
  8
0
  5
296E
 10
48.4304
 20
54.3380
 30
0.00000
  70
    32
  0
VERTEX
  8
0
  5
296F
 10
48.4126
 20
54.3375
 30
0.00000
  70
    32
  0
VERTEX
  8
0
  5
2970
 10
48.3948
 20
54.3365
 30
0.00000
  70
    32
  0
VERTEX
  8
0
  5
2971
 10
48.3770
 20
54.3350
 30
0.00000
  70
    32
  0
VERTEX
  8
0
  5
2972
 10
48.3591
 20
54.3330
 30
0.00000
  70
    32
  0
VERTEX
  8
0
  5
2973
 10
48.3413
 20
54.3304
 30
0.00000
  70
    32
  0
VERTEX
  8
0
  5
2974
 10
48.3235
 20
54.3273
 30
0.00000
  70
    32
  0
VERTEX
  8
0
  5
2975
 10
48.3057
 20
54.3237
 30
0.00000
  70
    32
  0
VERTEX
  8
0
  5
2976
 10
48.2878
 20
54.3195
 30
0.00000
  70
    32
  0
VERTEX
  8
0
  5
2977
 10
48.2700
 20
54.3148
 30
0.00000
  70
    32
  0
VERTEX
  8
0
  5
2978
 10
48.2522
 20
54.3095
 30
0.00000
  70
    32
  0
VERTEX
  8
0
  5
2979
 10
48.2344
 20
54.3038
 30
0.00000
  70
    32
  0
VERTEX
  8
0
  5
297A
 10
48.2166
 20
54.2974
 30
0.00000
  70
    32
  0
VERTEX
  8
0
  5
297B
 10
48.1988
 20
54.2906
 30
0.00000
  70
    32
  0
VERTEX
  8
0
  5
297C
 10
48.1810
 20
54.2832
 30
0.00000
  70
    32
  0
VERTEX
  8
0
  5
297D
 10
48.1632
 20
54.2753
 30
0.00000
  70
    32
  0
VERTEX
  8
0
  5
297E
 10
48.1454
 20
54.2669
 30
0.00000
  70
    32
  0
VERTEX
  8
0
  5
297F
 10
48.1276
 20
54.2579
 30
0.00000
  70
    32
  0
VERTEX
  8
0
  5
2980
 10
48.1098
 20
54.2484
 30
0.00000
  70
    32
  0
VERTEX
  8
0
  5
2981
 10
48.0920
 20
54.2384
 30
0.00000
  70
    32
  0
VERTEX
  8
0
  5
2982
 10
48.0742
 20
54.2278
 30
0.00000
  70
    32
  0
VERTEX
  8
0
  5
2983
 10
48.0564
 20
54.2167
 30
0.00000
  70
    32
  0
VERTEX
  8
0
  5
2984
 10
48.0386
 20
54.2050
 30
0.00000
  70
    32
  0
VERTEX
  8
0
  5
2985
 10
48.0209
 20
54.1929
 30
0.00000
  70
    32
  0
VERTEX
  8
0
  5
2986
 10
48.0031
 20
54.1802
 30
0.00000
  70
    32
  0
VERTEX
  8
0
  5
2987
 10
47.9853
 20
54.1669
 30
0.00000
  70
    32
  0
VERTEX
  8
0
  5
2988
 10
47.9676
 20
54.1532
 30
0.00000
  70
    32
  0
VERTEX
  8
0
  5
2989
 10
47.9498
 20
54.1389
 30
0.00000
  70
    32
  0
VERTEX
  8
0
  5
298A
 10
47.9321
 20
54.1240
 30
0.00000
  70
    32
  0
VERTEX
  8
0
  5
298B
 10
47.9143
 20
54.1087
 30
0.00000
  70
    32
  0
VERTEX
  8
0
  5
298C
 10
47.8966
 20
54.0928
 30
0.00000
  70
    32
  0
VERTEX
  8
0
  5
298D
 10
47.8789
 20
54.0764
 30
0.00000
  70
    32
  0
VERTEX
  8
0
  5
298E
 10
47.8612
 20
54.0594
 30
0.00000
  70
    32
  0
SEQEND
  8
0
  5
298F
  0
LINE
  5
2533
  8
0
 10
50.111153160522008
 20
51.9169169089629534
 30
0.0
 11
50.111153160522008
 21
51.7246008274662401
 31
0.0
  0
ARC
  5
2534
  8
0
 10
44.5823752696789981
 20
53.8529221396073794
 30
0.0
 40
5.924283633823503
 50
292.6220365136314854
 51
338.9456245861180719
  0
ARC
  5
2535
  8
0
 10
34.1587098211589435
 20
53.8712793918651585
 30
0.0
 40
5.9484127094399346
 50
201.1544085753658067
 51
247.2788216011178122
  0
LINE
  5
2536
  8
0
 10
28.6111531605220115
 20
51.9169169089629534
 30
0.0
 11
28.6111531605220115
 21
51.7246008274662827
 31
0.0
  0
POLYLINE
  5
2537
  8
0
 10
30.8611531605213507
 20
54.0594014022747729
 30
0.0
 66
     1
 70
     8
  0
VERTEX
  8
0
  5
2990
 10
30.8612
 20
54.0594
 30
0.00000
  70
    32
  0
VERTEX
  8
0
  5
2991
 10
30.8434
 20
54.0764
 30
0.00000
  70
    32
  0
VERTEX
  8
0
  5
2992
 10
30.8257
 20
54.0928
 30
0.00000
  70
    32
  0
VERTEX
  8
0
  5
2993
 10
30.8080
 20
54.1087
 30
0.00000
  70
    32
  0
VERTEX
  8
0
  5
2994
 10
30.7902
 20
54.1240
 30
0.00000
  70
    32
  0
VERTEX
  8
0
  5
2995
 10
30.7725
 20
54.1389
 30
0.00000
  70
    32
  0
VERTEX
  8
0
  5
2996
 10
30.7547
 20
54.1532
 30
0.00000
  70
    32
  0
VERTEX
  8
0
  5
2997
 10
30.7370
 20
54.1669
 30
0.00000
  70
    32
  0
VERTEX
  8
0
  5
2998
 10
30.7192
 20
54.1802
 30
0.00000
  70
    32
  0
VERTEX
  8
0
  5
2999
 10
30.7015
 20
54.1929
 30
0.00000
  70
    32
  0
VERTEX
  8
0
  5
299A
 10
30.6837
 20
54.2050
 30
0.00000
  70
    32
  0
VERTEX
  8
0
  5
299B
 10
30.6659
 20
54.2167
 30
0.00000
  70
    32
  0
VERTEX
  8
0
  5
299C
 10
30.6481
 20
54.2278
 30
0.00000
  70
    32
  0
VERTEX
  8
0
  5
299D
 10
30.6303
 20
54.2384
 30
0.00000
  70
    32
  0
VERTEX
  8
0
  5
299E
 10
30.6125
 20
54.2484
 30
0.00000
  70
    32
  0
VERTEX
  8
0
  5
299F
 10
30.5948
 20
54.2579
 30
0.00000
  70
    32
  0
VERTEX
  8
0
  5
29A0
 10
30.5770
 20
54.2669
 30
0.00000
  70
    32
  0
VERTEX
  8
0
  5
29A1
 10
30.5592
 20
54.2753
 30
0.00000
  70
    32
  0
VERTEX
  8
0
  5
29A2
 10
30.5413
 20
54.2832
 30
0.00000
  70
    32
  0
VERTEX
  8
0
  5
29A3
 10
30.5235
 20
54.2906
 30
0.00000
  70
    32
  0
VERTEX
  8
0
  5
29A4
 10
30.5057
 20
54.2974
 30
0.00000
  70
    32
  0
VERTEX
  8
0
  5
29A5
 10
30.4879
 20
54.3038
 30
0.00000
  70
    32
  0
VERTEX
  8
0
  5
29A6
 10
30.4701
 20
54.3095
 30
0.00000
  70
    32
  0
VERTEX
  8
0
  5
29A7
 10
30.4523
 20
54.3148
 30
0.00000
  70
    32
  0
VERTEX
  8
0
  5
29A8
 10
30.4345
 20
54.3195
 30
0.00000
  70
    32
  0
VERTEX
  8
0
  5
29A9
 10
30.4166
 20
54.3237
 30
0.00000
  70
    32
  0
VERTEX
  8
0
  5
29AA
 10
30.3988
 20
54.3273
 30
0.00000
  70
    32
  0
VERTEX
  8
0
  5
29AB
 10
30.3810
 20
54.3304
 30
0.00000
  70
    32
  0
VERTEX
  8
0
  5
29AC
 10
30.3632
 20
54.3330
 30
0.00000
  70
    32
  0
VERTEX
  8
0
  5
29AD
 10
30.3454
 20
54.3350
 30
0.00000
  70
    32
  0
VERTEX
  8
0
  5
29AE
 10
30.3275
 20
54.3365
 30
0.00000
  70
    32
  0
VERTEX
  8
0
  5
29AF
 10
30.3097
 20
54.3375
 30
0.00000
  70
    32
  0
VERTEX
  8
0
  5
29B0
 10
30.2919
 20
54.3380
 30
0.00000
  70
    32
  0
VERTEX
  8
0
  5
29B1
 10
30.2740
 20
54.3379
 30
0.00000
  70
    32
  0
VERTEX
  8
0
  5
29B2
 10
30.2562
 20
54.3372
 30
0.00000
  70
    32
  0
VERTEX
  8
0
  5
29B3
 10
30.2384
 20
54.3361
 30
0.00000
  70
    32
  0
VERTEX
  8
0
  5
29B4
 10
30.2206
 20
54.3344
 30
0.00000
  70
    32
  0
VERTEX
  8
0
  5
29B5
 10
30.2027
 20
54.3321
 30
0.00000
  70
    32
  0
VERTEX
  8
0
  5
29B6
 10
30.1849
 20
54.3294
 30
0.00000
  70
    32
  0
VERTEX
  8
0
  5
29B7
 10
30.1671
 20
54.3261
 30
0.00000
  70
    32
  0
VERTEX
  8
0
  5
29B8
 10
30.1493
 20
54.3223
 30
0.00000
  70
    32
  0
VERTEX
  8
0
  5
29B9
 10
30.1315
 20
54.3179
 30
0.00000
  70
    32
  0
VERTEX
  8
0
  5
29BA
 10
30.1136
 20
54.3130
 30
0.00000
  70
    32
  0
VERTEX
  8
0
  5
29BB
 10
30.0958
 20
54.3076
 30
0.00000
  70
    32
  0
VERTEX
  8
0
  5
29BC
 10
30.0780
 20
54.3016
 30
0.00000
  70
    32
  0
VERTEX
  8
0
  5
29BD
 10
30.0602
 20
54.2951
 30
0.00000
  70
    32
  0
VERTEX
  8
0
  5
29BE
 10
30.0424
 20
54.2881
 30
0.00000
  70
    32
  0
VERTEX
  8
0
  5
29BF
 10
30.0246
 20
54.2805
 30
0.00000
  70
    32
  0
VERTEX
  8
0
  5
29C0
 10
30.0068
 20
54.2724
 30
0.00000
  70
    32
  0
VERTEX
  8
0
  5
29C1
 10
29.9890
 20
54.2638
 30
0.00000
  70
    32
  0
VERTEX
  8
0
  5
29C2
 10
29.9712
 20
54.2546
 30
0.00000
  70
    32
  0
VERTEX
  8
0
  5
29C3
 10
29.9534
 20
54.2449
 30
0.00000
  70
    32
  0
VERTEX
  8
0
  5
29C4
 10
29.9356
 20
54.2347
 30
0.00000
  70
    32
  0
VERTEX
  8
0
  5
29C5
 10
29.9178
 20
54.2239
 30
0.00000
  70
    32
  0
VERTEX
  8
0
  5
29C6
 10
29.9000
 20
54.2126
 30
0.00000
  70
    32
  0
VERTEX
  8
0
  5
29C7
 10
29.8823
 20
54.2008
 30
0.00000
  70
    32
  0
VERTEX
  8
0
  5
29C8
 10
29.8645
 20
54.1885
 30
0.00000
  70
    32
  0
VERTEX
  8
0
  5
29C9
 10
29.8467
 20
54.1756
 30
0.00000
  70
    32
  0
VERTEX
  8
0
  5
29CA
 10
29.8290
 20
54.1621
 30
0.00000
  70
    32
  0
VERTEX
  8
0
  5
29CB
 10
29.8112
 20
54.1482
 30
0.00000
  70
    32
  0
VERTEX
  8
0
  5
29CC
 10
29.7935
 20
54.1337
 30
0.00000
  70
    32
  0
VERTEX
  8
0
  5
29CD
 10
29.7757
 20
54.1187
 30
0.00000
  70
    32
  0
VERTEX
  8
0
  5
29CE
 10
29.7580
 20
54.1031
 30
0.00000
  70
    32
  0
VERTEX
  8
0
  5
29CF
 10
29.7402
 20
54.0871
 30
0.00000
  70
    32
  0
VERTEX
  8
0
  5
29D0
 10
29.7225
 20
54.0705
 30
0.00000
  70
    32
  0
VERTEX
  8
0
  5
29D1
 10
29.7048
 20
54.0533
 30
0.00000
  70
    32
  0
VERTEX
  8
0
  5
29D2
 10
29.6871
 20
54.0357
 30
0.00000
  70
    32
  0
VERTEX
  8
0
  5
29D3
 10
29.6694
 20
54.0174
 30
0.00000
  70
    32
  0
VERTEX
  8
0
  5
29D4
 10
29.6517
 20
53.9987
 30
0.00000
  70
    32
  0
VERTEX
  8
0
  5
29D5
 10
29.6340
 20
53.9795
 30
0.00000
  70
    32
  0
VERTEX
  8
0
  5
29D6
 10
29.6163
 20
53.9597
 30
0.00000
  70
    32
  0
VERTEX
  8
0
  5
29D7
 10
29.5986
 20
53.9394
 30
0.00000
  70
    32
  0
VERTEX
  8
0
  5
29D8
 10
29.5810
 20
53.9185
 30
0.00000
  70
    32
  0
VERTEX
  8
0
  5
29D9
 10
29.5633
 20
53.8971
 30
0.00000
  70
    32
  0
VERTEX
  8
0
  5
29DA
 10
29.5457
 20
53.8752
 30
0.00000
  70
    32
  0
VERTEX
  8
0
  5
29DB
 10
29.5280
 20
53.8528
 30
0.00000
  70
    32
  0
VERTEX
  8
0
  5
29DC
 10
29.5104
 20
53.8298
 30
0.00000
  70
    32
  0
VERTEX
  8
0
  5
29DD
 10
29.4928
 20
53.8063
 30
0.00000
  70
    32
  0
VERTEX
  8
0
  5
29DE
 10
29.4752
 20
53.7823
 30
0.00000
  70
    32
  0
VERTEX
  8
0
  5
29DF
 10
29.4576
 20
53.7578
 30
0.00000
  70
    32
  0
VERTEX
  8
0
  5
29E0
 10
29.4400
 20
53.7327
 30
0.00000
  70
    32
  0
VERTEX
  8
0
  5
29E1
 10
29.4224
 20
53.7071
 30
0.00000
  70
    32
  0
VERTEX
  8
0
  5
29E2
 10
29.4048
 20
53.6810
 30
0.00000
  70
    32
  0
VERTEX
  8
0
  5
29E3
 10
29.3873
 20
53.6543
 30
0.00000
  70
    32
  0
VERTEX
  8
0
  5
29E4
 10
29.3697
 20
53.6272
 30
0.00000
  70
    32
  0
VERTEX
  8
0
  5
29E5
 10
29.3522
 20
53.5995
 30
0.00000
  70
    32
  0
VERTEX
  8
0
  5
29E6
 10
29.3346
 20
53.5712
 30
0.00000
  70
    32
  0
VERTEX
  8
0
  5
29E7
 10
29.3171
 20
53.5425
 30
0.00000
  70
    32
  0
VERTEX
  8
0
  5
29E8
 10
29.2996
 20
53.5132
 30
0.00000
  70
    32
  0
VERTEX
  8
0
  5
29E9
 10
29.2821
 20
53.4834
 30
0.00000
  70
    32
  0
VERTEX
  8
0
  5
29EA
 10
29.2646
 20
53.4531
 30
0.00000
  70
    32
  0
VERTEX
  8
0
  5
29EB
 10
29.2472
 20
53.4222
 30
0.00000
  70
    32
  0
VERTEX
  8
0
  5
29EC
 10
29.2297
 20
53.3909
 30
0.00000
  70
    32
  0
VERTEX
  8
0
  5
29ED
 10
29.2123
 20
53.3590
 30
0.00000
  70
    32
  0
VERTEX
  8
0
  5
29EE
 10
29.1948
 20
53.3266
 30
0.00000
  70
    32
  0
VERTEX
  8
0
  5
29EF
 10
29.1774
 20
53.2936
 30
0.00000
  70
    32
  0
VERTEX
  8
0
  5
29F0
 10
29.1600
 20
53.2602
 30
0.00000
  70
    32
  0
VERTEX
  8
0
  5
29F1
 10
29.1426
 20
53.2262
 30
0.00000
  70
    32
  0
VERTEX
  8
0
  5
29F2
 10
29.1252
 20
53.1917
 30
0.00000
  70
    32
  0
VERTEX
  8
0
  5
29F3
 10
29.1079
 20
53.1567
 30
0.00000
  70
    32
  0
VERTEX
  8
0
  5
29F4
 10
29.0905
 20
53.1211
 30
0.00000
  70
    32
  0
VERTEX
  8
0
  5
29F5
 10
29.0732
 20
53.0851
 30
0.00000
  70
    32
  0
VERTEX
  8
0
  5
29F6
 10
29.0559
 20
53.0485
 30
0.00000
  70
    32
  0
VERTEX
  8
0
  5
29F7
 10
29.0385
 20
53.0114
 30
0.00000
  70
    32
  0
VERTEX
  8
0
  5
29F8
 10
29.0212
 20
52.9738
 30
0.00000
  70
    32
  0
VERTEX
  8
0
  5
29F9
 10
29.0040
 20
52.9357
 30
0.00000
  70
    32
  0
VERTEX
  8
0
  5
29FA
 10
28.9867
 20
52.8970
 30
0.00000
  70
    32
  0
VERTEX
  8
0
  5
29FB
 10
28.9695
 20
52.8579
 30
0.00000
  70
    32
  0
VERTEX
  8
0
  5
29FC
 10
28.9522
 20
52.8182
 30
0.00000
  70
    32
  0
VERTEX
  8
0
  5
29FD
 10
28.9350
 20
52.7780
 30
0.00000
  70
    32
  0
VERTEX
  8
0
  5
29FE
 10
28.9178
 20
52.7373
 30
0.00000
  70
    32
  0
VERTEX
  8
0
  5
29FF
 10
28.9006
 20
52.6960
 30
0.00000
  70
    32
  0
VERTEX
  8
0
  5
2A00
 10
28.8835
 20
52.6543
 30
0.00000
  70
    32
  0
VERTEX
  8
0
  5
2A01
 10
28.8663
 20
52.6120
 30
0.00000
  70
    32
  0
VERTEX
  8
0
  5
2A02
 10
28.8492
 20
52.5693
 30
0.00000
  70
    32
  0
VERTEX
  8
0
  5
2A03
 10
28.8320
 20
52.5260
 30
0.00000
  70
    32
  0
VERTEX
  8
0
  5
2A04
 10
28.8149
 20
52.4822
 30
0.00000
  70
    32
  0
VERTEX
  8
0
  5
2A05
 10
28.7979
 20
52.4379
 30
0.00000
  70
    32
  0
VERTEX
  8
0
  5
2A06
 10
28.7808
 20
52.3931
 30
0.00000
  70
    32
  0
VERTEX
  8
0
  5
2A07
 10
28.7637
 20
52.3478
 30
0.00000
  70
    32
  0
VERTEX
  8
0
  5
2A08
 10
28.7467
 20
52.3019
 30
0.00000
  70
    32
  0
VERTEX
  8
0
  5
2A09
 10
28.7297
 20
52.2556
 30
0.00000
  70
    32
  0
VERTEX
  8
0
  5
2A0A
 10
28.7127
 20
52.2087
 30
0.00000
  70
    32
  0
VERTEX
  8
0
  5
2A0B
 10
28.6957
 20
52.1613
 30
0.00000
  70
    32
  0
VERTEX
  8
0
  5
2A0C
 10
28.6788
 20
52.1135
 30
0.00000
  70
    32
  0
VERTEX
  8
0
  5
2A0D
 10
28.6618
 20
52.0651
 30
0.00000
  70
    32
  0
VERTEX
  8
0
  5
2A0E
 10
28.6449
 20
52.0162
 30
0.00000
  70
    32
  0
VERTEX
  8
0
  5
2A0F
 10
28.6280
 20
51.9668
 30
0.00000
  70
    32
  0
VERTEX
  8
0
  5
2A10
 10
28.6112
 20
51.9169
 30
0.00000
  70
    32
  0
SEQEND
  8
0
  5
2A11
  0
LINE
  5
2538
  8
0
 10
49.8432954460308224
 20
58.7255359104634422
 30
0.0
 11
50.111153160522008
 21
58.0798109768091209
 31
0.0
  0
LINE
  5
2539
  8
0
 10
50.111153160522008
 20
58.0798109768090498
 30
0.0
 11
50.111153160522008
 21
51.9169169089629108
 31
0.0
  0
POLYLINE
  5
253A
  8
0
 10
28.8790108750136056
 20
58.7255359104641741
 30
0.0
 66
     1
 70
     8
  0
VERTEX
  8
0
  5
2A12
 10
28.8790
 20
58.7255
 30
0.00000
  70
    32
  0
VERTEX
  8
0
  5
2A13
 10
28.8769
 20
58.7212
 30
0.00000
  70
    32
  0
VERTEX
  8
0
  5
2A14
 10
28.8748
 20
58.7168
 30
0.00000
  70
    32
  0
VERTEX
  8
0
  5
2A15
 10
28.8727
 20
58.7124
 30
0.00000
  70
    32
  0
VERTEX
  8
0
  5
2A16
 10
28.8706
 20
58.7080
 30
0.00000
  70
    32
  0
VERTEX
  8
0
  5
2A17
 10
28.8684
 20
58.7036
 30
0.00000
  70
    32
  0
VERTEX
  8
0
  5
2A18
 10
28.8663
 20
58.6992
 30
0.00000
  70
    32
  0
VERTEX
  8
0
  5
2A19
 10
28.8642
 20
58.6947
 30
0.00000
  70
    32
  0
VERTEX
  8
0
  5
2A1A
 10
28.8621
 20
58.6903
 30
0.00000
  70
    32
  0
VERTEX
  8
0
  5
2A1B
 10
28.8600
 20
58.6859
 30
0.00000
  70
    32
  0
VERTEX
  8
0
  5
2A1C
 10
28.8579
 20
58.6814
 30
0.00000
  70
    32
  0
VERTEX
  8
0
  5
2A1D
 10
28.8558
 20
58.6769
 30
0.00000
  70
    32
  0
VERTEX
  8
0
  5
2A1E
 10
28.8537
 20
58.6724
 30
0.00000
  70
    32
  0
VERTEX
  8
0
  5
2A1F
 10
28.8516
 20
58.6679
 30
0.00000
  70
    32
  0
VERTEX
  8
0
  5
2A20
 10
28.8495
 20
58.6634
 30
0.00000
  70
    32
  0
VERTEX
  8
0
  5
2A21
 10
28.8473
 20
58.6589
 30
0.00000
  70
    32
  0
VERTEX
  8
0
  5
2A22
 10
28.8452
 20
58.6544
 30
0.00000
  70
    32
  0
VERTEX
  8
0
  5
2A23
 10
28.8431
 20
58.6498
 30
0.00000
  70
    32
  0
VERTEX
  8
0
  5
2A24
 10
28.8410
 20
58.6453
 30
0.00000
  70
    32
  0
VERTEX
  8
0
  5
2A25
 10
28.8389
 20
58.6407
 30
0.00000
  70
    32
  0
VERTEX
  8
0
  5
2A26
 10
28.8368
 20
58.6362
 30
0.00000
  70
    32
  0
VERTEX
  8
0
  5
2A27
 10
28.8347
 20
58.6316
 30
0.00000
  70
    32
  0
VERTEX
  8
0
  5
2A28
 10
28.8326
 20
58.6270
 30
0.00000
  70
    32
  0
VERTEX
  8
0
  5
2A29
 10
28.8305
 20
58.6224
 30
0.00000
  70
    32
  0
VERTEX
  8
0
  5
2A2A
 10
28.8284
 20
58.6178
 30
0.00000
  70
    32
  0
VERTEX
  8
0
  5
2A2B
 10
28.8263
 20
58.6132
 30
0.00000
  70
    32
  0
VERTEX
  8
0
  5
2A2C
 10
28.8242
 20
58.6085
 30
0.00000
  70
    32
  0
VERTEX
  8
0
  5
2A2D
 10
28.8221
 20
58.6039
 30
0.00000
  70
    32
  0
VERTEX
  8
0
  5
2A2E
 10
28.8200
 20
58.5992
 30
0.00000
  70
    32
  0
VERTEX
  8
0
  5
2A2F
 10
28.8178
 20
58.5945
 30
0.00000
  70
    32
  0
VERTEX
  8
0
  5
2A30
 10
28.8157
 20
58.5899
 30
0.00000
  70
    32
  0
VERTEX
  8
0
  5
2A31
 10
28.8136
 20
58.5852
 30
0.00000
  70
    32
  0
VERTEX
  8
0
  5
2A32
 10
28.8115
 20
58.5805
 30
0.00000
  70
    32
  0
VERTEX
  8
0
  5
2A33
 10
28.8094
 20
58.5758
 30
0.00000
  70
    32
  0
VERTEX
  8
0
  5
2A34
 10
28.8073
 20
58.5711
 30
0.00000
  70
    32
  0
VERTEX
  8
0
  5
2A35
 10
28.8052
 20
58.5663
 30
0.00000
  70
    32
  0
VERTEX
  8
0
  5
2A36
 10
28.8031
 20
58.5616
 30
0.00000
  70
    32
  0
VERTEX
  8
0
  5
2A37
 10
28.8010
 20
58.5568
 30
0.00000
  70
    32
  0
VERTEX
  8
0
  5
2A38
 10
28.7989
 20
58.5521
 30
0.00000
  70
    32
  0
VERTEX
  8
0
  5
2A39
 10
28.7968
 20
58.5473
 30
0.00000
  70
    32
  0
VERTEX
  8
0
  5
2A3A
 10
28.7947
 20
58.5425
 30
0.00000
  70
    32
  0
VERTEX
  8
0
  5
2A3B
 10
28.7926
 20
58.5377
 30
0.00000
  70
    32
  0
VERTEX
  8
0
  5
2A3C
 10
28.7905
 20
58.5329
 30
0.00000
  70
    32
  0
VERTEX
  8
0
  5
2A3D
 10
28.7884
 20
58.5281
 30
0.00000
  70
    32
  0
VERTEX
  8
0
  5
2A3E
 10
28.7863
 20
58.5233
 30
0.00000
  70
    32
  0
VERTEX
  8
0
  5
2A3F
 10
28.7842
 20
58.5184
 30
0.00000
  70
    32
  0
VERTEX
  8
0
  5
2A40
 10
28.7821
 20
58.5136
 30
0.00000
  70
    32
  0
VERTEX
  8
0
  5
2A41
 10
28.7800
 20
58.5087
 30
0.00000
  70
    32
  0
VERTEX
  8
0
  5
2A42
 10
28.7779
 20
58.5038
 30
0.00000
  70
    32
  0
VERTEX
  8
0
  5
2A43
 10
28.7758
 20
58.4990
 30
0.00000
  70
    32
  0
VERTEX
  8
0
  5
2A44
 10
28.7737
 20
58.4941
 30
0.00000
  70
    32
  0
VERTEX
  8
0
  5
2A45
 10
28.7716
 20
58.4892
 30
0.00000
  70
    32
  0
VERTEX
  8
0
  5
2A46
 10
28.7695
 20
58.4843
 30
0.00000
  70
    32
  0
VERTEX
  8
0
  5
2A47
 10
28.7674
 20
58.4793
 30
0.00000
  70
    32
  0
VERTEX
  8
0
  5
2A48
 10
28.7653
 20
58.4744
 30
0.00000
  70
    32
  0
VERTEX
  8
0
  5
2A49
 10
28.7632
 20
58.4695
 30
0.00000
  70
    32
  0
VERTEX
  8
0
  5
2A4A
 10
28.7611
 20
58.4645
 30
0.00000
  70
    32
  0
VERTEX
  8
0
  5
2A4B
 10
28.7590
 20
58.4595
 30
0.00000
  70
    32
  0
VERTEX
  8
0
  5
2A4C
 10
28.7570
 20
58.4546
 30
0.00000
  70
    32
  0
VERTEX
  8
0
  5
2A4D
 10
28.7549
 20
58.4496
 30
0.00000
  70
    32
  0
VERTEX
  8
0
  5
2A4E
 10
28.7528
 20
58.4446
 30
0.00000
  70
    32
  0
VERTEX
  8
0
  5
2A4F
 10
28.7507
 20
58.4396
 30
0.00000
  70
    32
  0
VERTEX
  8
0
  5
2A50
 10
28.7486
 20
58.4345
 30
0.00000
  70
    32
  0
VERTEX
  8
0
  5
2A51
 10
28.7465
 20
58.4295
 30
0.00000
  70
    32
  0
VERTEX
  8
0
  5
2A52
 10
28.7444
 20
58.4245
 30
0.00000
  70
    32
  0
VERTEX
  8
0
  5
2A53
 10
28.7423
 20
58.4194
 30
0.00000
  70
    32
  0
VERTEX
  8
0
  5
2A54
 10
28.7402
 20
58.4144
 30
0.00000
  70
    32
  0
VERTEX
  8
0
  5
2A55
 10
28.7381
 20
58.4093
 30
0.00000
  70
    32
  0
VERTEX
  8
0
  5
2A56
 10
28.7360
 20
58.4042
 30
0.00000
  70
    32
  0
VERTEX
  8
0
  5
2A57
 10
28.7339
 20
58.3991
 30
0.00000
  70
    32
  0
VERTEX
  8
0
  5
2A58
 10
28.7318
 20
58.3940
 30
0.00000
  70
    32
  0
VERTEX
  8
0
  5
2A59
 10
28.7297
 20
58.3889
 30
0.00000
  70
    32
  0
VERTEX
  8
0
  5
2A5A
 10
28.7277
 20
58.3838
 30
0.00000
  70
    32
  0
VERTEX
  8
0
  5
2A5B
 10
28.7256
 20
58.3786
 30
0.00000
  70
    32
  0
VERTEX
  8
0
  5
2A5C
 10
28.7235
 20
58.3735
 30
0.00000
  70
    32
  0
VERTEX
  8
0
  5
2A5D
 10
28.7214
 20
58.3683
 30
0.00000
  70
    32
  0
VERTEX
  8
0
  5
2A5E
 10
28.7193
 20
58.3632
 30
0.00000
  70
    32
  0
VERTEX
  8
0
  5
2A5F
 10
28.7172
 20
58.3580
 30
0.00000
  70
    32
  0
VERTEX
  8
0
  5
2A60
 10
28.7151
 20
58.3528
 30
0.00000
  70
    32
  0
VERTEX
  8
0
  5
2A61
 10
28.7130
 20
58.3476
 30
0.00000
  70
    32
  0
VERTEX
  8
0
  5
2A62
 10
28.7109
 20
58.3424
 30
0.00000
  70
    32
  0
VERTEX
  8
0
  5
2A63
 10
28.7089
 20
58.3372
 30
0.00000
  70
    32
  0
VERTEX
  8
0
  5
2A64
 10
28.7068
 20
58.3319
 30
0.00000
  70
    32
  0
VERTEX
  8
0
  5
2A65
 10
28.7047
 20
58.3267
 30
0.00000
  70
    32
  0
VERTEX
  8
0
  5
2A66
 10
28.7026
 20
58.3214
 30
0.00000
  70
    32
  0
VERTEX
  8
0
  5
2A67
 10
28.7005
 20
58.3162
 30
0.00000
  70
    32
  0
VERTEX
  8
0
  5
2A68
 10
28.6984
 20
58.3109
 30
0.00000
  70
    32
  0
VERTEX
  8
0
  5
2A69
 10
28.6963
 20
58.3056
 30
0.00000
  70
    32
  0
VERTEX
  8
0
  5
2A6A
 10
28.6943
 20
58.3003
 30
0.00000
  70
    32
  0
VERTEX
  8
0
  5
2A6B
 10
28.6922
 20
58.2950
 30
0.00000
  70
    32
  0
VERTEX
  8
0
  5
2A6C
 10
28.6901
 20
58.2897
 30
0.00000
  70
    32
  0
VERTEX
  8
0
  5
2A6D
 10
28.6880
 20
58.2844
 30
0.00000
  70
    32
  0
VERTEX
  8
0
  5
2A6E
 10
28.6859
 20
58.2790
 30
0.00000
  70
    32
  0
VERTEX
  8
0
  5
2A6F
 10
28.6838
 20
58.2737
 30
0.00000
  70
    32
  0
VERTEX
  8
0
  5
2A70
 10
28.6817
 20
58.2683
 30
0.00000
  70
    32
  0
VERTEX
  8
0
  5
2A71
 10
28.6797
 20
58.2629
 30
0.00000
  70
    32
  0
VERTEX
  8
0
  5
2A72
 10
28.6776
 20
58.2576
 30
0.00000
  70
    32
  0
VERTEX
  8
0
  5
2A73
 10
28.6755
 20
58.2522
 30
0.00000
  70
    32
  0
VERTEX
  8
0
  5
2A74
 10
28.6734
 20
58.2468
 30
0.00000
  70
    32
  0
VERTEX
  8
0
  5
2A75
 10
28.6713
 20
58.2414
 30
0.00000
  70
    32
  0
VERTEX
  8
0
  5
2A76
 10
28.6693
 20
58.2359
 30
0.00000
  70
    32
  0
VERTEX
  8
0
  5
2A77
 10
28.6672
 20
58.2305
 30
0.00000
  70
    32
  0
VERTEX
  8
0
  5
2A78
 10
28.6651
 20
58.2251
 30
0.00000
  70
    32
  0
VERTEX
  8
0
  5
2A79
 10
28.6630
 20
58.2196
 30
0.00000
  70
    32
  0
VERTEX
  8
0
  5
2A7A
 10
28.6609
 20
58.2141
 30
0.00000
  70
    32
  0
VERTEX
  8
0
  5
2A7B
 10
28.6589
 20
58.2087
 30
0.00000
  70
    32
  0
VERTEX
  8
0
  5
2A7C
 10
28.6568
 20
58.2032
 30
0.00000
  70
    32
  0
VERTEX
  8
0
  5
2A7D
 10
28.6547
 20
58.1977
 30
0.00000
  70
    32
  0
VERTEX
  8
0
  5
2A7E
 10
28.6526
 20
58.1922
 30
0.00000
  70
    32
  0
VERTEX
  8
0
  5
2A7F
 10
28.6506
 20
58.1867
 30
0.00000
  70
    32
  0
VERTEX
  8
0
  5
2A80
 10
28.6485
 20
58.1811
 30
0.00000
  70
    32
  0
VERTEX
  8
0
  5
2A81
 10
28.6464
 20
58.1756
 30
0.00000
  70
    32
  0
VERTEX
  8
0
  5
2A82
 10
28.6443
 20
58.1700
 30
0.00000
  70
    32
  0
VERTEX
  8
0
  5
2A83
 10
28.6422
 20
58.1645
 30
0.00000
  70
    32
  0
VERTEX
  8
0
  5
2A84
 10
28.6402
 20
58.1589
 30
0.00000
  70
    32
  0
VERTEX
  8
0
  5
2A85
 10
28.6381
 20
58.1533
 30
0.00000
  70
    32
  0
VERTEX
  8
0
  5
2A86
 10
28.6360
 20
58.1477
 30
0.00000
  70
    32
  0
VERTEX
  8
0
  5
2A87
 10
28.6339
 20
58.1421
 30
0.00000
  70
    32
  0
VERTEX
  8
0
  5
2A88
 10
28.6319
 20
58.1365
 30
0.00000
  70
    32
  0
VERTEX
  8
0
  5
2A89
 10
28.6298
 20
58.1309
 30
0.00000
  70
    32
  0
VERTEX
  8
0
  5
2A8A
 10
28.6277
 20
58.1253
 30
0.00000
  70
    32
  0
VERTEX
  8
0
  5
2A8B
 10
28.6257
 20
58.1196
 30
0.00000
  70
    32
  0
VERTEX
  8
0
  5
2A8C
 10
28.6236
 20
58.1140
 30
0.00000
  70
    32
  0
VERTEX
  8
0
  5
2A8D
 10
28.6215
 20
58.1083
 30
0.00000
  70
    32
  0
VERTEX
  8
0
  5
2A8E
 10
28.6194
 20
58.1026
 30
0.00000
  70
    32
  0
VERTEX
  8
0
  5
2A8F
 10
28.6174
 20
58.0969
 30
0.00000
  70
    32
  0
VERTEX
  8
0
  5
2A90
 10
28.6153
 20
58.0912
 30
0.00000
  70
    32
  0
VERTEX
  8
0
  5
2A91
 10
28.6132
 20
58.0855
 30
0.00000
  70
    32
  0
VERTEX
  8
0
  5
2A92
 10
28.6112
 20
58.0798
 30
0.00000
  70
    32
  0
SEQEND
  8
0
  5
2A93
  0
LINE
  5
253B
  8
0
 10
28.6111531605220115
 20
51.9169169089629108
 30
0.0
 11
28.6111531605220115
 21
58.0798109768090498
 31
0.0
  0
LINE
  5
253C
  8
0
 10
37.361153160522008
 20
58.591020908060699
 30
0.0
 11
37.361153160522008
 21
58.3647679867067097
 31
0.0
  0
LINE
  5
253D
  8
0
 10
37.361153160522008
 20
49.6911911339974495
 30
0.0
 11
37.361153160522008
 21
47.4453601084701617
 31
0.0
  0
LINE
  5
253E
  8
0
 10
41.3611531605220009
 20
58.591020908060699
 30
0.0
 11
41.3611531605220009
 21
58.3647679867067026
 31
0.0
  0
LINE
  5
253F
  8
0
 10
41.3611531605220009
 20
49.6911911339971866
 30
0.0
 11
41.3611531605220009
 21
47.4453601084701617
 31
0.0
  0
ARC
  5
2540
  8
0
 10
39.0132077203531935
 20
66.2114316715640143
 30
0.0
 40
8.1904199387618775
 50
277.7060773375176268
 51
290.2647271203534842
  0
ARC
  5
2541
  8
0
 10
39.3611531605215603
 20
45.9474740110436812
 30
0.0
 40
4.0830386716670768
 50
79.4108765866692607
 51
100.5891234133306966
  0
ARC
  5
2542
  8
0
 10
39.7090986006903677
 20
41.8445274491400099
 30
0.0
 40
8.1904199387618775
 50
97.7060773375193179
 51
110.2647271203516937
  0
ARC
  5
2543
  8
0
 10
39.0132077203527388
 20
41.8445274491400099
 30
0.0
 40
8.1904199387618775
 50
69.7352728796465158
 51
82.2939226624823448
  0
LINE
  5
2544
  8
1
 10
81.0751330462000368
 20
97.849586571825995
 30
0.0
 11
170.5251330462000112
 21
97.8495865718260234
 31
0.0
  0
LINE
  5
2545
  8
1
 10
95.1251330462000482
 20
83.799586571826012
 30
0.0
 11
95.1251330462000482
 21
111.8995865718260063
 31
0.0
  0
LINE
  5
2548
  8
1
 10
81.4275967713804363
 20
54.027979560352037
 30
0.0
 11
108.8226693210197027
 21
54.027979560352037
 31
0.0
  0
LINE
  5
2549
  8
1
 10
81.3751330462000482
 20
52.8279795603520483
 30
0.0
 11
108.875133046200105
 21
52.8279795603520483
 31
0.0
  0
LINE
  5
254A
  8
1
 10
95.1251330462001192
 20
34.5279795603520725
 30
0.0
 11
95.1251330462000482
 21
66.5779795603520483
 31
0.0
  0
LINE
  5
254B
  8
1
 10
39.361153160522008
 20
65.2179795603520347
 30
0.0
 11
39.361153160522008
 21
34.527979560352037
 31
0.0
  0
LINE
  5
254C
  8
1
 10
23.6111531605220115
 20
54.027979560352037
 30
0.0
 11
55.111153160522008
 21
54.027979560352037
 31
0.0
  0
ENDSEC
  0
EOF
