  0
SECTION
  2
HEADER
  9
$ACADVER
  1
AC1009
  9
$INSBASE
 10
0.0
 20
0.0
 30
0.0
  9
$EXTMIN
 10
0.0
 20
-2.960436562073669
 30
0.0
  9
$EXTMAX
 10
154.413523310936398
 20
93.9146033261447428
 30
0.0
  9
$LIMMIN
 10
0.0
 20
0.0
  9
$LIMMAX
 10
375.0
 20
270.0
  9
$ORTHOMODE
 70
     1
  9
$REGENMODE
 70
     1
  9
$FILLMODE
 70
     1
  9
$QTEXTMODE
 70
     0
  9
$MIRRTEXT
 70
     0
  9
$DRAGMODE
 70
     2
  9
$LTSCALE
 40
5.0
  9
$OSMODE
 70
    37
  9
$ATTMODE
 70
     1
  9
$TEXTSIZE
 40
0.2
  9
$TRACEWID
 40
0.05
  9
$TEXTSTYLE
  7
STANDARD
  9
$CLAYER
  8
0
  9
$CELTYPE
  6
BYLAYER
  9
$CECOLOR
 62
   256
  9
$DIMSCALE
 40
1.0
  9
$DIMASZ
 40
3.0
  9
$DIMEXO
 40
2.0
  9
$DIMDLI
 40
10.0
  9
$DIMRND
 40
0.0
  9
$DIMDLE
 40
0.0
  9
$DIMEXE
 40
2.0
  9
$DIMTP
 40
0.0
  9
$DIMTM
 40
0.0
  9
$DIMTXT
 40
3.2000000000000002
  9
$DIMCEN
 40
0.09
  9
$DIMTSZ
 40
0.0
  9
$DIMTOL
 70
     0
  9
$DIMLIM
 70
     0
  9
$DIMTIH
 70
     0
  9
$DIMTOH
 70
     0
  9
$DIMSE1
 70
     0
  9
$DIMSE2
 70
     0
  9
$DIMTAD
 70
     1
  9
$DIMZIN
 70
     8
  9
$DIMBLK
  1

  9
$DIMASO
 70
     0
  9
$DIMSHO
 70
     0
  9
$DIMPOST
  1

  9
$DIMAPOST
  1

  9
$DIMALT
 70
     0
  9
$DIMALTD
 70
     2
  9
$DIMALTF
 40
25.3999999999999986
  9
$DIMLFAC
 40
1.0
  9
$DIMTOFL
 70
     1
  9
$DIMTVP
 40
1.6000000000000001
  9
$DIMTIX
 70
     0
  9
$DIMSOXD
 70
     0
  9
$DIMSAH
 70
     0
  9
$DIMBLK1
  1

  9
$DIMBLK2
  1

  9
$DIMSTYLE
  2
STANDARD
  9
$DIMCLRD
 70
     0
  9
$DIMCLRE
 70
     0
  9
$DIMCLRT
 70
     0
  9
$DIMTFAC
 40
1.0
  9
$DIMGAP
 40
0.09
  9
$LUNITS
 70
     2
  9
$LUPREC
 70
     1
  9
$SKETCHINC
 40
0.1
  9
$FILLETRAD
 40
0.0
  9
$AUNITS
 70
     0
  9
$AUPREC
 70
     0
  9
$MENU
  1
E:\r13\win\SUPPORT\ACAD
  9
$ELEVATION
 40
0.0
  9
$PELEVATION
 40
0.0
  9
$THICKNESS
 40
0.0
  9
$LIMCHECK
 70
     0
  9
$BLIPMODE
 70
     0
  9
$CHAMFERA
 40
0.0
  9
$CHAMFERB
 40
0.0
  9
$SKPOLY
 70
     0
  9
$TDCREATE
 40
2449840.6171180559322238
  9
$TDUPDATE
 40
2460566.5216087969020009
  9
$TDINDWG
 40
0.1747403241
  9
$TDUSRTIMER
 40
0.1747403241
  9
$USRTIMER
 70
     1
  9
$ANGBASE
 50
0.0
  9
$ANGDIR
 70
     0
  9
$PDMODE
 70
     0
  9
$PDSIZE
 40
0.0
  9
$PLINEWID
 40
0.0
  9
$COORDS
 70
     1
  9
$SPLFRAME
 70
     0
  9
$SPLINETYPE
 70
     6
  9
$SPLINESEGS
 70
     8
  9
$ATTDIA
 70
     1
  9
$ATTREQ
 70
     1
  9
$HANDLING
 70
     1
  9
$HANDSEED
  5
1D99
  9
$SURFTAB1
 70
     6
  9
$SURFTAB2
 70
     6
  9
$SURFTYPE
 70
     6
  9
$SURFU
 70
     6
  9
$SURFV
 70
     6
  9
$UCSNAME
  2

  9
$UCSORG
 10
0.0
 20
0.0
 30
0.0
  9
$UCSXDIR
 10
1.0
 20
0.0
 30
0.0
  9
$UCSYDIR
 10
0.0
 20
1.0
 30
0.0
  9
$PUCSNAME
  2

  9
$PUCSORG
 10
0.0
 20
0.0
 30
0.0
  9
$PUCSXDIR
 10
1.0
 20
0.0
 30
0.0
  9
$PUCSYDIR
 10
0.0
 20
1.0
 30
0.0
  9
$USERI1
 70
     0
  9
$USERI2
 70
     1
  9
$USERI3
 70
     0
  9
$USERI4
 70
     0
  9
$USERI5
 70
     0
  9
$USERR1
 40
0.0
  9
$USERR2
 40
0.0
  9
$USERR3
 40
0.0
  9
$USERR4
 40
0.0
  9
$USERR5
 40
0.0
  9
$WORLDVIEW
 70
     1
  9
$SHADEDGE
 70
     3
  9
$SHADEDIF
 70
    70
  9
$TILEMODE
 70
     1
  9
$MAXACTVP
 70
    16
  9
$PLIMCHECK
 70
     0
  9
$PEXTMIN
 10
1.0000000000000000E+20
 20
1.0000000000000000E+20
 30
1.0000000000000000E+20
  9
$PEXTMAX
 10
-1.0000000000000000E+20
 20
-1.0000000000000000E+20
 30
-1.0000000000000000E+20
  9
$PLIMMIN
 10
0.0
 20
0.0
  9
$PLIMMAX
 10
12.0
 20
9.0
  9
$UNITMODE
 70
     0
  9
$VISRETAIN
 70
     0
  9
$PLINEGEN
 70
     0
  9
$PSLTSCALE
 70
     0
  0
ENDSEC
  0
SECTION
  2
TABLES
  0
TABLE
  2
VPORT
 70
     1
  0
VPORT
  2
*ACTIVE
 70
     0
 10
0.0
 20
0.0
 11
1.0
 21
1.0
 12
92.4513290565494543
 22
45.4811282628902376
 13
0.0
 23
0.0
 14
10.0
 24
10.0
 15
10.0
 25
10.0
 16
0.0
 26
0.0
 36
1.0
 17
0.0
 27
0.0
 37
0.0
 40
97.7052557278292255
 41
2.3485221674876842
 42
50.0
 43
0.0
 44
0.0
 50
0.0
 51
0.0
 71
     0
 72
   100
 73
     1
 74
     0
 75
     0
 76
     0
 77
     0
 78
     0
  0
ENDTAB
  0
TABLE
  2
LTYPE
 70
     4
  0
LTYPE
  2
CONTINUOUS
 70
     0
  3
Solid Line
 72
    65
 73
     0
 40
0.0
  0
LTYPE
  2
CENTER
 70
     0
  3
____ _ ____ _ ____ _ ____ _ ____ _ ____ _ ____
 72
    65
 73
     4
 40
2.0
 49
1.25
 49
-0.25
 49
0.25
 49
-0.25
  0
LTYPE
  2
HIDDEN
 70
     0
  3
Hidden __ __ __ __ __ __ __ __ __ __ __ __ __ _
 72
    65
 73
     2
 40
0.375
 49
0.25
 49
-0.125
  0
LTYPE
  2
PHANTOM2
 70
     0
  3
___ _ _ ___ _ _ ___ _ _ ___ _ _
 72
    65
 73
     6
 40
1.25
 49
0.625
 49
-0.125
 49
0.125
 49
-0.125
 49
0.125
 49
-0.125
  0
ENDTAB
  0
TABLE
  2
LAYER
 70
     4
  0
LAYER
  2
0
 70
     0
 62
     7
  6
CONTINUOUS
  0
LAYER
  2
1
 70
     0
 62
     1
  6
CENTER
  0
LAYER
  2
3
 70
     0
 62
     3
  6
CONTINUOUS
  0
LAYER
  2
2
 70
     0
 62
     2
  6
HIDDEN
  0
ENDTAB
  0
TABLE
  2
STYLE
 70
     2
  0
STYLE
  2
STANDARD
 70
     0
 40
0.0
 41
1.0
 50
0.0
 71
     0
 42
0.2
  3
TXT
  4
BIGFONT
  0
STYLE
  2
STANDARD1
 70
     0
 40
0.0
 41
1.0
 50
0.0
 71
     0
 42
3.0
  3
txt
  4

  0
ENDTAB
  0
TABLE
  2
VIEW
 70
     1
  0
VIEW
  2
ALL
 70
     0
 40
270.0
 10
220.9915970000000129
 20
135.0
 41
0.0
 11
0.0
 21
0.0
 31
1.0
 12
0.0
 22
0.0
 32
0.0
 42
0.0
 43
0.0
 44
0.0
 50
0.0
 71
     0
  0
ENDTAB
  0
TABLE
  2
UCS
 70
     0
  0
ENDTAB
  0
TABLE
  2
APPID
 70
     6
  0
APPID
  2
ACAD
 70
     0
  0
APPID
  2
ACAD_EXEMPT_FROM_CAD_STANDARDS
 70
     0
  0
APPID
  2
ACAD_MLEADERVER
 70
     0
  0
APPID
  2
ACAD_NAV_VCDISPLAY
 70
     0
  0
APPID
  2
ACAD_DSTYLE_DIMJAG
 70
     0
  0
APPID
  2
ACAD_DSTYLE_DIMTALN
 70
     0
  0
ENDTAB
  0
TABLE
  2
DIMSTYLE
 70
     1
  0
DIMSTYLE
  2
STANDARD
 70
     0
  3

  4

  5

  6

  7

 40
1.0
 41
0.18
 42
0.0625
 43
0.38
 44
0.18
 45
0.0
 46
0.0
 47
0.0
 48
0.0
140
0.18
141
0.09
142
0.0
143
25.3999999999999986
144
1.0
145
0.0
146
1.0
147
0.09
 71
     0
 72
     0
 73
     1
 74
     1
 75
     0
 76
     0
 77
     0
 78
     0
170
     0
171
     2
172
     0
173
     0
174
     0
175
     0
176
     0
177
     0
178
     0
  0
ENDTAB
  0
ENDSEC
  0
SECTION
  2
BLOCKS
  0
BLOCK
  8
0
  2
$MODEL_SPACE
 70
     0
 10
0.0
 20
0.0
 30
0.0
  3
$MODEL_SPACE
  1

  0
ENDBLK
  5
E8
  8
0
  0
BLOCK
 67
     1
  8
0
  2
$PAPER_SPACE
 70
     0
 10
0.0
 20
0.0
 30
0.0
  3
$PAPER_SPACE
  1

  0
ENDBLK
  5
E6
 67
     1
  8
0
  0
ENDSEC
  0
SECTION
  2
ENTITIES
  0
TEXT
  5
E87
  8
0
 62
     3
 10
0.0
 20
0.0
 30
0.0
 40
10.0
  1
KCL05A-SUS
  7
STANDARD1
  0
LINE
  5
1AD1
  8
2
 10
52.2321349995228701
 20
42.5077809655550709
 30
0.0
 11
52.2321349995228701
 21
50.5077809655550709
 31
0.0
  0
LINE
  5
1AD2
  8
2
 10
51.7991349995230692
 20
42.5077809655550709
 30
0.0
 11
51.7991349995230692
 21
50.5077809655550709
 31
0.0
  0
LINE
  5
1AD3
  8
2
 10
47.6651349995226568
 20
42.5077809655550709
 30
0.0
 11
47.6651349995226568
 21
50.5077809655550709
 31
0.0
  0
LINE
  5
1AD4
  8
2
 10
47.232134999522863
 20
42.5077809655550709
 30
0.0
 11
47.232134999522863
 21
50.5077809655550709
 31
0.0
  0
LINE
  5
1BE9
  8
0
 10
91.2135233108760133
 20
35.9077809655550979
 30
0.0
 11
92.0135233108760247
 21
35.1077809655550865
 31
0.0
  0
LINE
  5
1BEA
  8
0
 10
104.2135233109968055
 20
35.1077809655550865
 30
0.0
 11
105.0135233109968027
 21
35.9077809655550979
 31
0.0
  0
LINE
  5
1BEB
  8
0
 10
105.0135233109364066
 20
35.9077809655550979
 30
0.0
 11
105.0135233109364066
 21
39.3077809655553665
 31
0.0
  0
LINE
  5
1BEC
  8
0
 10
91.2135233109364378
 20
39.3077809655553665
 30
0.0
 11
91.2135233109364378
 21
35.9077809655550979
 31
0.0
  0
LINE
  5
1BED
  8
0
 10
92.0135233109328681
 20
40.1077809654937028
 30
0.0
 11
91.2135233109376884
 21
39.3077809655553665
 31
0.0
  0
LINE
  5
1BEE
  8
0
 10
105.0135233109351987
 20
39.3077809655553665
 30
0.0
 11
104.2135233109399053
 21
40.1077809654937028
 31
0.0
  0
LINE
  5
1BEF
  8
0
 10
91.2135233108760133
 20
35.9077809655550979
 30
0.0
 11
105.0135233109968027
 21
35.9077809655550979
 31
0.0
  0
LINE
  5
1BF0
  8
0
 10
92.0135233108760247
 20
35.1077809655550865
 30
0.0
 11
104.2135233109968055
 21
35.1077809655550865
 31
0.0
  0
LINE
  5
1BF1
  8
0
 10
105.013523310935696
 20
39.3077809655553665
 30
0.0
 11
100.7498085762290003
 21
39.3077809655549686
 31
0.0
  0
LINE
  5
1BF2
  8
0
 10
95.4772380456441141
 20
39.3077809655548478
 30
0.0
 11
91.2135233109365942
 21
39.3077809655551391
 31
0.0
  0
ARC
  5
1BF3
  8
0
 10
98.1135233109364719
 20
46.0077809655548933
 30
0.0
 40
7.1999999999998412
 50
248.5215821589206939
 51
291.4784178410830009
  0
LINE
  5
1BF4
  8
0
 10
94.0760987318785453
 20
40.1077809655274109
 30
0.0
 11
92.0135233109328681
 21
40.1077809654937028
 31
0.0
  0
LINE
  5
1BF5
  8
0
 10
95.4772380456441141
 20
39.3077809655548478
 30
0.0
 11
95.2633735881461945
 21
39.398625570033353
 31
0.0
  0
LINE
  5
1BF6
  8
0
 10
104.2135233109399053
 20
40.1077809654937028
 30
0.0
 11
102.1455762842794002
 21
40.1077809655274677
 31
0.0
  0
CIRCLE
  5
1BF7
  8
0
 10
98.1135233109364151
 20
46.5077809655550709
 30
0.0
 40
4.0000000000190994
  0
ARC
  5
1BF8
  8
0
 10
130.9469876159377009
 20
-11.7982585569662692
 30
0.0
 40
59.9999999999968665
 50
88.0926458837862469
 51
96.0593011985113634
  0
LINE
  5
1BF9
  8
0
 10
123.1135233109365998
 20
47.6549795311357798
 30
0.0
 11
124.6135233109340987
 21
47.8665319806436287
 31
0.0
  0
LINE
  5
1BFA
  8
0
 10
123.1135233109365998
 20
51.6346179401847323
 30
0.0
 11
124.6135233109363014
 21
51.7768472379608511
 31
0.0
  0
ARC
  5
1BFB
  8
0
 10
131.1124792079475867
 20
-11.8636781806386402
 30
0.0
 40
63.9715007116974732
 50
88.3593868938339853
 51
95.8308191591494705
  0
ARC
  5
1BFC
  8
0
 10
130.9469876159404862
 20
-11.7982585569523497
 30
0.0
 40
59.9999999999827835
 50
79.8568026678173197
 51
83.332409544378919
  0
POLYLINE
  5
1BFD
  8
0
 66
     1
 10
0.0
 20
0.0
 30
0.0
 70
   128
  0
VERTEX
  5
1D07
  8
0
 10
141.513523310936705
 20
51.2571277555258504
 30
0.0
  0
VERTEX
  5
1D08
  8
0
 10
139.7139074177692919
 20
51.5272705481624484
 30
0.0
  0
VERTEX
  5
1D09
  8
0
 10
137.9135233109356022
 20
51.7455056263253823
 30
0.0
  0
SEQEND
  5
1D0A
  8
0
  0
ARC
  5
1BFE
  8
0
 10
130.9469876159378998
 20
-11.7982585569693992
 30
0.0
 40
60.0
 50
83.3324095443771427
 51
87.3561503588273354
  0
POLYLINE
  5
1BFF
  8
0
 66
     1
 10
0.0
 20
0.0
 30
0.0
 70
   128
  0
VERTEX
  5
1D0B
  8
0
 10
137.9135233109356022
 20
51.7455056263255031
 30
0.0
  0
VERTEX
  5
1D0C
  8
0
 10
135.8166255950359016
 20
51.9347410130562821
 30
0.0
  0
VERTEX
  5
1D0D
  8
0
 10
133.7146380683284974
 20
52.0549013230730679
 30
0.0
  0
SEQEND
  5
1D0E
  8
0
  0
LINE
  5
1C00
  8
0
 10
132.9439952813281138
 20
48.1684985704955579
 30
0.0
 11
133.7146380683286111
 21
48.1378750435004505
 31
0.0
  0
LINE
  5
1C01
  8
0
 10
132.9439952813280001
 20
52.0815988316604717
 30
0.0
 11
133.7146380683284974
 21
52.0549013230730679
 31
0.0
  0
LINE
  5
1C02
  8
0
 10
146.8135233109364037
 20
50.1439187741435717
 30
0.0
 11
146.1135233109393141
 21
50.3251418867634968
 31
0.0
  0
ARC
  5
1C03
  8
0
 10
130.9426805722301026
 20
-11.8173107063079303
 30
0.0
 40
60.0195128926624974
 50
74.667029803262281
 51
79.855958331987793
  0
ARC
  5
1C04
  8
0
 10
130.9171646319213949
 20
-12.8613860076190303
 30
0.0
 40
64.9882037330541209
 50
76.4771832496034278
 51
80.6159976556506734
  0
POLYLINE
  5
1C05
  8
0
 66
     1
 10
0.0
 20
0.0
 30
0.0
 70
   128
  0
VERTEX
  5
1D0F
  8
0
 10
116.1135233109364009
 20
50.0434515799424773
 30
0.0
  0
VERTEX
  5
1D10
  8
0
 10
117.9663485351393035
 20
50.4232893168113492
 30
0.0
  0
VERTEX
  5
1D11
  8
0
 10
119.8135233109363043
 20
50.9077809655550979
 30
0.0
  0
SEQEND
  5
1D12
  8
0
  0
POLYLINE
  5
1C06
  8
0
 66
     1
 10
0.0
 20
0.0
 30
0.0
 70
   128
  0
VERTEX
  5
1D13
  8
0
 10
120.7135233109298014
 20
47.1108110698489781
 30
0.0
  0
VERTEX
  5
1D14
  8
0
 10
118.4206428195358001
 20
46.4895237089331204
 30
0.0
  0
VERTEX
  5
1D15
  8
0
 10
116.1135233109364009
 20
45.943147964556708
 30
0.0
  0
SEQEND
  5
1D16
  8
0
  0
POLYLINE
  5
1C07
  8
0
 66
     1
 10
0.0
 20
0.0
 30
0.0
 70
   128
  0
VERTEX
  5
1D17
  8
0
 10
120.7135233109298014
 20
47.1108110698490279
 30
0.0
  0
VERTEX
  5
1D18
  8
0
 10
121.9081961271678978
 20
47.4140543917415584
 30
0.0
  0
VERTEX
  5
1D19
  8
0
 10
123.1135233109365998
 20
47.6549795311357798
 30
0.0
  0
SEQEND
  5
1D1A
  8
0
  0
POLYLINE
  5
1C08
  8
0
 66
     1
 10
0.0
 20
0.0
 30
0.0
 70
   128
  0
VERTEX
  5
1D1B
  8
0
 10
119.8135233109363043
 20
50.9077809655550482
 30
0.0
  0
VERTEX
  5
1D1C
  8
0
 10
121.4643828625972048
 20
51.344587364249783
 30
0.0
  0
VERTEX
  5
1D1D
  8
0
 10
123.1135233109365998
 20
51.6346179401847323
 30
0.0
  0
SEQEND
  5
1D1E
  8
0
  0
POLYLINE
  5
1C09
  8
0
 66
     1
 10
0.0
 20
0.0
 30
0.0
 70
   128
  0
VERTEX
  5
1D1F
  8
0
 10
149.9922408559635016
 20
46.516902017686327
 30
0.0
  0
VERTEX
  5
1D20
  8
0
 10
150.1635430330429131
 20
46.9165809618890535
 30
0.0
  0
VERTEX
  5
1D21
  8
0
 10
150.292240855963513
 20
47.2169020176863725
 30
0.0
  0
SEQEND
  5
1D22
  8
0
  0
ARC
  5
1C0A
  8
0
 10
148.6135233109363867
 20
47.1077809655550865
 30
0.0
 40
1.5000000000000331
 50
250.5287793654810002
 51
336.8014094863539185
  0
ARC
  5
1C0B
  8
0
 10
148.9129746908940888
 20
47.807543548451072
 30
0.0
 40
1.5004108010706589
 50
336.8179952341719172
 51
69.9834142521843461
  0
ARC
  5
1C0C
  8
0
 10
141.4762778711103977
 20
30.9450612913487397
 30
0.0
 40
19.9269244372936711
 50
66.4861000280576491
 51
74.464171681737497
  0
ARC
  5
1C0D
  8
0
 10
130.9469876159718922
 20
-11.7982585568513301
 30
0.0
 40
59.9999999998771401
 50
73.3748540425739151
 51
74.6661854674322285
  0
LINE
  5
1C0E
  8
0
 10
110.8135233109363043
 20
44.9781105798241398
 30
0.0
 11
110.2135233109370063
 21
44.9166557897371987
 31
0.0
  0
ARC
  5
1C0F
  8
0
 10
111.6135233109365004
 20
34.2077809655550027
 30
0.0
 40
10.8000000000000806
 50
97.4481905610388139
 51
140.2210388709638949
  0
POLYLINE
  5
1C10
  8
0
 66
     1
 10
0.0
 20
0.0
 30
0.0
 70
   128
  0
VERTEX
  5
1D23
  8
0
 10
103.3135233109364037
 20
41.1179184460977467
 30
0.0
  0
VERTEX
  5
1D24
  8
0
 10
102.8356319446718032
 20
40.6460410740687124
 30
0.0
  0
VERTEX
  5
1D25
  8
0
 10
102.3135233109364037
 20
40.223606479412517
 30
0.0
  0
SEQEND
  5
1D26
  8
0
  0
POLYLINE
  5
1C11
  8
0
 66
     1
 10
0.0
 20
0.0
 30
0.0
 70
   128
  0
VERTEX
  5
1D27
  8
0
 10
102.3135233109364037
 20
40.223606479412517
 30
0.0
  0
VERTEX
  5
1D28
  8
0
 10
101.5602929646693013
 20
39.7041373725950919
 30
0.0
  0
VERTEX
  5
1D29
  8
0
 10
100.7763092210316955
 20
39.3077809655550325
 30
0.0
  0
SEQEND
  5
1D2A
  8
0
  0
ARC
  5
1C12
  8
0
 10
98.1107342087870222
 20
45.5141556482243388
 30
0.0
 40
6.7459002839676696
 50
59.7069245628800971
 51
245.0335455228581907
  0
ARC
  5
1C13
  8
0
 10
108.1130532705823981
 20
62.8860769298256628
 30
0.0
 40
13.2999999999996206
 50
240.2507420024655005
 51
266.9850664106382965
  0
ARC
  5
1C14
  8
0
 10
110.0135233109364066
 20
84.5077809655547156
 30
0.0
 40
34.9999999999996376
 50
265.7398177411661209
 51
280.0370937830743969
  0
POLYLINE
  5
1C15
  8
0
 66
     1
 10
0.0
 20
0.0
 30
0.0
 70
   128
  0
VERTEX
  5
1D2B
  8
0
 10
116.1135233109364009
 20
45.943147964556708
 30
0.0
  0
VERTEX
  5
1D2C
  8
0
 10
113.472307967052501
 20
45.4123838071418504
 30
0.0
  0
VERTEX
  5
1D2D
  8
0
 10
110.8135233109364037
 20
44.9781105798240333
 30
0.0
  0
SEQEND
  5
1D2E
  8
0
  0
LINE
  5
1C16
  8
0
 10
56.63213499952289
 20
35.9077809655550979
 30
0.0
 11
56.63213499952289
 21
38.8141453010064197
 31
0.0
  0
LINE
  5
1C17
  8
0
 10
42.8321349995228786
 20
38.8141453010063131
 30
0.0
 11
42.8321349995228786
 21
35.9077809655550979
 31
0.0
  0
LINE
  5
1C18
  8
0
 10
42.8321349994624825
 20
35.9077809655550979
 30
0.0
 11
43.6321349994624867
 21
35.1077809655550865
 31
0.0
  0
LINE
  5
1C19
  8
0
 10
55.8321349995832676
 20
35.1077809655550865
 30
0.0
 11
56.6321349995832577
 21
35.9077809655550979
 31
0.0
  0
LINE
  5
1C1A
  8
0
 10
51.7321349994006425
 20
42.5077809655550709
 30
0.0
 11
52.4321349995229014
 21
42.5077809655550709
 31
0.0
  0
LINE
  5
1C1B
  8
0
 10
47.032134999522917
 20
42.5077809655550709
 30
0.0
 11
47.732134999645119
 21
42.5077809655550709
 31
0.0
  0
LINE
  5
1C1C
  8
0
 10
47.7321349995892703
 20
50.5077809655550709
 30
0.0
 11
47.0321349995229028
 21
50.5077809655550709
 31
0.0
  0
LINE
  5
1C1D
  8
0
 10
52.4321349995229014
 20
50.5077809655550709
 30
0.0
 11
51.7321349994564628
 21
50.5077809655550709
 31
0.0
  0
LINE
  5
1C1E
  8
0
 10
47.0321349995228601
 20
52.2577809655550709
 30
0.0
 11
43.2321349995229127
 21
52.2577809655550709
 31
0.0
  0
LINE
  5
1C1F
  8
0
 10
56.2321349995228488
 20
52.2577809655550709
 30
0.0
 11
52.4321349995229014
 21
52.2577809655550709
 31
0.0
  0
LINE
  5
1C20
  8
0
 10
52.4321349995230079
 20
52.1077809655552073
 30
0.0
 11
47.0321349995229809
 21
52.1077809655552073
 31
0.0
  0
LINE
  5
1C21
  8
0
 10
43.2321349995230193
 20
52.1077809655552073
 30
0.0
 11
40.7321349995228488
 21
52.1077809655552073
 31
0.0
  0
POLYLINE
  5
1C22
  8
0
 66
     1
 10
0.0
 20
0.0
 30
0.0
 70
   128
  0
VERTEX
  5
1D2F
  8
0
 10
43.3556155727501604
 20
39.3077809655543433
 30
0.0
  0
VERTEX
  5
1D30
  8
0
 10
43.0839315938876481
 20
39.048714323921331
 30
0.0
  0
VERTEX
  5
1D31
  8
0
 10
42.9029967299755128
 20
38.8756613994936515
 30
0.0
  0
VERTEX
  5
1D32
  8
0
 10
42.8331245519528565
 20
38.8087292810843678
 30
0.0
  0
VERTEX
  5
1D33
  8
0
 10
42.838777587164742
 20
38.8141453010063131
 30
0.0
  0
SEQEND
  5
1D34
  8
0
  0
LINE
  5
1C23
  8
0
 10
56.1086544262948621
 20
39.3077809655548478
 30
0.0
 11
43.355615572749798
 21
39.307780965554123
 31
0.0
  0
ARC
  5
1C24
  8
0
 10
-88.4942548716645661
 20
-112.609271576314498
 30
0.0
 40
209.735052460105095
 50
46.2177629454431624
 51
46.4130063079092992
  0
LINE
  5
1C25
  8
0
 10
42.8321349995228786
 20
35.9077809655550979
 30
0.0
 11
56.63213499952289
 21
35.9077809655550979
 31
0.0
  0
LINE
  5
1C26
  8
0
 10
43.6321349994624867
 20
35.1077809655550865
 30
0.0
 11
55.8321349995832534
 21
35.1077809655550865
 31
0.0
  0
ARC
  5
1C27
  8
0
 10
45.0408651642841491
 20
15.8736805893501707
 30
0.0
 40
25.9162693995551408
 50
64.7189066418316941
 51
68.921044957083609
  0
ARC
  5
1C28
  8
0
 10
54.5326457294845923
 20
15.6185568702471897
 30
0.0
 40
26.1936126061722803
 50
111.1012114023967996
 51
115.258836998704993
  0
POLYLINE
  5
1C29
  8
0
 66
     1
 10
0.0
 20
0.0
 30
0.0
 70
   128
  0
VERTEX
  5
1D35
  8
0
 10
45.1025121207320581
 20
40.0557809655506887
 30
0.0
  0
VERTEX
  5
1D36
  8
0
 10
45.2816722683055275
 20
40.1045718689584305
 30
0.0
  0
VERTEX
  5
1D37
  8
0
 10
45.32759189045575
 20
40.1077809655550865
 30
0.0
  0
SEQEND
  5
1D38
  8
0
  0
LINE
  5
1C2A
  8
0
 10
54.1366781086134878
 20
40.1077809655243911
 30
0.0
 11
45.3275918904322666
 21
40.1077809655243911
 31
0.0
  0
POLYLINE
  5
1C2B
  8
0
 66
     1
 10
0.0
 20
0.0
 30
0.0
 70
   128
  0
VERTEX
  5
1D39
  8
0
 10
54.1366781085911626
 20
40.1077809655583266
 30
0.0
  0
VERTEX
  5
1D3A
  8
0
 10
54.2821148015165065
 20
40.0828099270779035
 30
0.0
  0
VERTEX
  5
1D3B
  8
0
 10
54.3617578783097528
 20
40.055780965536357
 30
0.0
  0
SEQEND
  5
1D3C
  8
0
  0
ARC
  5
1C2C
  8
0
 10
49.7329582426891079
 20
56.1789796299104793
 30
0.0
 40
6.0132521978863593
 50
250.5758337392140049
 51
289.4182661038191213
  0
LINE
  5
1C2D
  8
0
 10
43.2321349995229127
 20
39.1901221588902402
 30
0.0
 11
43.2321349995229127
 21
52.2570466360081696
 31
0.0
  0
LINE
  5
1C2E
  8
0
 10
47.0321349995228601
 20
40.1077809654937028
 30
0.0
 11
47.0321349995228601
 21
52.2570466360081696
 31
0.0
  0
LINE
  5
1C2F
  8
0
 10
56.2321349995228488
 20
39.1901221588902402
 30
0.0
 11
56.2321349995228488
 21
52.2570466360081696
 31
0.0
  0
LINE
  5
1C30
  8
0
 10
52.4321349995229014
 20
40.1077809654937028
 30
0.0
 11
52.4321349995229014
 21
52.2570466360081696
 31
0.0
  0
ARC
  5
1C31
  8
0
 10
52.2385320637929667
 20
41.9734796891483981
 30
0.0
 40
0.1936782740511324
 50
1.5981562049211591
 51
91.8927856573027384
  0
ARC
  5
1C32
  8
0
 10
47.2257634215067981
 20
41.9734526007532622
 30
0.0
 40
0.1937045076668935
 50
88.1150134449228943
 51
178.3940446928598931
  0
LINE
  5
1C33
  8
0
 10
47.2321349995228772
 20
42.1670522889866675
 30
0.0
 11
52.232134999522863
 21
42.1670522889866675
 31
0.0
  0
POLYLINE
  5
1C34
  8
0
 66
     1
 10
0.0
 20
0.0
 30
0.0
 70
   128
  0
VERTEX
  5
1D3D
  8
0
 10
42.9590784176108684
 20
50.9077809655550979
 30
0.0
  0
VERTEX
  5
1D3E
  8
0
 10
43.151089237996807
 20
50.4232893168113492
 30
0.0
  0
VERTEX
  5
1D3F
  8
0
 10
43.2321349995229127
 20
50.0434515799424773
 30
0.0
  0
SEQEND
  5
1D40
  8
0
  0
POLYLINE
  5
1C35
  8
0
 66
     1
 10
0.0
 20
0.0
 30
0.0
 70
   128
  0
VERTEX
  5
1D41
  8
0
 10
42.3321349995228502
 20
51.6346179401847323
 30
0.0
  0
VERTEX
  5
1D42
  8
0
 10
42.691707894814563
 20
51.344587364249783
 30
0.0
  0
VERTEX
  5
1D43
  8
0
 10
42.9590784176108684
 20
50.9077809655550482
 30
0.0
  0
SEQEND
  5
1D44
  8
0
  0
POLYLINE
  5
1C36
  8
0
 66
     1
 10
0.0
 20
0.0
 30
0.0
 70
   128
  0
VERTEX
  5
1D45
  8
0
 10
42.3321349995228715
 20
47.6549795311357229
 30
0.0
  0
VERTEX
  5
1D46
  8
0
 10
42.6042253633512402
 20
47.4140543917415584
 30
0.0
  0
VERTEX
  5
1D47
  8
0
 10
42.824696169076752
 20
47.1108110698490279
 30
0.0
  0
SEQEND
  5
1D48
  8
0
  0
POLYLINE
  5
1C37
  8
0
 66
     1
 10
0.0
 20
0.0
 30
0.0
 70
   128
  0
VERTEX
  5
1D49
  8
0
 10
43.2321349995229127
 20
45.943147964556708
 30
0.0
  0
VERTEX
  5
1D4A
  8
0
 10
43.1143232231165712
 20
46.4895237089331204
 30
0.0
  0
VERTEX
  5
1D4B
  8
0
 10
42.8246961690767307
 20
47.1108110698489781
 30
0.0
  0
SEQEND
  5
1D4C
  8
0
  0
LINE
  5
1C38
  8
0
 10
41.8436363347011877
 20
51.7768472379608511
 30
0.0
 11
42.3321349995228502
 21
51.6346179401847323
 31
0.0
  0
ARC
  5
1C39
  8
0
 10
40.6027096919507571
 20
45.6112182672110293
 30
0.0
 40
2.5741676088955172
 50
61.1793748889119016
 51
86.3207845477404447
  0
ARC
  5
1C3A
  8
0
 10
40.3985729214031366
 20
48.8197428737749988
 30
0.0
 40
3.2913028558825421
 50
63.9563895582330204
 51
84.183285865513767
  0
ARC
  5
1C3B
  8
0
 10
39.8462154578980119
 20
42.5844843077563766
 30
0.0
 40
5.6470981731988772
 50
63.8826011337615896
 51
69.2857502661844791
  0
POLYLINE
  5
1C3C
  8
0
 66
     1
 10
0.0
 20
0.0
 30
0.0
 70
   128
  0
VERTEX
  5
1D4D
  8
0
 10
43.2321349995230833
 20
45.9003602090550729
 30
0.0
  0
VERTEX
  5
1D4E
  8
0
 10
43.0554476062281424
 20
45.9695827540395996
 30
0.0
  0
VERTEX
  5
1D4F
  8
0
 10
42.8321349995228786
 20
46.0658325966928714
 30
0.0
  0
SEQEND
  5
1D50
  8
0
  0
ARC
  5
1C3D
  8
0
 10
43.6077626772132234
 20
49.1822300758772712
 30
0.0
 40
3.2114687516253522
 50
216.6775967908328084
 51
256.0238456382555796
  0
ARC
  5
1C3E
  8
0
 10
42.6192183109341727
 20
48.5096104834175819
 30
0.0
 40
2.0175287880416501
 50
200.7162190883288986
 51
218.1267209787075103
  0
LINE
  5
1C3F
  8
0
 10
40.7321349995228772
 20
47.7959305927313878
 30
0.0
 11
40.7321349995228772
 21
48.1378750435005713
 31
0.0
  0
LINE
  5
1C40
  8
0
 10
40.7321349995228488
 20
48.1378750435005074
 30
0.0
 11
40.7678948031417008
 21
48.1800804195515866
 31
0.0
  0
LINE
  5
1C41
  8
0
 10
40.7321349995229127
 20
52.1077809655552286
 30
0.0
 11
40.7321349995228772
 21
48.1378750435005074
 31
0.0
  0
LINE
  5
1C42
  8
0
 10
52.232134999522863
 20
42.5077809655550709
 30
0.0
 11
52.232134999522863
 21
42.1670522889866675
 31
0.0
  0
LINE
  5
1C43
  8
0
 10
47.2321349995228772
 20
42.1670522889866675
 30
0.0
 11
47.2321349995228772
 21
42.5077809655550709
 31
0.0
  0
LINE
  5
1C44
  8
0
 10
94.1135233109364151
 20
84.9199312354946869
 30
0.0
 11
94.1135233109364151
 21
79.5199312354946528
 31
0.0
  0
LINE
  5
1C45
  8
0
 10
102.1135233109364009
 20
79.5199312354946528
 30
0.0
 11
102.1135233109364009
 21
84.9199312354946869
 31
0.0
  0
LINE
  5
1C46
  8
0
 10
91.3635233109364719
 20
88.7199312354946983
 30
0.0
 11
91.3635233109364719
 21
84.9199312354946869
 31
0.0
  0
LINE
  5
1C47
  8
0
 10
91.3635233109364719
 20
79.5199312354946528
 30
0.0
 11
91.3635233109364719
 21
75.7199312354946983
 31
0.0
  0
LINE
  5
1C48
  8
0
 10
150.413523310936398
 20
81.2424565646480232
 30
0.0
 11
150.413523310936398
 21
83.1976898826679161
 31
0.0
  0
ARC
  5
1C49
  8
0
 10
98.1016206472410488
 20
81.9235214343138978
 30
0.0
 40
6.6125740574941316
 50
249.743254680028798
 51
290.256745319972481
  0
ARC
  5
1C4A
  8
0
 10
98.1254259746316677
 20
82.5163410366755556
 30
0.0
 40
6.6125740574940313
 50
69.7432546800274906
 51
110.2567453199724952
  0
ARC
  5
1C4B
  8
0
 10
98.1135233109364151
 20
82.2199312354946983
 30
0.0
 40
6.9000000000000004
 50
156.8863048543252887
 51
203.044149308394708
  0
ARC
  5
1C4C
  8
0
 10
98.1135233109364151
 20
82.2199312354946983
 30
0.0
 40
6.100000000003531
 50
153.6368306549227043
 51
206.4072571701539118
  0
ARC
  5
1C4D
  8
0
 10
98.1135233109364151
 20
82.2199312354946983
 30
0.0
 40
6.100000000003555
 50
333.6368306549326803
 51
26.4072571701575285
  0
ARC
  5
1C4E
  8
0
 10
141.0756568849872963
 20
80.9276282230367201
 30
0.0
 40
10.0018921459766492
 50
59.7554811394173484
 51
87.4908828819419853
  0
ARC
  5
1C4F
  8
0
 10
141.0762064023209916
 20
83.5103643553068764
 30
0.0
 40
10.0000000000000195
 50
272.5064406622453816
 51
300.2471953163997114
  0
POLYLINE
  5
1C50
  8
0
 66
     1
 10
0.0
 20
0.0
 30
0.0
 70
   128
  0
VERTEX
  5
1D51
  8
0
 10
141.513523310936705
 20
73.5199312354947665
 30
0.0
  0
VERTEX
  5
1D52
  8
0
 10
139.7139074177692919
 20
73.3279689327141568
 30
0.0
  0
VERTEX
  5
1D53
  8
0
 10
137.9135233109356022
 20
73.2199312354946983
 30
0.0
  0
SEQEND
  5
1D54
  8
0
  0
LINE
  5
1C51
  8
0
 10
137.9135233109356022
 20
73.2199312354946983
 30
0.0
 11
133.7146380683284974
 21
73.2199312354946983
 31
0.0
  0
LINE
  5
1C52
  8
0
 10
132.9439952813280001
 20
73.247304122423941
 30
0.0
 11
133.7146380683284974
 21
73.2199312354946983
 31
0.0
  0
ARC
  5
1C53
  8
0
 10
132.2207367763867012
 20
100.2376152939364999
 30
0.0
 40
27.0000000000010196
 50
253.6354028237888087
 51
271.5349858279067803
  0
ARC
  5
1C54
  8
0
 10
132.2207367763863033
 20
64.2022471770545167
 30
0.0
 40
26.9999999999991793
 50
88.4650141720915713
 51
106.3645971762112055
  0
LINE
  5
1C55
  8
0
 10
132.9439952813280001
 20
91.1925583485654556
 30
0.0
 11
133.7146380683279858
 21
91.2199312354946983
 31
0.0
  0
LINE
  5
1C56
  8
0
 10
137.913523310936796
 20
91.2199312354946272
 30
0.0
 11
133.7146380683279858
 21
91.2199312354946272
 31
0.0
  0
ARC
  5
1C57
  8
0
 10
136.478224998201398
 20
52.2463514826697519
 30
0.0
 40
38.9999999999531468
 50
82.5818220252943149
 51
87.8908945932533641
  0
POLYLINE
  5
1C58
  8
0
 66
     1
 10
0.0
 20
0.0
 30
0.0
 70
   128
  0
VERTEX
  5
1D55
  8
0
 10
119.8135233109363043
 20
75.4468746535827108
 30
0.0
  0
VERTEX
  5
1D56
  8
0
 10
121.4643828625972048
 20
75.1795041307863556
 30
0.0
  0
VERTEX
  5
1D57
  8
0
 10
123.1135233109365998
 20
74.8199312354946642
 30
0.0
  0
SEQEND
  5
1D58
  8
0
  0
POLYLINE
  5
1C59
  8
0
 66
     1
 10
0.0
 20
0.0
 30
0.0
 70
   128
  0
VERTEX
  5
1D59
  8
0
 10
123.1135233109365004
 20
89.6199312354946755
 30
0.0
  0
VERTEX
  5
1D5A
  8
0
 10
121.4643828625972048
 20
89.2603583402029557
 30
0.0
  0
VERTEX
  5
1D5B
  8
0
 10
119.8135233109363043
 20
88.9929878174066857
 30
0.0
  0
SEQEND
  5
1D5C
  8
0
  0
LINE
  5
1C5A
  8
0
 10
124.6135233109363014
 20
90.1084299003163665
 30
0.0
 11
123.1135233109365004
 21
89.6199312354946755
 31
0.0
  0
LINE
  5
1C5B
  8
0
 10
123.1135233109365998
 20
74.8199312354946642
 30
0.0
 11
124.6135233109363014
 21
74.3314325706730301
 31
0.0
  0
ARC
  5
1C5C
  8
0
 10
104.1102567561557066
 20
79.7231977902754352
 30
0.0
 40
0.2032928003461626
 50
270.9206811890917947
 51
359.0793188109179823
  0
LINE
  5
1C5D
  8
0
 10
104.3135233109364037
 20
79.7199312354946983
 30
0.0
 11
104.3135233109364037
 21
84.7199312354946983
 31
0.0
  0
ARC
  5
1C5E
  8
0
 10
104.1116977351085069
 20
84.7181056596667759
 30
0.0
 40
0.2018338321128823
 50
0.518244217462684
 51
89.4817557825470971
  0
LINE
  5
1C5F
  8
0
 10
91.3635233109364719
 20
79.5199312354946528
 30
0.0
 11
104.1135233109365004
 21
79.5199312354946528
 31
0.0
  0
LINE
  5
1C60
  8
0
 10
104.1135233109364009
 20
84.9199312354946869
 30
0.0
 11
91.3635233109364151
 21
84.9199312354946869
 31
0.0
  0
POLYLINE
  5
1C61
  8
0
 66
     1
 10
0.0
 20
0.0
 30
0.0
 70
   128
  0
VERTEX
  5
1D5D
  8
0
 10
116.1135233109364009
 20
75.7199312354946983
 30
0.0
  0
VERTEX
  5
1D5E
  8
0
 10
117.9663485351393035
 20
75.638885473968628
 30
0.0
  0
VERTEX
  5
1D5F
  8
0
 10
119.8135233109363043
 20
75.4468746535827108
 30
0.0
  0
SEQEND
  5
1D60
  8
0
  0
POLYLINE
  5
1C62
  8
0
 66
     1
 10
0.0
 20
0.0
 30
0.0
 70
   128
  0
VERTEX
  5
1D61
  8
0
 10
119.8135233109363043
 20
88.9929878174066857
 30
0.0
  0
VERTEX
  5
1D62
  8
0
 10
117.9663485351393035
 20
88.8009769970207543
 30
0.0
  0
VERTEX
  5
1D63
  8
0
 10
116.1135233109364009
 20
88.7199312354946983
 30
0.0
  0
SEQEND
  5
1D64
  8
0
  0
LINE
  5
1C63
  8
0
 10
116.1135233109364009
 20
88.7199312354946983
 30
0.0
 11
91.3635233109364151
 21
88.7199312354946983
 31
0.0
  0
LINE
  5
1C64
  8
0
 10
116.1135233109364009
 20
75.7199312354946983
 30
0.0
 11
91.3635233109364719
 21
75.7199312354946983
 31
0.0
  0
ARC
  5
1C65
  8
0
 10
142.9291729714896917
 20
82.704183232305283
 30
0.0
 40
7.4999999999991802
 50
29.9665219241979415
 51
58.8076111460011575
  0
ARC
  5
1C66
  8
0
 10
142.9291729714894927
 20
81.7356792386842699
 30
0.0
 40
7.4999999999995062
 50
301.192388854000626
 51
330.0334780758021225
  0
LINE
  5
1C67
  8
0
 10
146.8135233109364037
 20
75.319931235494721
 30
0.0
 11
146.1135233109393141
 21
74.8717627113977642
 31
0.0
  0
LINE
  5
1C68
  8
0
 10
146.8135233109364037
 20
89.1199312354946755
 30
0.0
 11
146.1135233109393141
 21
89.5680997595915755
 31
0.0
  0
POLYLINE
  5
1C69
  8
0
 66
     1
 10
0.0
 20
0.0
 30
0.0
 70
   128
  0
VERTEX
  5
1D65
  8
0
 10
150.4129374395776892
 20
81.2424565646480232
 30
0.0
  0
VERTEX
  5
1D66
  8
0
 10
150.412956624658193
 20
81.2427469587938731
 30
0.0
  0
VERTEX
  5
1D67
  8
0
 10
150.4125863093860005
 20
81.2371566071155371
 30
0.0
  0
VERTEX
  5
1D68
  8
0
 10
150.4116407370235038
 20
81.2231598363798071
 30
0.0
  0
VERTEX
  5
1D69
  8
0
 10
150.4081604384774948
 20
81.1746565398301669
 30
0.0
  0
VERTEX
  5
1D6A
  8
0
 10
150.3946832654413868
 20
81.0172392266504744
 30
0.0
  0
VERTEX
  5
1D6B
  8
0
 10
150.3802370858576865
 20
80.8803175820922888
 30
0.0
  0
VERTEX
  5
1D6C
  8
0
 10
150.3634285198947111
 20
80.7447985995559634
 30
0.0
  0
VERTEX
  5
1D6D
  8
0
 10
150.3448850432814083
 20
80.6144234836162354
 30
0.0
  0
VERTEX
  5
1D6E
  8
0
 10
150.3073364349642986
 20
80.3893123101543665
 30
0.0
  0
VERTEX
  5
1D6F
  8
0
 10
150.2610015307787137
 20
80.1563471085785153
 30
0.0
  0
VERTEX
  5
1D70
  8
0
 10
150.0374754137505136
 20
79.3436013993700158
 30
0.0
  0
VERTEX
  5
1D71
  8
0
 10
149.7519362199894886
 20
78.6212127265974345
 30
0.0
  0
VERTEX
  5
1D72
  8
0
 10
149.426553525924902
 20
77.9894750356492068
 30
0.0
  0
SEQEND
  5
1D73
  8
0
  0
POLYLINE
  5
1C6A
  8
0
 66
     1
 10
0.0
 20
0.0
 30
0.0
 70
   128
  0
VERTEX
  5
1D74
  8
0
 10
149.426553525924902
 20
86.4503874353401329
 30
0.0
  0
VERTEX
  5
1D75
  8
0
 10
149.673304083994708
 20
85.9854475522482744
 30
0.0
  0
VERTEX
  5
1D76
  8
0
 10
149.9006529965892867
 20
85.4697692930936341
 30
0.0
  0
VERTEX
  5
1D77
  8
0
 10
150.0996421581619131
 20
84.9029036881553907
 30
0.0
  0
VERTEX
  5
1D78
  8
0
 10
150.2605626116389885
 20
84.2855516094712129
 30
0.0
  0
VERTEX
  5
1D79
  8
0
 10
150.2986616501287074
 20
84.0972505728889246
 30
0.0
  0
VERTEX
  5
1D7A
  8
0
 10
150.33102727889991
 20
83.9135437293707582
 30
0.0
  0
VERTEX
  5
1D7B
  8
0
 10
150.358049469776887
 20
83.734617108488905
 30
0.0
  0
VERTEX
  5
1D7C
  8
0
 10
150.3776416887706944
 20
83.5818584385614827
 30
0.0
  0
VERTEX
  5
1D7D
  8
0
 10
150.390586801078399
 20
83.4639882491436538
 30
0.0
  0
VERTEX
  5
1D7E
  8
0
 10
150.4034365615837885
 20
83.3249761009697067
 30
0.0
  0
VERTEX
  5
1D7F
  8
0
 10
150.4079991782039087
 20
83.2673515639397692
 30
0.0
  0
VERTEX
  5
1D80
  8
0
 10
150.4115170260795935
 20
83.2185055521924255
 30
0.0
  0
VERTEX
  5
1D81
  8
0
 10
150.4125137867532089
 20
83.2037933228773454
 30
0.0
  0
VERTEX
  5
1D82
  8
0
 10
150.4129409536795094
 20
83.1973533740828657
 30
0.0
  0
VERTEX
  5
1D83
  8
0
 10
150.4129187291391929
 20
83.1976898826679161
 30
0.0
  0
SEQEND
  5
1D84
  8
0
  0
LINE
  5
1C6D
  8
1
 10
98.1135233109364151
 20
93.9146033261447428
 30
0.0
 11
98.1135233109364151
 21
70.5252591448447106
 31
0.0
  0
LINE
  5
1C6E
  8
1
 10
86.4188512202863848
 20
82.2199312354946983
 30
0.0
 11
154.413523310936398
 21
82.2199312354946983
 31
0.0
  0
LINE
  5
1C6F
  8
1
 10
87.3635233109364151
 20
45.5077809655550567
 30
0.0
 11
108.8635233109364009
 21
45.5077809655550567
 31
0.0
  0
LINE
  5
1C70
  8
1
 10
98.1135233109364151
 20
56.2577809655550709
 30
0.0
 11
98.1135233109364151
 21
31.3077809655550787
 31
0.0
  0
LINE
  5
1C71
  8
1
 10
87.3635233109364151
 20
46.5077809655550709
 30
0.0
 11
108.8635233109364009
 21
46.5077809655550709
 31
0.0
  0
ARC
  5
1C72
  8
0
 10
49.7329582426891079
 20
36.8367882008245431
 30
0.0
 40
6.0132521978863593
 50
70.5817338961806229
 51
109.424166260786194
  0
LINE
  5
1C73
  8
0
 10
56.2321349995226782
 20
52.1077809655552073
 30
0.0
 11
58.7321349995228488
 21
52.1077809655552073
 31
0.0
  0
POLYLINE
  5
1C74
  8
0
 66
     1
 10
0.0
 20
0.0
 30
0.0
 70
   128
  0
VERTEX
  5
1D85
  8
0
 10
56.5051915814348504
 20
50.9077809655550979
 30
0.0
  0
VERTEX
  5
1D86
  8
0
 10
56.3131807610488906
 20
50.4232893168113492
 30
0.0
  0
VERTEX
  5
1D87
  8
0
 10
56.232134999522799
 20
50.0434515799424773
 30
0.0
  0
SEQEND
  5
1D88
  8
0
  0
POLYLINE
  5
1C75
  8
0
 66
     1
 10
0.0
 20
0.0
 30
0.0
 70
   128
  0
VERTEX
  5
1D89
  8
0
 10
57.1321349995228616
 20
51.6346179401847323
 30
0.0
  0
VERTEX
  5
1D8A
  8
0
 10
56.772562104231163
 20
51.344587364249783
 30
0.0
  0
VERTEX
  5
1D8B
  8
0
 10
56.5051915814348504
 20
50.9077809655550482
 30
0.0
  0
SEQEND
  5
1D8C
  8
0
  0
POLYLINE
  5
1C76
  8
0
 66
     1
 10
0.0
 20
0.0
 30
0.0
 70
   128
  0
VERTEX
  5
1D8D
  8
0
 10
57.1321349995228331
 20
47.6549795311357229
 30
0.0
  0
VERTEX
  5
1D8E
  8
0
 10
56.8600446356944573
 20
47.4140543917415584
 30
0.0
  0
VERTEX
  5
1D8F
  8
0
 10
56.6395738299689526
 20
47.1108110698490279
 30
0.0
  0
SEQEND
  5
1D90
  8
0
  0
POLYLINE
  5
1C77
  8
0
 66
     1
 10
0.0
 20
0.0
 30
0.0
 70
   128
  0
VERTEX
  5
1D91
  8
0
 10
56.232134999522799
 20
45.943147964556708
 30
0.0
  0
VERTEX
  5
1D92
  8
0
 10
56.3499467759291406
 20
46.4895237089331204
 30
0.0
  0
VERTEX
  5
1D93
  8
0
 10
56.639573829968981
 20
47.1108110698489781
 30
0.0
  0
SEQEND
  5
1D94
  8
0
  0
LINE
  5
1C78
  8
0
 10
57.6206336643445169
 20
51.7768472379608511
 30
0.0
 11
57.1321349995228616
 21
51.6346179401847323
 31
0.0
  0
ARC
  5
1C79
  8
0
 10
58.8615603070949476
 20
45.6112182672110293
 30
0.0
 40
2.5741676088955172
 50
93.6792154522595553
 51
118.8206251110881055
  0
ARC
  5
1C7A
  8
0
 10
59.065697077642568
 20
48.8197428737749988
 30
0.0
 40
3.2913028558825421
 50
95.8167141344878388
 51
116.0436104417669014
  0
ARC
  5
1C7B
  8
0
 10
59.6180545411476999
 20
42.5844843077563766
 30
0.0
 40
5.6470981731988772
 50
110.7142497338139009
 51
116.1173988662371954
  0
POLYLINE
  5
1C7C
  8
0
 66
     1
 10
0.0
 20
0.0
 30
0.0
 70
   128
  0
VERTEX
  5
1D95
  8
0
 10
56.2321349995226285
 20
45.9003602090550729
 30
0.0
  0
VERTEX
  5
1D96
  8
0
 10
56.4088223928175694
 20
45.9695827540395996
 30
0.0
  0
VERTEX
  5
1D97
  8
0
 10
56.6321349995228331
 20
46.0658325966928714
 30
0.0
  0
SEQEND
  5
1D98
  8
0
  0
ARC
  5
1C7D
  8
0
 10
55.8565073218324812
 20
49.1822300758772712
 30
0.0
 40
3.2114687516253522
 50
283.9761543617457846
 51
323.322403209165202
  0
ARC
  5
1C7E
  8
0
 10
56.8450516881115391
 20
48.5096104834175819
 30
0.0
 40
2.0175287880416501
 50
321.8732790212944224
 51
339.2837809116711014
  0
LINE
  5
1C7F
  8
0
 10
58.7321349995228204
 20
47.7959305927313878
 30
0.0
 11
58.7321349995228204
 21
48.1378750435005713
 31
0.0
  0
LINE
  5
1C80
  8
0
 10
58.7321349995228488
 20
48.1378750435005074
 30
0.0
 11
58.696375195904011
 21
48.1800804195515866
 31
0.0
  0
LINE
  5
1C81
  8
0
 10
58.732134999522799
 20
52.1077809655552286
 30
0.0
 11
58.7321349995228204
 21
48.1378750435005074
 31
0.0
  0
LINE
  5
1C86
  8
1
 10
62.7321349995228275
 20
46.5077809655550709
 30
0.0
 11
36.7321349995228275
 21
46.5077809655550993
 31
0.0
  0
LINE
  5
1C87
  8
1
 10
49.732134999522863
 20
31.3077809655550787
 30
0.0
 11
49.732134999522863
 21
56.2577809655550993
 31
0.0
  0
CIRCLE
  5
1C88
  8
0
 10
98.1135233109364151
 20
82.2199312354947267
 30
0.0
 40
2.0669999999999988
  0
CIRCLE
  5
1C89
  8
3
 10
98.1135233109364151
 20
82.2199312354947267
 30
0.0
 40
2.5
  0
ENDSEC
  0
EOF
