  0
SECTION
  2
HEADER
  9
$ACADVER
  1
AC1009
  9
$INSBASE
 10
0.0
 20
0.0
 30
0.0
  9
$EXTMIN
 10
0.0
 20
-2.960436562073669
 30
0.0
  9
$EXTMAX
 10
172.9773084155933134
 20
143.6446720906500047
 30
0.0
  9
$LIMMIN
 10
0.0
 20
0.0
  9
$LIMMAX
 10
375.0
 20
270.0
  9
$ORTHOMODE
 70
     0
  9
$REGENMODE
 70
     1
  9
$FILLMODE
 70
     1
  9
$QTEXTMODE
 70
     0
  9
$MIRRTEXT
 70
     0
  9
$DRAGMODE
 70
     2
  9
$LTSCALE
 40
5.0
  9
$OSMODE
 70
    37
  9
$ATTMODE
 70
     1
  9
$TEXTSIZE
 40
0.2
  9
$TRACEWID
 40
0.05
  9
$TEXTSTYLE
  7
STANDARD
  9
$CLAYER
  8
0
  9
$CELTYPE
  6
BYLAYER
  9
$CECOLOR
 62
   256
  9
$DIMSCALE
 40
1.0
  9
$DIMASZ
 40
3.0
  9
$DIMEXO
 40
2.0
  9
$DIMDLI
 40
10.0
  9
$DIMRND
 40
0.0
  9
$DIMDLE
 40
0.0
  9
$DIMEXE
 40
2.0
  9
$DIMTP
 40
0.0
  9
$DIMTM
 40
0.0
  9
$DIMTXT
 40
3.2000000000000002
  9
$DIMCEN
 40
0.09
  9
$DIMTSZ
 40
0.0
  9
$DIMTOL
 70
     0
  9
$DIMLIM
 70
     0
  9
$DIMTIH
 70
     0
  9
$DIMTOH
 70
     0
  9
$DIMSE1
 70
     0
  9
$DIMSE2
 70
     0
  9
$DIMTAD
 70
     1
  9
$DIMZIN
 70
     8
  9
$DIMBLK
  1

  9
$DIMASO
 70
     0
  9
$DIMSHO
 70
     0
  9
$DIMPOST
  1

  9
$DIMAPOST
  1

  9
$DIMALT
 70
     0
  9
$DIMALTD
 70
     2
  9
$DIMALTF
 40
25.3999999999999986
  9
$DIMLFAC
 40
1.0
  9
$DIMTOFL
 70
     1
  9
$DIMTVP
 40
1.6000000000000001
  9
$DIMTIX
 70
     0
  9
$DIMSOXD
 70
     0
  9
$DIMSAH
 70
     0
  9
$DIMBLK1
  1

  9
$DIMBLK2
  1

  9
$DIMSTYLE
  2
STANDARD
  9
$DIMCLRD
 70
     0
  9
$DIMCLRE
 70
     0
  9
$DIMCLRT
 70
     0
  9
$DIMTFAC
 40
1.0
  9
$DIMGAP
 40
0.09
  9
$LUNITS
 70
     2
  9
$LUPREC
 70
     1
  9
$SKETCHINC
 40
0.1
  9
$FILLETRAD
 40
0.0
  9
$AUNITS
 70
     0
  9
$AUPREC
 70
     0
  9
$MENU
  1
E:\r13\win\SUPPORT\ACAD
  9
$ELEVATION
 40
0.0
  9
$PELEVATION
 40
0.0
  9
$THICKNESS
 40
0.0
  9
$LIMCHECK
 70
     0
  9
$BLIPMODE
 70
     0
  9
$CHAMFERA
 40
0.0
  9
$CHAMFERB
 40
0.0
  9
$SKPOLY
 70
     0
  9
$TDCREATE
 40
2449840.6171180559322238
  9
$TDUPDATE
 40
2460566.5208912040106952
  9
$TDINDWG
 40
0.2060521528
  9
$TDUSRTIMER
 40
0.2060521528
  9
$USRTIMER
 70
     1
  9
$ANGBASE
 50
0.0
  9
$ANGDIR
 70
     0
  9
$PDMODE
 70
     0
  9
$PDSIZE
 40
0.0
  9
$PLINEWID
 40
0.0
  9
$COORDS
 70
     1
  9
$SPLFRAME
 70
     0
  9
$SPLINETYPE
 70
     6
  9
$SPLINESEGS
 70
     8
  9
$ATTDIA
 70
     1
  9
$ATTREQ
 70
     1
  9
$HANDLING
 70
     1
  9
$HANDSEED
  5
3061
  9
$SURFTAB1
 70
     6
  9
$SURFTAB2
 70
     6
  9
$SURFTYPE
 70
     6
  9
$SURFU
 70
     6
  9
$SURFV
 70
     6
  9
$UCSNAME
  2

  9
$UCSORG
 10
0.0
 20
0.0
 30
0.0
  9
$UCSXDIR
 10
1.0
 20
0.0
 30
0.0
  9
$UCSYDIR
 10
0.0
 20
1.0
 30
0.0
  9
$PUCSNAME
  2

  9
$PUCSORG
 10
0.0
 20
0.0
 30
0.0
  9
$PUCSXDIR
 10
1.0
 20
0.0
 30
0.0
  9
$PUCSYDIR
 10
0.0
 20
1.0
 30
0.0
  9
$USERI1
 70
     0
  9
$USERI2
 70
     1
  9
$USERI3
 70
     0
  9
$USERI4
 70
     0
  9
$USERI5
 70
     0
  9
$USERR1
 40
0.0
  9
$USERR2
 40
0.0
  9
$USERR3
 40
0.0
  9
$USERR4
 40
0.0
  9
$USERR5
 40
0.0
  9
$WORLDVIEW
 70
     1
  9
$SHADEDGE
 70
     3
  9
$SHADEDIF
 70
    70
  9
$TILEMODE
 70
     1
  9
$MAXACTVP
 70
    16
  9
$PLIMCHECK
 70
     0
  9
$PEXTMIN
 10
1.0000000000000000E+20
 20
1.0000000000000000E+20
 30
1.0000000000000000E+20
  9
$PEXTMAX
 10
-1.0000000000000000E+20
 20
-1.0000000000000000E+20
 30
-1.0000000000000000E+20
  9
$PLIMMIN
 10
0.0
 20
0.0
  9
$PLIMMAX
 10
12.0
 20
9.0
  9
$UNITMODE
 70
     0
  9
$VISRETAIN
 70
     0
  9
$PLINEGEN
 70
     0
  9
$PSLTSCALE
 70
     0
  0
ENDSEC
  0
SECTION
  2
TABLES
  0
TABLE
  2
VPORT
 70
     1
  0
VPORT
  2
*ACTIVE
 70
     0
 10
0.0
 20
0.0
 11
1.0
 21
1.0
 12
109.5537878584544984
 22
70.3464512635716375
 13
0.0
 23
0.0
 14
10.0
 24
10.0
 15
10.0
 25
10.0
 16
0.0
 26
0.0
 36
1.0
 17
0.0
 27
0.0
 37
0.0
 40
147.8177255312571106
 41
2.3485221674876842
 42
50.0
 43
0.0
 44
0.0
 50
0.0
 51
0.0
 71
     0
 72
   100
 73
     1
 74
     0
 75
     0
 76
     0
 77
     0
 78
     0
  0
ENDTAB
  0
TABLE
  2
LTYPE
 70
     4
  0
LTYPE
  2
CONTINUOUS
 70
     0
  3
Solid Line
 72
    65
 73
     0
 40
0.0
  0
LTYPE
  2
CENTER
 70
     0
  3
____ _ ____ _ ____ _ ____ _ ____ _ ____ _ ____
 72
    65
 73
     4
 40
2.0
 49
1.25
 49
-0.25
 49
0.25
 49
-0.25
  0
LTYPE
  2
PHANTOM2
 70
     0
  3
___ _ _ ___ _ _ ___ _ _ ___ _ _
 72
    65
 73
     6
 40
1.25
 49
0.625
 49
-0.125
 49
0.125
 49
-0.125
 49
0.125
 49
-0.125
  0
LTYPE
  2
HIDDEN
 70
     0
  3
Hidden __ __ __ __ __ __ __ __ __ __ __ __ __ _
 72
    65
 73
     2
 40
0.375
 49
0.25
 49
-0.125
  0
ENDTAB
  0
TABLE
  2
LAYER
 70
     5
  0
LAYER
  2
0
 70
     0
 62
     7
  6
CONTINUOUS
  0
LAYER
  2
1
 70
     0
 62
     1
  6
CENTER
  0
LAYER
  2
3
 70
     0
 62
     3
  6
CONTINUOUS
  0
LAYER
  2
DEFPOINTS
 70
     0
 62
     7
  6
CONTINUOUS
  0
LAYER
  2
2
 70
     0
 62
     2
  6
HIDDEN
  0
ENDTAB
  0
TABLE
  2
STYLE
 70
     2
  0
STYLE
  2
STANDARD
 70
     0
 40
0.0
 41
1.0
 50
0.0
 71
     0
 42
0.2
  3
TXT
  4
BIGFONT
  0
STYLE
  2
STANDARD1
 70
     0
 40
0.0
 41
1.0
 50
0.0
 71
     0
 42
3.0
  3
txt
  4

  0
ENDTAB
  0
TABLE
  2
VIEW
 70
     1
  0
VIEW
  2
ALL
 70
     0
 40
270.0
 10
220.9915970000000129
 20
135.0
 41
0.0
 11
0.0
 21
0.0
 31
1.0
 12
0.0
 22
0.0
 32
0.0
 42
0.0
 43
0.0
 44
0.0
 50
0.0
 71
     0
  0
ENDTAB
  0
TABLE
  2
UCS
 70
     0
  0
ENDTAB
  0
TABLE
  2
APPID
 70
     6
  0
APPID
  2
ACAD
 70
     0
  0
APPID
  2
ACAD_EXEMPT_FROM_CAD_STANDARDS
 70
     0
  0
APPID
  2
ACAD_MLEADERVER
 70
     0
  0
APPID
  2
ACAD_NAV_VCDISPLAY
 70
     0
  0
APPID
  2
ACAD_DSTYLE_DIMJAG
 70
     0
  0
APPID
  2
ACAD_DSTYLE_DIMTALN
 70
     0
  0
ENDTAB
  0
TABLE
  2
DIMSTYLE
 70
     1
  0
DIMSTYLE
  2
STANDARD
 70
     0
  3

  4

  5

  6

  7

 40
1.0
 41
0.18
 42
0.0625
 43
0.38
 44
0.18
 45
0.0
 46
0.0
 47
0.0
 48
0.0
140
0.18
141
0.09
142
0.0
143
25.3999999999999986
144
1.0
145
0.0
146
1.0
147
0.09
 71
     0
 72
     0
 73
     1
 74
     1
 75
     0
 76
     0
 77
     0
 78
     0
170
     0
171
     2
172
     0
173
     0
174
     0
175
     0
176
     0
177
     0
178
     0
  0
ENDTAB
  0
ENDSEC
  0
SECTION
  2
BLOCKS
  0
BLOCK
  8
0
  2
$MODEL_SPACE
 70
     0
 10
0.0
 20
0.0
 30
0.0
  3
$MODEL_SPACE
  1

  0
ENDBLK
  5
E8
  8
0
  0
BLOCK
 67
     1
  8
0
  2
$PAPER_SPACE
 70
     0
 10
0.0
 20
0.0
 30
0.0
  3
$PAPER_SPACE
  1

  0
ENDBLK
  5
E6
 67
     1
  8
0
  0
ENDSEC
  0
SECTION
  2
ENTITIES
  0
TEXT
  5
E87
  8
0
 62
     3
 10
0.0
 20
0.0
 30
0.0
 40
10.0
  1
KCL04X15
  7
STANDARD1
  0
LINE
  5
2297
  8
0
 10
56.9999999999999787
 20
80.1999999999693074
 30
0.0
 11
56.2999999999999901
 21
80.1999999999693074
 31
0.0
  0
LINE
  5
2298
  8
0
 10
61.7000000000000171
 20
80.1999999999693074
 30
0.0
 11
60.9999989440369532
 21
80.1999999999693074
 31
0.0
  0
LINE
  5
2299
  8
0
 10
61.0000000000000426
 20
72.1999999999693074
 30
0.0
 11
61.7000000000000171
 21
72.1999999999693074
 31
0.0
  0
LINE
  5
229A
  8
0
 10
56.2999999999999901
 20
72.1999999999693074
 30
0.0
 11
56.999520156434329
 21
72.1999999999693074
 31
0.0
  0
ARC
  5
22A5
  8
0
 10
58.9999994720184588
 20
85.8685328823118681
 30
0.0
 40
6.0110118055343422
 50
250.5658902548969991
 51
289.4341204184534035
  0
LINE
  5
22F6
  8
1
 10
116.6773084155934015
 20
86.1499999999999346
 30
0.0
 11
116.6773084155934015
 21
46.0
 31
0.0
  0
LINE
  5
22F9
  8
1
 10
59.0000000000000497
 20
46.0
 30
0.0
 11
59.0000000000000284
 21
86.1500000000000057
 31
0.0
  0
ARC
  5
22FA
  8
0
 10
58.9997600782171787
 20
66.5300660813581146
 30
0.0
 40
6.0124130252429833
 50
70.5681716972131454
 51
109.4318283027868972
  0
LINE
  5
2959
  8
0
 10
116.2773084155933958
 20
133.9095917942264862
 30
0.0
 11
116.2773084155933958
 21
129.9904082057734058
 31
0.0
  0
LINE
  5
295A
  8
0
 10
117.077308415593393
 20
133.9095917942264862
 30
0.0
 11
117.077308415593393
 21
129.9904082057734058
 31
0.0
  0
LINE
  5
2A3A
  8
0
 10
118.2478084155933971
 20
50.0
 30
0.0
 11
118.6773084155934015
 21
50.4295000000000186
 31
0.0
  0
LINE
  5
2A3B
  8
0
 10
114.6773084155934015
 20
50.4295000000000186
 30
0.0
 11
115.1068084155934059
 21
50.0
 31
0.0
  0
LINE
  5
2A3C
  8
0
 10
118.2478084155933971
 20
50.0
 30
0.0
 11
115.1068084155934059
 21
50.0
 31
0.0
  0
LINE
  5
2A3D
  8
0
 10
114.6773084155934015
 20
65.0
 30
0.0
 11
114.6773084155934015
 21
50.4295000000000186
 31
0.0
  0
LINE
  5
2A3E
  8
0
 10
118.6773084155934015
 20
50.4295000000000186
 30
0.0
 11
118.6773084155934015
 21
65.0
 31
0.0
  0
LINE
  5
2A3F
  8
0
 10
118.6773084155934015
 20
50.4295000000000186
 30
0.0
 11
114.6773084155934015
 21
50.4295000000000186
 31
0.0
  0
LINE
  5
2A40
  8
3
 10
118.2983084155920039
 20
50.0504999999985785
 30
0.0
 11
118.2983084155920039
 21
65.0
 31
0.0
  0
LINE
  5
2A41
  8
3
 10
115.056308415594799
 20
50.05049999999855
 30
0.0
 11
115.056308415594799
 21
65.0
 31
0.0
  0
LINE
  5
2AF2
  8
0
 10
60.5705000000001021
 20
50.0
 30
0.0
 11
61.0000000000000497
 21
50.4295000000000186
 31
0.0
  0
LINE
  5
2AF3
  8
0
 10
57.0000000000000568
 20
50.4295000000000186
 30
0.0
 11
57.4295000000000684
 21
50.0
 31
0.0
  0
LINE
  5
2AF4
  8
0
 10
60.5705000000001021
 20
50.0
 30
0.0
 11
57.4295000000000684
 21
50.0
 31
0.0
  0
LINE
  5
2AF5
  8
0
 10
57.0000000000000568
 20
65.0
 30
0.0
 11
57.0000000000000568
 21
50.4295000000000186
 31
0.0
  0
LINE
  5
2AF6
  8
0
 10
61.0000000000000497
 20
50.4295000000000186
 30
0.0
 11
61.0000000000000497
 21
65.0
 31
0.0
  0
LINE
  5
2AF7
  8
0
 10
61.0000000000000497
 20
50.4295000000000186
 30
0.0
 11
57.0000000000000568
 21
50.4295000000000186
 31
0.0
  0
LINE
  5
2AF8
  8
3
 10
60.6209999999986735
 20
50.0504999999985785
 30
0.0
 11
60.6209999999986735
 21
65.0
 31
0.0
  0
LINE
  5
2AF9
  8
3
 10
57.3790000000014899
 20
50.05049999999855
 30
0.0
 11
57.3790000000014899
 21
65.0
 31
0.0
  0
LINE
  5
2D49
  8
0
 10
60.7805260897111808
 20
80.9999999999693046
 30
0.0
 11
57.2194739102887695
 21
80.9999999999692619
 31
0.0
  0
LINE
  5
2D4A
  8
0
 10
57.2194739102887695
 20
80.9999999999692619
 30
0.0
 11
56.9999999999999787
 21
80.7854999999692751
 31
0.0
  0
LINE
  5
2D4B
  8
0
 10
60.9999999999999716
 20
80.7854999999692751
 30
0.0
 11
60.7805260897111808
 21
80.9999999999692619
 31
0.0
  0
LINE
  5
2D50
  8
0
 10
61.0000000000000426
 20
71.4999999999692619
 30
0.0
 11
57.0000000000000284
 21
71.4999999999692619
 31
0.0
  0
LINE
  5
2D51
  8
0
 10
60.9999999999999218
 20
80.7854999999692751
 30
0.0
 11
56.9999999999999787
 21
80.7854999999692751
 31
0.0
  0
LINE
  5
2D52
  8
0
 10
57.0000000000000284
 20
72.1999999999692506
 30
0.0
 11
57.0000000000000284
 21
69.9999999999692477
 31
0.0
  0
LINE
  5
2D53
  8
0
 10
56.9999999999999787
 20
80.7854999999692751
 30
0.0
 11
56.9999999999999787
 21
80.1999999999693074
 31
0.0
  0
LINE
  5
2D54
  8
0
 10
60.9999999999999716
 20
80.2000003725394635
 30
0.0
 11
60.9999999999999716
 21
80.7854999999692751
 31
0.0
  0
LINE
  5
2D55
  8
0
 10
61.0000000000000426
 20
69.9999999999692477
 30
0.0
 11
61.0000000000000426
 21
72.1999999999692506
 31
0.0
  0
LINE
  5
2D56
  8
3
 10
57.3790000000014828
 20
72.316403954763814
 30
0.0
 11
57.3790000000014828
 21
71.4999999999692619
 31
0.0
  0
LINE
  5
2D57
  8
3
 10
57.3790000000014828
 20
80.9999999999692761
 30
0.0
 11
57.3790000000014828
 21
80.0802150232103287
 31
0.0
  0
LINE
  5
2D59
  8
3
 10
60.6209999999986522
 20
72.3162708681787905
 30
0.0
 11
60.6209999999986522
 21
71.4999999999692619
 31
0.0
  0
LINE
  5
2D5A
  8
3
 10
60.6209999999986522
 20
80.9999999999693046
 30
0.0
 11
60.6209999999986522
 21
80.0802153189294756
 31
0.0
  0
LINE
  5
2D87
  8
0
 10
61.0000000000000426
 20
71.8592713234008187
 30
0.0
 11
61.5000000000000284
 21
71.8592713234008187
 31
0.0
  0
LINE
  5
2D88
  8
0
 10
56.4999999970197919
 20
71.8592713234008187
 30
0.0
 11
57.0000000000000284
 21
71.8592713234008187
 31
0.0
  0
POLYLINE
  5
2D89
  8
0
 66
     1
 10
0.0
 20
0.0
 30
0.0
  0
VERTEX
  5
2FC1
  8
0
 10
56.4999999970197919
 20
71.8592713234008187
 30
0.0
  0
VERTEX
  5
2FC2
  8
0
 10
56.4464293658628904
 20
71.8525624200855617
 30
0.0
  0
VERTEX
  5
2FC3
  8
0
 10
56.3993610533364418
 20
71.8342704357215922
 30
0.0
  0
VERTEX
  5
2FC4
  8
0
 10
56.3500439115994993
 20
71.7966794874545258
 30
0.0
  0
VERTEX
  5
2FC5
  8
0
 10
56.3110267264174595
 20
71.7337781066195959
 30
0.0
  0
VERTEX
  5
2FC6
  8
0
 10
56.3000000000000469
 20
71.6711003081624227
 30
0.0
  0
SEQEND
  5
2FC7
  8
0
  0
POLYLINE
  5
2D8A
  8
0
 66
     1
 10
0.0
 20
0.0
 30
0.0
  0
VERTEX
  5
2FC8
  8
0
 10
61.7000000000000171
 20
71.6711003081624227
 30
0.0
  0
VERTEX
  5
2FC9
  8
0
 10
61.6794175052065512
 20
71.755428014508297
 30
0.0
  0
VERTEX
  5
2FCA
  8
0
 10
61.6373363993634769
 20
71.8088390477253284
 30
0.0
  0
VERTEX
  5
2FCB
  8
0
 10
61.5882777865015001
 20
71.8403866809794636
 30
0.0
  0
VERTEX
  5
2FCC
  8
0
 10
61.5382568902798894
 20
71.8558825734874631
 30
0.0
  0
VERTEX
  5
2FCD
  8
0
 10
61.5000000000000284
 20
71.8592713234008187
 30
0.0
  0
SEQEND
  5
2FCE
  8
0
  0
LINE
  5
2EB8
  8
0
 10
109.7773084155329002
 20
65.7999999999999972
 30
0.0
 11
110.5773084155329968
 21
64.9999999999999858
 31
0.0
  0
LINE
  5
2EB9
  8
0
 10
122.7773084156538062
 20
64.9999999999999858
 30
0.0
 11
123.5773084156537038
 21
65.7999999999999972
 31
0.0
  0
LINE
  5
2EBA
  8
0
 10
123.577308415593393
 20
65.7999999999999972
 30
0.0
 11
123.577308415593393
 21
69.2000000000002586
 31
0.0
  0
LINE
  5
2EBB
  8
0
 10
109.7773084155933958
 20
69.2000000000002586
 30
0.0
 11
109.7773084155933958
 21
65.7999999999999972
 31
0.0
  0
LINE
  5
2EBC
  8
0
 10
110.5773084155898971
 20
69.9999999999385949
 30
0.0
 11
109.7773084155947032
 21
69.2000000000002586
 31
0.0
  0
LINE
  5
2EBD
  8
0
 10
123.5773084155920998
 20
69.2000000000002586
 30
0.0
 11
122.7773084155969059
 21
69.9999999999385949
 31
0.0
  0
LINE
  5
2EBE
  8
0
 10
109.7773084155329002
 20
65.7999999999999972
 30
0.0
 11
123.5773084156537038
 21
65.7999999999999972
 31
0.0
  0
LINE
  5
2EBF
  8
0
 10
110.5773084155329968
 20
64.9999999999999858
 30
0.0
 11
122.7773084156538062
 21
64.9999999999999858
 31
0.0
  0
LINE
  5
2EC0
  8
0
 10
123.5773084155926966
 20
69.2000000000002586
 30
0.0
 11
119.3135936808860009
 21
69.1999999999998607
 31
0.0
  0
LINE
  5
2EC1
  8
0
 10
114.041023150301001
 20
69.199999999999747
 30
0.0
 11
109.7773084155934953
 21
69.2000000000000313
 31
0.0
  0
ARC
  5
2EC2
  8
0
 10
116.6773084155934015
 20
75.8999999999997925
 30
0.0
 40
7.1999999999998412
 50
248.521582158920296
 51
291.4784178410831146
  0
LINE
  5
2EC3
  8
0
 10
112.6398838365355033
 20
69.9999999999722746
 30
0.0
 11
110.5773084155898971
 21
69.9999999999385949
 31
0.0
  0
LINE
  5
2EC4
  8
0
 10
114.041023150301001
 20
69.199999999999747
 30
0.0
 11
113.8271586928031951
 21
69.290844604478238
 31
0.0
  0
LINE
  5
2EC5
  8
0
 10
122.7773084155969059
 20
69.9999999999385949
 30
0.0
 11
120.7093613889363013
 21
69.9999999999723457
 31
0.0
  0
CIRCLE
  5
2EC6
  8
0
 10
116.6773084155934015
 20
76.3999999999999631
 30
0.0
 40
4.0000000000190994
  0
ARC
  5
2EC7
  8
0
 10
149.5107727205945878
 20
18.0939604774785998
 30
0.0
 40
59.9999999999968665
 50
88.0926458837862612
 51
96.0593011985113066
  0
LINE
  5
2EC8
  8
0
 10
141.677308415593501
 20
77.5471985655806719
 30
0.0
 11
143.1773084155911135
 21
77.7587510150885208
 31
0.0
  0
LINE
  5
2EC9
  8
0
 10
141.6773084155935862
 20
81.5268369746296315
 30
0.0
 11
143.177308415593302
 21
81.6690662724057432
 31
0.0
  0
ARC
  5
2ECA
  8
0
 10
149.6762643126045873
 20
18.0285408538062306
 30
0.0
 40
63.9715007116974732
 50
88.3593868938339853
 51
95.8308191591495557
  0
ARC
  5
2ECB
  8
0
 10
149.5107727205974868
 20
18.09396047749253
 30
0.0
 40
59.9999999999827835
 50
79.8568026678171634
 51
83.3324095443788337
  0
POLYLINE
  5
2ECC
  8
0
 66
     1
 10
0.0
 20
0.0
 30
0.0
 70
   128
  0
VERTEX
  5
2FCF
  8
0
 10
160.0773084155937056
 20
81.1493467899707497
 30
0.0
  0
VERTEX
  5
2FD0
  8
0
 10
158.2776925224262072
 20
81.4194895826073406
 30
0.0
  0
VERTEX
  5
2FD1
  8
0
 10
156.4773084155924892
 20
81.6377246607702745
 30
0.0
  0
SEQEND
  5
2FD2
  8
0
  0
ARC
  5
2ECD
  8
0
 10
149.5107727205949004
 20
18.0939604774754699
 30
0.0
 40
60.0
 50
83.3324095443771853
 51
87.3561503588273638
  0
POLYLINE
  5
2ECE
  8
0
 66
     1
 10
0.0
 20
0.0
 30
0.0
 70
   128
  0
VERTEX
  5
2FD3
  8
0
 10
156.4773084155924892
 20
81.6377246607703881
 30
0.0
  0
VERTEX
  5
2FD4
  8
0
 10
154.3804106996929022
 20
81.8269600475011742
 30
0.0
  0
VERTEX
  5
2FD5
  8
0
 10
152.278423172985498
 20
81.9471203575179743
 30
0.0
  0
SEQEND
  5
2FD6
  8
0
  0
LINE
  5
2ECF
  8
0
 10
151.5077803859850007
 20
78.0607176049404501
 30
0.0
 11
152.278423172985498
 21
78.0300940779453498
 31
0.0
  0
LINE
  5
2ED0
  8
0
 10
151.5077803859850007
 20
81.9738178661053638
 30
0.0
 11
152.278423172985498
 21
81.9471203575179743
 31
0.0
  0
LINE
  5
2ED1
  8
0
 10
165.3773084155934043
 20
80.0361378085884638
 30
0.0
 11
164.677308415596201
 21
80.217360921208396
 31
0.0
  0
ARC
  5
2ED2
  8
0
 10
149.5064656768871032
 20
18.0749083281369387
 30
0.0
 40
60.0195128926624974
 50
74.6670298032622526
 51
79.8559583319877788
  0
ARC
  5
2ED3
  8
0
 10
149.4809497365783955
 20
17.0308330268258388
 30
0.0
 40
64.9882037330541209
 50
76.4771832496034563
 51
80.6159976556506592
  0
POLYLINE
  5
2ED4
  8
0
 66
     1
 10
0.0
 20
0.0
 30
0.0
 70
   128
  0
VERTEX
  5
2FD7
  8
0
 10
134.6773084155933873
 20
79.9356706143873765
 30
0.0
  0
VERTEX
  5
2FD8
  8
0
 10
136.5301336397963041
 20
80.3155083512562413
 30
0.0
  0
VERTEX
  5
2FD9
  8
0
 10
138.3773084155932906
 20
80.7999999999999972
 30
0.0
  0
SEQEND
  5
2FDA
  8
0
  0
POLYLINE
  5
2ED5
  8
0
 66
     1
 10
0.0
 20
0.0
 30
0.0
 70
   128
  0
VERTEX
  5
2FDB
  8
0
 10
139.2773084155867878
 20
77.0030301042938703
 30
0.0
  0
VERTEX
  5
2FDC
  8
0
 10
136.9844279241928007
 20
76.3817427433780125
 30
0.0
  0
VERTEX
  5
2FDD
  8
0
 10
134.6773084155933873
 20
75.8353669990016073
 30
0.0
  0
SEQEND
  5
2FDE
  8
0
  0
POLYLINE
  5
2ED6
  8
0
 66
     1
 10
0.0
 20
0.0
 30
0.0
 70
   128
  0
VERTEX
  5
2FDF
  8
0
 10
139.2773084155867878
 20
77.0030301042939271
 30
0.0
  0
VERTEX
  5
2FE0
  8
0
 10
140.4719812318249126
 20
77.3062734261864506
 30
0.0
  0
VERTEX
  5
2FE1
  8
0
 10
141.6773084155935862
 20
77.5471985655806719
 30
0.0
  0
SEQEND
  5
2FE2
  8
0
  0
POLYLINE
  5
2ED7
  8
0
 66
     1
 10
0.0
 20
0.0
 30
0.0
 70
   128
  0
VERTEX
  5
2FE3
  8
0
 10
138.3773084155932906
 20
80.7999999999999403
 30
0.0
  0
VERTEX
  5
2FE4
  8
0
 10
140.0281679672540918
 20
81.236806398694668
 30
0.0
  0
VERTEX
  5
2FE5
  8
0
 10
141.6773084155935862
 20
81.5268369746296315
 30
0.0
  0
SEQEND
  5
2FE6
  8
0
  0
POLYLINE
  5
2ED8
  8
0
 66
     1
 10
0.0
 20
0.0
 30
0.0
 70
   128
  0
VERTEX
  5
2FE7
  8
0
 10
168.5560259606205022
 20
76.4091210521312263
 30
0.0
  0
VERTEX
  5
2FE8
  8
0
 10
168.7273281376998
 20
76.8087999963339456
 30
0.0
  0
VERTEX
  5
2FE9
  8
0
 10
168.8560259606205136
 20
77.1091210521312718
 30
0.0
  0
SEQEND
  5
2FEA
  8
0
  0
ARC
  5
2ED9
  8
0
 10
167.1773084155933873
 20
76.9999999999999858
 30
0.0
 40
1.5000000000000331
 50
250.5287793654811992
 51
336.8014094863527248
  0
ARC
  5
2EDA
  8
0
 10
167.4767597955510041
 20
77.6997625828959571
 30
0.0
 40
1.5004108010706589
 50
336.8179952341724857
 51
69.9834142521840761
  0
ARC
  5
2EDB
  8
0
 10
160.040062975767313
 20
60.8372803257936283
 30
0.0
 40
19.9269244372936711
 50
66.4861000280577343
 51
74.464171681737497
  0
ARC
  5
2EDC
  8
0
 10
149.5107727206288928
 20
18.0939604775935408
 30
0.0
 40
59.9999999998771401
 50
73.3748540425739435
 51
74.6661854674320438
  0
LINE
  5
2EDD
  8
0
 10
129.3773084155932906
 20
74.8703296142690391
 30
0.0
 11
128.7773084155940069
 21
74.808874824182098
 31
0.0
  0
ARC
  5
2EDE
  8
0
 10
130.1773084155933873
 20
64.0999999999998948
 30
0.0
 40
10.8000000000000806
 50
97.4481905610389134
 51
140.2210388709634117
  0
POLYLINE
  5
2EDF
  8
0
 66
     1
 10
0.0
 20
0.0
 30
0.0
 70
   128
  0
VERTEX
  5
2FEB
  8
0
 10
121.8773084155934043
 20
71.0101374805426246
 30
0.0
  0
VERTEX
  5
2FEC
  8
0
 10
121.3994170493288038
 20
70.5382601085135832
 30
0.0
  0
VERTEX
  5
2FED
  8
0
 10
120.8773084155934043
 20
70.1158255138574162
 30
0.0
  0
SEQEND
  5
2FEE
  8
0
  0
POLYLINE
  5
2EE0
  8
0
 66
     1
 10
0.0
 20
0.0
 30
0.0
 70
   128
  0
VERTEX
  5
2FEF
  8
0
 10
120.8773084155934043
 20
70.1158255138574162
 30
0.0
  0
VERTEX
  5
2FF0
  8
0
 10
120.1240780693263019
 20
69.5963564070399769
 30
0.0
  0
VERTEX
  5
2FF1
  8
0
 10
119.3400943256886961
 20
69.1999999999999034
 30
0.0
  0
SEQEND
  5
2FF2
  8
0
  0
ARC
  5
2EE1
  8
0
 10
116.6745193134438949
 20
75.406374682669238
 30
0.0
 40
6.7459002839676696
 50
59.7069245628799834
 51
245.0335455228585033
  0
ARC
  5
2EE2
  8
0
 10
126.6768383752393987
 20
92.7782959642705549
 30
0.0
 40
13.2999999999996206
 50
240.2507420024651026
 51
266.9850664106382965
  0
ARC
  5
2EE3
  8
0
 10
128.577308415593393
 20
114.3999999999995936
 30
0.0
 40
34.9999999999996376
 50
265.7398177411661209
 51
280.0370937830745106
  0
POLYLINE
  5
2EE4
  8
0
 66
     1
 10
0.0
 20
0.0
 30
0.0
 70
   128
  0
VERTEX
  5
2FF3
  8
0
 10
134.6773084155933873
 20
75.8353669990016073
 30
0.0
  0
VERTEX
  5
2FF4
  8
0
 10
132.0360930717095016
 20
75.3046028415867426
 30
0.0
  0
VERTEX
  5
2FF5
  8
0
 10
129.3773084155932906
 20
74.8703296142689254
 30
0.0
  0
SEQEND
  5
2FF6
  8
0
  0
LINE
  5
2EE5
  8
0
 10
65.9000000000000625
 20
65.8000000000000114
 30
0.0
 11
65.9000000000000625
 21
68.706364335451326
 31
0.0
  0
LINE
  5
2EE6
  8
0
 10
52.1000000000000512
 20
68.7063643354512124
 30
0.0
 11
52.1000000000000512
 21
65.8000000000000114
 31
0.0
  0
LINE
  5
2EE7
  8
0
 10
52.0999999999396479
 20
65.8000000000000114
 30
0.0
 11
52.8999999999396593
 21
65.0
 31
0.0
  0
LINE
  5
2EE8
  8
0
 10
65.1000000000604331
 20
65.0
 30
0.0
 11
65.9000000000604302
 21
65.8000000000000114
 31
0.0
  0
LINE
  5
2EED
  8
0
 10
56.3000000000000398
 20
82.1499999999999773
 30
0.0
 11
52.5000000000000782
 21
82.1499999999999773
 31
0.0
  0
LINE
  5
2EEE
  8
0
 10
65.5000000000000284
 20
82.1499999999999773
 30
0.0
 11
61.7000000000000668
 21
82.1499999999999773
 31
0.0
  0
LINE
  5
2EEF
  8
0
 10
61.7000000000001876
 20
82.0000000000001137
 30
0.0
 11
56.3000000000001535
 21
82.0000000000001137
 31
0.0
  0
LINE
  5
2EF0
  8
0
 10
52.500000000000199
 20
82.0000000000001137
 30
0.0
 11
50.0000000000000284
 21
82.0000000000001137
 31
0.0
  0
POLYLINE
  5
2EF1
  8
0
 66
     1
 10
0.0
 20
0.0
 30
0.0
 70
   128
  0
VERTEX
  5
2FF7
  8
0
 10
52.6234805732273401
 20
69.1999999999992497
 30
0.0
  0
VERTEX
  5
2FF8
  8
0
 10
52.3517965943648207
 20
68.9409333583662374
 30
0.0
  0
VERTEX
  5
2FF9
  8
0
 10
52.1708617304526783
 20
68.7678804339385437
 30
0.0
  0
VERTEX
  5
2FFA
  8
0
 10
52.1009895524300433
 20
68.7009483155292742
 30
0.0
  0
VERTEX
  5
2FFB
  8
0
 10
52.1066425876419075
 20
68.7063643354512124
 30
0.0
  0
SEQEND
  5
2FFC
  8
0
  0
LINE
  5
2EF2
  8
0
 10
65.3765194267720346
 20
69.1999999999997613
 30
0.0
 11
52.6234805732269706
 21
69.1999999999990223
 31
0.0
  0
ARC
  5
2EF3
  8
0
 10
-79.2263898711873935
 20
-82.7170525418696485
 30
0.0
 40
209.735052460105095
 50
46.2177629454426793
 51
46.413006307909292
  0
LINE
  5
2EF4
  8
0
 10
52.1000000000000512
 20
65.8000000000000114
 30
0.0
 11
65.9000000000000625
 21
65.8000000000000114
 31
0.0
  0
LINE
  5
2EF5
  8
0
 10
52.8999999999396593
 20
65.0
 30
0.0
 11
65.1000000000604189
 21
65.0
 31
0.0
  0
ARC
  5
2EF6
  8
0
 10
54.3087301647613288
 20
45.7658996237950575
 30
0.0
 40
25.9162693995551408
 50
64.718906641831552
 51
68.9210449570838506
  0
ARC
  5
2EF7
  8
0
 10
63.8005107299617578
 20
45.5107759046920819
 30
0.0
 40
26.1936126061722803
 50
111.1012114023968991
 51
115.2588369987046946
  0
POLYLINE
  5
2EF8
  8
0
 66
     1
 10
0.0
 20
0.0
 30
0.0
 70
   128
  0
VERTEX
  5
2FFD
  8
0
 10
54.3703771212092306
 20
69.9479999999956021
 30
0.0
  0
VERTEX
  5
2FFE
  8
0
 10
54.5495372687827
 20
69.9967909034033369
 30
0.0
  0
VERTEX
  5
2FFF
  8
0
 10
54.5954568909329225
 20
70.0
 30
0.0
  0
SEQEND
  5
3000
  8
0
  0
LINE
  5
2EF9
  8
0
 10
63.4045431090906604
 20
69.9999999999693046
 30
0.0
 11
54.5954568909094391
 21
69.9999999999693046
 31
0.0
  0
POLYLINE
  5
2EFA
  8
0
 66
     1
 10
0.0
 20
0.0
 30
0.0
 70
   128
  0
VERTEX
  5
3001
  8
0
 10
63.4045431090683209
 20
70.0000000000032401
 30
0.0
  0
VERTEX
  5
3002
  8
0
 10
63.549979801993679
 20
69.9750289615228098
 30
0.0
  0
VERTEX
  5
3003
  8
0
 10
63.6296228787869325
 20
69.9479999999812776
 30
0.0
  0
SEQEND
  5
3004
  8
0
  0
LINE
  5
2EFC
  8
0
 10
52.5000000000000782
 20
69.0823411933351252
 30
0.0
 11
52.5000000000000782
 21
82.1492656704530759
 31
0.0
  0
LINE
  5
2EFD
  8
0
 10
56.3000000000000398
 20
69.9999999999385949
 30
0.0
 11
56.3000000000000398
 21
82.1492656704530759
 31
0.0
  0
LINE
  5
2EFE
  8
0
 10
65.5000000000000284
 20
69.0823411933351252
 30
0.0
 11
65.5000000000000284
 21
82.1492656704530759
 31
0.0
  0
LINE
  5
2EFF
  8
0
 10
61.7000000000000668
 20
69.9999999999385949
 30
0.0
 11
61.7000000000000668
 21
82.1492656704530759
 31
0.0
  0
POLYLINE
  5
2F03
  8
0
 66
     1
 10
0.0
 20
0.0
 30
0.0
 70
   128
  0
VERTEX
  5
3005
  8
0
 10
52.226943418088041
 20
80.8000000000000114
 30
0.0
  0
VERTEX
  5
3006
  8
0
 10
52.4189542384739866
 20
80.3155083512562555
 30
0.0
  0
VERTEX
  5
3007
  8
0
 10
52.5000000000000782
 20
79.9356706143873907
 30
0.0
  0
SEQEND
  5
3008
  8
0
  0
POLYLINE
  5
2F04
  8
0
 66
     1
 10
0.0
 20
0.0
 30
0.0
 70
   128
  0
VERTEX
  5
3009
  8
0
 10
51.6000000000000227
 20
81.5268369746296457
 30
0.0
  0
VERTEX
  5
300A
  8
0
 10
51.9595728952917284
 20
81.236806398694668
 30
0.0
  0
VERTEX
  5
300B
  8
0
 10
52.226943418088041
 20
80.7999999999999545
 30
0.0
  0
SEQEND
  5
300C
  8
0
  0
POLYLINE
  5
2F05
  8
0
 66
     1
 10
0.0
 20
0.0
 30
0.0
 70
   128
  0
VERTEX
  5
300D
  8
0
 10
51.6000000000000512
 20
77.5471985655806293
 30
0.0
  0
VERTEX
  5
300E
  8
0
 10
51.8720903638284199
 20
77.3062734261864648
 30
0.0
  0
VERTEX
  5
300F
  8
0
 10
52.0925611695539317
 20
77.0030301042939413
 30
0.0
  0
SEQEND
  5
3010
  8
0
  0
POLYLINE
  5
2F06
  8
0
 66
     1
 10
0.0
 20
0.0
 30
0.0
 70
   128
  0
VERTEX
  5
3011
  8
0
 10
52.5000000000000782
 20
75.8353669990016215
 30
0.0
  0
VERTEX
  5
3012
  8
0
 10
52.3821882235937508
 20
76.3817427433780267
 30
0.0
  0
VERTEX
  5
3013
  8
0
 10
52.0925611695539104
 20
77.0030301042938845
 30
0.0
  0
SEQEND
  5
3014
  8
0
  0
LINE
  5
2F07
  8
0
 10
51.1115013351783603
 20
81.6690662724057574
 30
0.0
 11
51.6000000000000227
 21
81.5268369746296457
 31
0.0
  0
ARC
  5
2F08
  8
0
 10
49.8705746924279367
 20
75.5034373016559357
 30
0.0
 40
2.5741676088955172
 50
61.1793748889115108
 51
86.3207845477404732
  0
ARC
  5
2F09
  8
0
 10
49.6664379218803091
 20
78.7119619082199051
 30
0.0
 40
3.2913028558825421
 50
63.9563895582328286
 51
84.1832858655137954
  0
ARC
  5
2F0A
  8
0
 10
49.1140804583751773
 20
72.4767033422012901
 30
0.0
 40
5.6470981731988772
 50
63.8826011337612627
 51
69.2857502661844364
  0
POLYLINE
  5
2F0B
  8
0
 66
     1
 10
0.0
 20
0.0
 30
0.0
 70
   128
  0
VERTEX
  5
3015
  8
0
 10
52.5000000000002487
 20
75.7925792434999721
 30
0.0
  0
VERTEX
  5
3016
  8
0
 10
52.3233126067053078
 20
75.8618017884845131
 30
0.0
  0
VERTEX
  5
3017
  8
0
 10
52.1000000000000512
 20
75.9580516311377636
 30
0.0
  0
SEQEND
  5
3018
  8
0
  0
ARC
  5
2F0C
  8
0
 10
52.8756276776904031
 20
79.0744491103221776
 30
0.0
 40
3.2114687516253522
 50
216.6775967908328084
 51
256.0238456382556933
  0
ARC
  5
2F0D
  8
0
 10
51.8870833114113523
 20
78.4018295178624953
 30
0.0
 40
2.0175287880416501
 50
200.7162190883283017
 51
218.1267209787073966
  0
LINE
  5
2F0E
  8
0
 10
50.0000000000000568
 20
77.6881496271763012
 30
0.0
 11
50.0000000000000568
 21
78.0300940779454635
 31
0.0
  0
LINE
  5
2F0F
  8
0
 10
50.0000000000000284
 20
78.0300940779454208
 30
0.0
 11
50.0357598036188733
 21
78.0722994539964645
 31
0.0
  0
LINE
  5
2F10
  8
0
 10
50.0000000000000782
 20
82.0000000000001279
 30
0.0
 11
50.0000000000000568
 21
78.0300940779454208
 31
0.0
  0
LINE
  5
2F13
  8
0
 10
112.677308415593302
 20
134.649999999999892
 30
0.0
 11
112.677308415593302
 21
129.2499999999998863
 31
0.0
  0
LINE
  5
2F14
  8
0
 10
120.677308415593302
 20
129.2499999999998863
 30
0.0
 11
120.677308415593302
 21
134.649999999999892
 31
0.0
  0
LINE
  5
2F15
  8
0
 10
109.927308415593302
 20
138.4499999999999034
 30
0.0
 11
109.927308415593302
 21
134.649999999999892
 31
0.0
  0
LINE
  5
2F16
  8
0
 10
109.927308415593302
 20
129.2499999999998863
 30
0.0
 11
109.927308415593302
 21
125.4499999999999034
 31
0.0
  0
LINE
  5
2F17
  8
0
 10
168.9773084155933134
 20
130.9725253291533136
 30
0.0
 11
168.9773084155933134
 21
132.9277586471731922
 31
0.0
  0
ARC
  5
2F18
  8
0
 10
116.6654057518978931
 20
131.6535901988191029
 30
0.0
 40
6.6125740574941316
 50
249.743254680028997
 51
290.2567453199724241
  0
ARC
  5
2F19
  8
0
 10
116.6892110792884978
 20
132.2464098011807891
 30
0.0
 40
6.6125740574940313
 50
69.7432546800275333
 51
110.2567453199724952
  0
ARC
  5
2F1A
  8
0
 10
116.677308415593302
 20
131.9499999999999034
 30
0.0
 40
6.9000000000000004
 50
156.8863048543261982
 51
203.044149308394708
  0
ARC
  5
2F1B
  8
0
 10
116.677308415593302
 20
131.9499999999999034
 30
0.0
 40
6.100000000003531
 50
153.6368306549217095
 51
206.4072571701547929
  0
ARC
  5
2F1C
  8
0
 10
116.677308415593302
 20
131.9499999999999034
 30
0.0
 40
6.100000000003555
 50
333.6368306549326235
 51
26.4072571701584486
  0
ARC
  5
2F1D
  8
0
 10
159.6394419896442116
 20
130.6576969875420104
 30
0.0
 40
10.0018921459766492
 50
59.7554811394171921
 51
87.490882881941971
  0
ARC
  5
2F1E
  8
0
 10
159.6399915069779922
 20
133.2404331198121099
 30
0.0
 40
10.0000000000000195
 50
272.5064406622453816
 51
300.2471953163995977
  0
POLYLINE
  5
2F1F
  8
0
 66
     1
 10
0.0
 20
0.0
 30
0.0
 70
   128
  0
VERTEX
  5
3019
  8
0
 10
160.0773084155937056
 20
123.25
 30
0.0
  0
VERTEX
  5
301A
  8
0
 10
158.2776925224262072
 20
123.0580376972194045
 30
0.0
  0
VERTEX
  5
301B
  8
0
 10
156.4773084155924892
 20
122.9499999999999034
 30
0.0
  0
SEQEND
  5
301C
  8
0
  0
LINE
  5
2F20
  8
0
 10
156.4773084155924892
 20
122.9499999999999034
 30
0.0
 11
152.2784231729854127
 21
122.9499999999999034
 31
0.0
  0
LINE
  5
2F21
  8
0
 10
151.5077803859850007
 20
122.9773728869292029
 30
0.0
 11
152.2784231729854127
 21
122.9499999999999034
 31
0.0
  0
ARC
  5
2F22
  8
0
 10
150.7845218810435881
 20
149.9676840584417903
 30
0.0
 40
27.0000000000010196
 50
253.635402823788894
 51
271.5349858279067803
  0
ARC
  5
2F23
  8
0
 10
150.7845218810431902
 20
113.932315941559807
 30
0.0
 40
26.9999999999991793
 50
88.4650141720915428
 51
106.3645971762110065
  0
LINE
  5
2F24
  8
0
 10
151.5077803859850007
 20
140.9226271130706891
 30
0.0
 11
152.2784231729849012
 21
140.9499999999999034
 31
0.0
  0
LINE
  5
2F25
  8
0
 10
156.4773084155935976
 20
140.9499999999999034
 30
0.0
 11
152.2784231729849012
 21
140.9499999999999034
 31
0.0
  0
ARC
  5
2F26
  8
0
 10
155.0420101028583133
 20
101.9764202471749996
 30
0.0
 40
38.9999999999531468
 50
82.5818220252943149
 51
87.8908945932533641
  0
POLYLINE
  5
2F27
  8
0
 66
     1
 10
0.0
 20
0.0
 30
0.0
 70
   128
  0
VERTEX
  5
301D
  8
0
 10
138.3773084155932906
 20
125.1769434180880012
 30
0.0
  0
VERTEX
  5
301E
  8
0
 10
140.0281679672540918
 20
124.9095728952916033
 30
0.0
  0
VERTEX
  5
301F
  8
0
 10
141.6773084155935862
 20
124.5499999999998977
 30
0.0
  0
SEQEND
  5
3020
  8
0
  0
POLYLINE
  5
2F28
  8
0
 66
     1
 10
0.0
 20
0.0
 30
0.0
 70
   128
  0
VERTEX
  5
3021
  8
0
 10
141.6773084155933873
 20
139.3499999999999091
 30
0.0
  0
VERTEX
  5
3022
  8
0
 10
140.0281679672540918
 20
138.9904271047082034
 30
0.0
  0
VERTEX
  5
3023
  8
0
 10
138.3773084155932906
 20
138.7230565819118908
 30
0.0
  0
SEQEND
  5
3024
  8
0
  0
LINE
  5
2F29
  8
0
 10
143.1773084155931883
 20
139.8384986648216
 30
0.0
 11
141.6773084155933873
 21
139.3499999999999091
 31
0.0
  0
LINE
  5
2F2A
  8
0
 10
141.6773084155935862
 20
124.5499999999998977
 30
0.0
 11
143.1773084155931883
 21
124.0615013351783062
 31
0.0
  0
ARC
  5
2F2B
  8
0
 10
122.6740418608124941
 20
129.4532665547806971
 30
0.0
 40
0.2032928003461626
 50
270.9206811890917947
 51
359.0793188109179823
  0
LINE
  5
2F2C
  8
0
 10
122.8773084155934043
 20
129.4499999999999034
 30
0.0
 11
122.8773084155934043
 21
134.4499999999999034
 31
0.0
  0
ARC
  5
2F2D
  8
0
 10
122.6754828397654933
 20
134.4481744241720094
 30
0.0
 40
0.2018338321128823
 50
0.518244217462684
 51
89.4817557825470971
  0
LINE
  5
2F2E
  8
0
 10
109.927308415593302
 20
129.2499999999998863
 30
0.0
 11
122.677308415593302
 21
129.2499999999998863
 31
0.0
  0
LINE
  5
2F2F
  8
0
 10
122.677308415593302
 20
134.649999999999892
 30
0.0
 11
109.927308415593302
 21
134.649999999999892
 31
0.0
  0
POLYLINE
  5
2F30
  8
0
 66
     1
 10
0.0
 20
0.0
 30
0.0
 70
   128
  0
VERTEX
  5
3025
  8
0
 10
134.677308415593302
 20
125.4499999999999034
 30
0.0
  0
VERTEX
  5
3026
  8
0
 10
136.5301336397961904
 20
125.3689542384739042
 30
0.0
  0
VERTEX
  5
3027
  8
0
 10
138.3773084155932906
 20
125.1769434180880012
 30
0.0
  0
SEQEND
  5
3028
  8
0
  0
POLYLINE
  5
2F31
  8
0
 66
     1
 10
0.0
 20
0.0
 30
0.0
 70
   128
  0
VERTEX
  5
3029
  8
0
 10
138.3773084155932906
 20
138.7230565819118908
 30
0.0
  0
VERTEX
  5
302A
  8
0
 10
136.5301336397961904
 20
138.531045761526002
 30
0.0
  0
VERTEX
  5
302B
  8
0
 10
134.677308415593302
 20
138.4499999999999034
 30
0.0
  0
SEQEND
  5
302C
  8
0
  0
LINE
  5
2F32
  8
0
 10
134.677308415593302
 20
138.4499999999999034
 30
0.0
 11
109.927308415593302
 21
138.4499999999999034
 31
0.0
  0
LINE
  5
2F33
  8
0
 10
134.677308415593302
 20
125.4499999999999034
 30
0.0
 11
109.927308415593302
 21
125.4499999999999034
 31
0.0
  0
ARC
  5
2F34
  8
0
 10
161.492958076146607
 20
132.4342519968105023
 30
0.0
 40
7.4999999999991802
 50
29.9665219241979415
 51
58.807611146001399
  0
ARC
  5
2F35
  8
0
 10
161.4929580761464081
 20
131.4657480031895034
 30
0.0
 40
7.4999999999995062
 50
301.1923888540005123
 51
330.0334780758021225
  0
LINE
  5
2F36
  8
0
 10
165.3773084155934043
 20
125.0499999999999972
 30
0.0
 11
164.677308415596201
 21
124.6018314759029977
 31
0.0
  0
LINE
  5
2F37
  8
0
 10
165.3773084155934043
 20
138.8499999999999091
 30
0.0
 11
164.677308415596201
 21
139.2981685240968091
 31
0.0
  0
POLYLINE
  5
2F38
  8
0
 66
     1
 10
0.0
 20
0.0
 30
0.0
 70
   128
  0
VERTEX
  5
302D
  8
0
 10
168.9767225442346046
 20
130.9725253291533136
 30
0.0
  0
VERTEX
  5
302E
  8
0
 10
168.9767417293151084
 20
130.9728157232991066
 30
0.0
  0
VERTEX
  5
302F
  8
0
 10
168.9763714140428874
 20
130.967225371620799
 30
0.0
  0
VERTEX
  5
3030
  8
0
 10
168.9754258416803907
 20
130.9532286008850122
 30
0.0
  0
VERTEX
  5
3031
  8
0
 10
168.9719455431344954
 20
130.9047253043353862
 30
0.0
  0
VERTEX
  5
3032
  8
0
 10
168.9584683700983021
 20
130.7473079911557079
 30
0.0
  0
VERTEX
  5
3033
  8
0
 10
168.9440221905146018
 20
130.6103863465974939
 30
0.0
  0
VERTEX
  5
3034
  8
0
 10
168.9272136245517117
 20
130.4748673640611969
 30
0.0
  0
VERTEX
  5
3035
  8
0
 10
168.9086701479384089
 20
130.3444922481214974
 30
0.0
  0
VERTEX
  5
3036
  8
0
 10
168.871121539621214
 20
130.1193810746596
 30
0.0
  0
VERTEX
  5
3037
  8
0
 10
168.8247866354356006
 20
129.8864158730837914
 30
0.0
  0
VERTEX
  5
3038
  8
0
 10
168.6012605184075142
 20
129.0736701638751924
 30
0.0
  0
VERTEX
  5
3039
  8
0
 10
168.3157213246464039
 20
128.3512814911026965
 30
0.0
  0
VERTEX
  5
303A
  8
0
 10
167.9903386305817889
 20
127.7195438001543977
 30
0.0
  0
SEQEND
  5
303B
  8
0
  0
POLYLINE
  5
2F39
  8
0
 66
     1
 10
0.0
 20
0.0
 30
0.0
 70
   128
  0
VERTEX
  5
303C
  8
0
 10
167.9903386305817889
 20
136.1804561998453948
 30
0.0
  0
VERTEX
  5
303D
  8
0
 10
168.2370891886515949
 20
135.7155163167535079
 30
0.0
  0
VERTEX
  5
303E
  8
0
 10
168.464438101246202
 20
135.1998380575988961
 30
0.0
  0
VERTEX
  5
303F
  8
0
 10
168.6634272628188
 20
134.6329724526605958
 30
0.0
  0
VERTEX
  5
3040
  8
0
 10
168.8243477162959891
 20
134.0156203739763896
 30
0.0
  0
VERTEX
  5
3041
  8
0
 10
168.862446754785708
 20
133.8273193373941865
 30
0.0
  0
VERTEX
  5
3042
  8
0
 10
168.8948123835567969
 20
133.6436124938759917
 30
0.0
  0
VERTEX
  5
3043
  8
0
 10
168.9218345744338023
 20
133.4646858729942096
 30
0.0
  0
VERTEX
  5
3044
  8
0
 10
168.9414267934276097
 20
133.3119272030666878
 30
0.0
  0
VERTEX
  5
3045
  8
0
 10
168.9543719057352007
 20
133.1940570136488873
 30
0.0
  0
VERTEX
  5
3046
  8
0
 10
168.9672216662407038
 20
133.0550448654749118
 30
0.0
  0
VERTEX
  5
3047
  8
0
 10
168.9717842828607957
 20
132.9974203284450027
 30
0.0
  0
VERTEX
  5
3048
  8
0
 10
168.9753021307363952
 20
132.9485743166976874
 30
0.0
  0
VERTEX
  5
3049
  8
0
 10
168.9762988914102095
 20
132.9338620873826073
 30
0.0
  0
VERTEX
  5
304A
  8
0
 10
168.9767260583365101
 20
132.9274221385880992
 30
0.0
  0
VERTEX
  5
304B
  8
0
 10
168.9767038337961083
 20
132.9277586471731922
 30
0.0
  0
SEQEND
  5
304C
  8
0
  0
ARC
  5
2F3A
  8
3
 10
116.677308415593302
 20
131.9499999999999034
 30
0.0
 40
1.6209999999999991
 50
284.2859425515222256
 51
75.7140574484776465
  0
CIRCLE
  5
2F3B
  8
0
 10
116.677308415593302
 20
131.9499999999999034
 30
0.0
 40
2.0
  0
LINE
  5
2F3C
  8
1
 10
116.677308415593302
 20
143.6446720906500047
 30
0.0
 11
116.677308415593302
 21
120.2553279093500009
 31
0.0
  0
LINE
  5
2F3D
  8
1
 10
104.9826363249433001
 20
131.9499999999999034
 30
0.0
 11
172.9773084155933134
 21
131.9499999999999034
 31
0.0
  0
LINE
  5
2F3E
  8
1
 10
105.9273084155934015
 20
75.3999999999999631
 30
0.0
 11
127.4273084155934015
 21
75.3999999999999631
 31
0.0
  0
LINE
  5
2F40
  8
1
 10
105.9273084155934015
 20
76.3999999999999631
 30
0.0
 11
127.4273084155934015
 21
76.3999999999999631
 31
0.0
  0
LINE
  5
2F42
  8
0
 10
65.4999999999998579
 20
82.0000000000001137
 30
0.0
 11
68.0000000000000284
 21
82.0000000000001137
 31
0.0
  0
POLYLINE
  5
2F43
  8
0
 66
     1
 10
0.0
 20
0.0
 30
0.0
 70
   128
  0
VERTEX
  5
304D
  8
0
 10
65.7730565819120159
 20
80.8000000000000114
 30
0.0
  0
VERTEX
  5
304E
  8
0
 10
65.5810457615260702
 20
80.3155083512562555
 30
0.0
  0
VERTEX
  5
304F
  8
0
 10
65.4999999999999716
 20
79.9356706143873907
 30
0.0
  0
SEQEND
  5
3050
  8
0
  0
POLYLINE
  5
2F44
  8
0
 66
     1
 10
0.0
 20
0.0
 30
0.0
 70
   128
  0
VERTEX
  5
3051
  8
0
 10
66.4000000000000341
 20
81.5268369746296457
 30
0.0
  0
VERTEX
  5
3052
  8
0
 10
66.0404271047083284
 20
81.236806398694668
 30
0.0
  0
VERTEX
  5
3053
  8
0
 10
65.7730565819120159
 20
80.7999999999999545
 30
0.0
  0
SEQEND
  5
3054
  8
0
  0
POLYLINE
  5
2F45
  8
0
 66
     1
 10
0.0
 20
0.0
 30
0.0
 70
   128
  0
VERTEX
  5
3055
  8
0
 10
66.4000000000000057
 20
77.5471985655806293
 30
0.0
  0
VERTEX
  5
3056
  8
0
 10
66.127909636171637
 20
77.3062734261864648
 30
0.0
  0
VERTEX
  5
3057
  8
0
 10
65.9074388304461252
 20
77.0030301042939413
 30
0.0
  0
SEQEND
  5
3058
  8
0
  0
POLYLINE
  5
2F46
  8
0
 66
     1
 10
0.0
 20
0.0
 30
0.0
 70
   128
  0
VERTEX
  5
3059
  8
0
 10
65.4999999999999716
 20
75.8353669990016215
 30
0.0
  0
VERTEX
  5
305A
  8
0
 10
65.6178117764063131
 20
76.3817427433780267
 30
0.0
  0
VERTEX
  5
305B
  8
0
 10
65.9074388304461536
 20
77.0030301042938845
 30
0.0
  0
SEQEND
  5
305C
  8
0
  0
LINE
  5
2F47
  8
0
 10
66.8884986648216966
 20
81.6690662724057574
 30
0.0
 11
66.4000000000000341
 21
81.5268369746296457
 31
0.0
  0
ARC
  5
2F48
  8
0
 10
68.1294253075721201
 20
75.5034373016559357
 30
0.0
 40
2.5741676088955172
 50
93.6792154522595553
 51
118.8206251110885034
  0
ARC
  5
2F49
  8
0
 10
68.3335620781197406
 20
78.7119619082199051
 30
0.0
 40
3.2913028558825421
 50
95.8167141344878388
 51
116.0436104417671004
  0
ARC
  5
2F4A
  8
0
 10
68.8859195416248724
 20
72.4767033422012901
 30
0.0
 40
5.6470981731988772
 50
110.7142497338138014
 51
116.117398866236897
  0
POLYLINE
  5
2F4B
  8
0
 66
     1
 10
0.0
 20
0.0
 30
0.0
 70
   128
  0
VERTEX
  5
305D
  8
0
 10
65.499999999999801
 20
75.7925792434999721
 30
0.0
  0
VERTEX
  5
305E
  8
0
 10
65.6766873932947419
 20
75.8618017884845131
 30
0.0
  0
VERTEX
  5
305F
  8
0
 10
65.9000000000000057
 20
75.9580516311377636
 30
0.0
  0
SEQEND
  5
3060
  8
0
  0
ARC
  5
2F4C
  8
0
 10
65.1243723223096538
 20
79.0744491103221776
 30
0.0
 40
3.2114687516253522
 50
283.976154361746012
 51
323.3224032091646905
  0
ARC
  5
2F4D
  8
0
 10
66.1129166885887116
 20
78.4018295178624953
 30
0.0
 40
2.0175287880416501
 50
321.8732790212948771
 51
339.2837809116717267
  0
LINE
  5
2F4E
  8
0
 10
68.0
 20
77.6881496271763012
 30
0.0
 11
68.0
 21
78.0300940779454635
 31
0.0
  0
LINE
  5
2F4F
  8
0
 10
68.0000000000000284
 20
78.0300940779454208
 30
0.0
 11
67.9642401963811835
 21
78.0722994539964645
 31
0.0
  0
LINE
  5
2F50
  8
0
 10
67.9999999999999716
 20
82.0000000000001279
 30
0.0
 11
68.0
 21
78.0300940779454208
 31
0.0
  0
LINE
  5
2F55
  8
1
 10
72.0
 20
76.3999999999999631
 30
0.0
 11
46.0
 21
76.3999999999999915
 31
0.0
  0
ARC
  5
2F57
  8
3
 10
116.677308415593302
 20
131.9499999999999034
 30
0.0
 40
1.6209999999999991
 50
104.2859425515181044
 51
255.7140574484818956
  0
ENDSEC
  0
EOF
