  0
SECTION
  2
HEADER
  9
$ACADVER
  1
AC1009
  9
$INSBASE
 10
0.0
 20
0.0
 30
0.0
  9
$EXTMIN
 10
0.0
 20
-2.960436562073669
 30
0.0
  9
$EXTMAX
 10
109.563261231588001
 20
88.4813997991847145
 30
0.0
  9
$LIMMIN
 10
0.0
 20
0.0
  9
$LIMMAX
 10
375.0
 20
270.0
  9
$ORTHOMODE
 70
     0
  9
$REGENMODE
 70
     1
  9
$FILLMODE
 70
     1
  9
$QTEXTMODE
 70
     0
  9
$MIRRTEXT
 70
     0
  9
$DRAGMODE
 70
     2
  9
$LTSCALE
 40
5.0
  9
$OSMODE
 70
    37
  9
$ATTMODE
 70
     1
  9
$TEXTSIZE
 40
0.2
  9
$TRACEWID
 40
0.05
  9
$TEXTSTYLE
  7
STANDARD
  9
$CLAYER
  8
0
  9
$CELTYPE
  6
BYLAYER
  9
$CECOLOR
 62
   256
  9
$DIMSCALE
 40
1.0
  9
$DIMASZ
 40
3.0
  9
$DIMEXO
 40
2.0
  9
$DIMDLI
 40
10.0
  9
$DIMRND
 40
0.0
  9
$DIMDLE
 40
0.0
  9
$DIMEXE
 40
2.0
  9
$DIMTP
 40
0.0
  9
$DIMTM
 40
0.0
  9
$DIMTXT
 40
3.2000000000000002
  9
$DIMCEN
 40
0.09
  9
$DIMTSZ
 40
0.0
  9
$DIMTOL
 70
     0
  9
$DIMLIM
 70
     0
  9
$DIMTIH
 70
     0
  9
$DIMTOH
 70
     0
  9
$DIMSE1
 70
     0
  9
$DIMSE2
 70
     0
  9
$DIMTAD
 70
     1
  9
$DIMZIN
 70
     8
  9
$DIMBLK
  1

  9
$DIMASO
 70
     0
  9
$DIMSHO
 70
     0
  9
$DIMPOST
  1

  9
$DIMAPOST
  1

  9
$DIMALT
 70
     0
  9
$DIMALTD
 70
     2
  9
$DIMALTF
 40
25.3999999999999986
  9
$DIMLFAC
 40
1.0
  9
$DIMTOFL
 70
     1
  9
$DIMTVP
 40
1.6000000000000001
  9
$DIMTIX
 70
     0
  9
$DIMSOXD
 70
     0
  9
$DIMSAH
 70
     0
  9
$DIMBLK1
  1

  9
$DIMBLK2
  1

  9
$DIMSTYLE
  2
STANDARD
  9
$DIMCLRD
 70
     0
  9
$DIMCLRE
 70
     0
  9
$DIMCLRT
 70
     0
  9
$DIMTFAC
 40
1.0
  9
$DIMGAP
 40
0.09
  9
$LUNITS
 70
     2
  9
$LUPREC
 70
     1
  9
$SKETCHINC
 40
0.1
  9
$FILLETRAD
 40
0.0
  9
$AUNITS
 70
     0
  9
$AUPREC
 70
     0
  9
$MENU
  1
E:\r13\win\SUPPORT\ACAD
  9
$ELEVATION
 40
0.0
  9
$PELEVATION
 40
0.0
  9
$THICKNESS
 40
0.0
  9
$LIMCHECK
 70
     0
  9
$BLIPMODE
 70
     0
  9
$CHAMFERA
 40
0.0
  9
$CHAMFERB
 40
0.0
  9
$SKPOLY
 70
     0
  9
$TDCREATE
 40
2449840.6171180559322238
  9
$TDUPDATE
 40
2460566.5215740739367902
  9
$TDINDWG
 40
0.1519972106
  9
$TDUSRTIMER
 40
0.1519972106
  9
$USRTIMER
 70
     1
  9
$ANGBASE
 50
0.0
  9
$ANGDIR
 70
     0
  9
$PDMODE
 70
     0
  9
$PDSIZE
 40
0.0
  9
$PLINEWID
 40
0.0
  9
$COORDS
 70
     1
  9
$SPLFRAME
 70
     0
  9
$SPLINETYPE
 70
     6
  9
$SPLINESEGS
 70
     8
  9
$ATTDIA
 70
     1
  9
$ATTREQ
 70
     1
  9
$HANDLING
 70
     1
  9
$HANDSEED
  5
17B3
  9
$SURFTAB1
 70
     6
  9
$SURFTAB2
 70
     6
  9
$SURFTYPE
 70
     6
  9
$SURFU
 70
     6
  9
$SURFV
 70
     6
  9
$UCSNAME
  2

  9
$UCSORG
 10
0.0
 20
0.0
 30
0.0
  9
$UCSXDIR
 10
1.0
 20
0.0
 30
0.0
  9
$UCSYDIR
 10
0.0
 20
1.0
 30
0.0
  9
$PUCSNAME
  2

  9
$PUCSORG
 10
0.0
 20
0.0
 30
0.0
  9
$PUCSXDIR
 10
1.0
 20
0.0
 30
0.0
  9
$PUCSYDIR
 10
0.0
 20
1.0
 30
0.0
  9
$USERI1
 70
     0
  9
$USERI2
 70
     1
  9
$USERI3
 70
     0
  9
$USERI4
 70
     0
  9
$USERI5
 70
     0
  9
$USERR1
 40
0.0
  9
$USERR2
 40
0.0
  9
$USERR3
 40
0.0
  9
$USERR4
 40
0.0
  9
$USERR5
 40
0.0
  9
$WORLDVIEW
 70
     1
  9
$SHADEDGE
 70
     3
  9
$SHADEDIF
 70
    70
  9
$TILEMODE
 70
     1
  9
$MAXACTVP
 70
    16
  9
$PLIMCHECK
 70
     0
  9
$PEXTMIN
 10
1.0000000000000000E+20
 20
1.0000000000000000E+20
 30
1.0000000000000000E+20
  9
$PEXTMAX
 10
-1.0000000000000000E+20
 20
-1.0000000000000000E+20
 30
-1.0000000000000000E+20
  9
$PLIMMIN
 10
0.0
 20
0.0
  9
$PLIMMAX
 10
12.0
 20
9.0
  9
$UNITMODE
 70
     0
  9
$VISRETAIN
 70
     0
  9
$PLINEGEN
 70
     0
  9
$PSLTSCALE
 70
     0
  0
ENDSEC
  0
SECTION
  2
TABLES
  0
TABLE
  2
VPORT
 70
     1
  0
VPORT
  2
*ACTIVE
 70
     0
 10
0.0
 20
0.0
 11
1.0
 21
1.0
 12
69.1677323075542461
 22
42.7634359248760774
 13
0.0
 23
0.0
 14
10.0
 24
10.0
 15
10.0
 25
10.0
 16
0.0
 26
0.0
 36
1.0
 17
0.0
 27
0.0
 37
0.0
 40
92.2367990547317902
 41
2.3485221674876842
 42
50.0
 43
0.0
 44
0.0
 50
0.0
 51
0.0
 71
     0
 72
   100
 73
     1
 74
     0
 75
     0
 76
     0
 77
     0
 78
     0
  0
ENDTAB
  0
TABLE
  2
LTYPE
 70
     4
  0
LTYPE
  2
CONTINUOUS
 70
     0
  3
Solid Line
 72
    65
 73
     0
 40
0.0
  0
LTYPE
  2
CENTER
 70
     0
  3
____ _ ____ _ ____ _ ____ _ ____ _ ____ _ ____
 72
    65
 73
     4
 40
2.0
 49
1.25
 49
-0.25
 49
0.25
 49
-0.25
  0
LTYPE
  2
HIDDEN
 70
     0
  3
Hidden __ __ __ __ __ __ __ __ __ __ __ __ __ _
 72
    65
 73
     2
 40
0.375
 49
0.25
 49
-0.125
  0
LTYPE
  2
PHANTOM2
 70
     0
  3
___ _ _ ___ _ _ ___ _ _ ___ _ _
 72
    65
 73
     6
 40
1.25
 49
0.625
 49
-0.125
 49
0.125
 49
-0.125
 49
0.125
 49
-0.125
  0
ENDTAB
  0
TABLE
  2
LAYER
 70
     4
  0
LAYER
  2
0
 70
     0
 62
     7
  6
CONTINUOUS
  0
LAYER
  2
1
 70
     0
 62
     1
  6
CENTER
  0
LAYER
  2
3
 70
     0
 62
     3
  6
CONTINUOUS
  0
LAYER
  2
2
 70
     0
 62
     2
  6
HIDDEN
  0
ENDTAB
  0
TABLE
  2
STYLE
 70
     2
  0
STYLE
  2
STANDARD
 70
     0
 40
0.0
 41
1.0
 50
0.0
 71
     0
 42
0.2
  3
TXT
  4
BIGFONT
  0
STYLE
  2
STANDARD1
 70
     0
 40
0.0
 41
1.0
 50
0.0
 71
     0
 42
3.0
  3
txt
  4

  0
ENDTAB
  0
TABLE
  2
VIEW
 70
     1
  0
VIEW
  2
ALL
 70
     0
 40
270.0
 10
220.9915970000000129
 20
135.0
 41
0.0
 11
0.0
 21
0.0
 31
1.0
 12
0.0
 22
0.0
 32
0.0
 42
0.0
 43
0.0
 44
0.0
 50
0.0
 71
     0
  0
ENDTAB
  0
TABLE
  2
UCS
 70
     0
  0
ENDTAB
  0
TABLE
  2
APPID
 70
     6
  0
APPID
  2
ACAD
 70
     0
  0
APPID
  2
ACAD_EXEMPT_FROM_CAD_STANDARDS
 70
     0
  0
APPID
  2
ACAD_MLEADERVER
 70
     0
  0
APPID
  2
ACAD_NAV_VCDISPLAY
 70
     0
  0
APPID
  2
ACAD_DSTYLE_DIMJAG
 70
     0
  0
APPID
  2
ACAD_DSTYLE_DIMTALN
 70
     0
  0
ENDTAB
  0
TABLE
  2
DIMSTYLE
 70
     1
  0
DIMSTYLE
  2
STANDARD
 70
     0
  3

  4

  5

  6

  7

 40
1.0
 41
0.18
 42
0.0625
 43
0.38
 44
0.18
 45
0.0
 46
0.0
 47
0.0
 48
0.0
140
0.18
141
0.09
142
0.0
143
25.3999999999999986
144
1.0
145
0.0
146
1.0
147
0.09
 71
     0
 72
     0
 73
     1
 74
     1
 75
     0
 76
     0
 77
     0
 78
     0
170
     0
171
     2
172
     0
173
     0
174
     0
175
     0
176
     0
177
     0
178
     0
  0
ENDTAB
  0
ENDSEC
  0
SECTION
  2
BLOCKS
  0
BLOCK
  8
0
  2
$MODEL_SPACE
 70
     0
 10
0.0
 20
0.0
 30
0.0
  3
$MODEL_SPACE
  1

  0
ENDBLK
  5
E8
  8
0
  0
BLOCK
 67
     1
  8
0
  2
$PAPER_SPACE
 70
     0
 10
0.0
 20
0.0
 30
0.0
  3
$PAPER_SPACE
  1

  0
ENDBLK
  5
E6
 67
     1
  8
0
  0
ENDSEC
  0
SECTION
  2
ENTITIES
  0
TEXT
  5
E87
  8
0
 62
     3
 10
0.0
 20
0.0
 30
0.0
 40
10.0
  1
KCL04A-SUS
  7
STANDARD1
  0
CIRCLE
  5
1407
  8
0
 10
70.3632593957769501
 20
79.7313997879846994
 30
0.0
 40
1.6209999999999991
  0
CIRCLE
  5
1408
  8
3
 10
70.3632593957769501
 20
79.7313997879846994
 30
0.0
 40
2.0
  0
LINE
  5
1411
  8
2
 10
34.7179721034335316
 20
40.2127027225438596
 30
0.0
 11
34.7179721034335174
 21
46.2127027225438667
 31
0.0
  0
LINE
  5
1412
  8
2
 10
35.0969721034337923
 20
40.2127027225438596
 30
0.0
 11
35.0969721034337923
 21
46.2127027225438667
 31
0.0
  0
LINE
  5
1413
  8
2
 10
31.4759721034340387
 20
40.2127027225438596
 30
0.0
 11
31.47597210343406
 21
46.2127027225438667
 31
0.0
  0
LINE
  5
1414
  8
2
 10
31.0969721034337887
 20
40.2127027225438596
 30
0.0
 11
31.0969721034337816
 21
46.2127027225438667
 31
0.0
  0
LINE
  5
1661
  8
0
 10
75.7132593957769018
 20
34.8127027225438326
 30
0.0
 11
75.7132593957769018
 21
37.0127027225440486
 31
0.0
  0
LINE
  5
1662
  8
0
 10
65.0132593957769132
 20
37.0127027225440486
 30
0.0
 11
65.0132593957769132
 21
34.8127027225438326
 31
0.0
  0
LINE
  5
1663
  8
0
 10
65.0132593957755347
 20
34.8127027225438326
 30
0.0
 11
65.6132593957755716
 21
34.2127027225438667
 31
0.0
  0
LINE
  5
1664
  8
0
 10
75.1132593957783001
 20
34.2127027225438667
 30
0.0
 11
75.713259395778266
 21
34.8127027225438326
 31
0.0
  0
LINE
  5
1665
  8
0
 10
65.6132593957755716
 20
37.6127027225430481
 30
0.0
 11
65.0132593957765721
 21
37.0127027225440486
 31
0.0
  0
LINE
  5
1666
  8
0
 10
75.7132593957772997
 20
37.0127027225440486
 30
0.0
 11
75.1132593957783001
 21
37.6127027225430481
 31
0.0
  0
LINE
  5
1667
  8
0
 10
75.7132593957767313
 20
37.0127027225441623
 30
0.0
 11
72.1549066824947261
 21
37.0127027225441623
 31
0.0
  0
LINE
  5
1668
  8
0
 10
68.5716121090593447
 20
37.0127027225441125
 30
0.0
 11
65.0132593957767995
 21
37.0127027225440486
 31
0.0
  0
LINE
  5
1669
  8
0
 10
65.0132593957769132
 20
34.8127027225438326
 30
0.0
 11
75.7132593957769018
 21
34.8127027225438326
 31
0.0
  0
LINE
  5
166A
  8
0
 10
65.6132593957755716
 20
34.2127027225438667
 30
0.0
 11
75.1132593957782717
 21
34.2127027225438667
 31
0.0
  0
LINE
  5
166B
  8
0
 10
67.3482967094412572
 20
37.6127027225434816
 30
0.0
 11
65.6132593957759696
 21
37.6127027225432826
 31
0.0
  0
LINE
  5
166C
  8
0
 10
75.1132593957779022
 20
37.6127027225432826
 30
0.0
 11
73.4516550047146239
 21
37.6127027225434603
 31
0.0
  0
CIRCLE
  5
166D
  8
0
 10
70.3632593957769359
 20
43.2127027225438667
 30
0.0
 40
3.0000000000427458
  0
ARC
  5
166E
  8
0
 10
88.794781908212201
 20
-35.878809017617499
 30
0.0
 40
79.7000000001292506
 50
82.0897321241978943
 51
83.6112823396196774
  0
LINE
  5
166F
  8
0
 10
96.3632593957768222
 20
43.4630594005306321
 30
0.0
 11
97.6632593957769046
 21
43.3262420023342827
 31
0.0
  0
ARC
  5
1670
  8
0
 10
92.9632593957766744
 20
4.9127027225431732
 30
0.0
 40
42.3000000000007006
 50
80.7491910297115538
 51
85.3896920845549801
  0
ARC
  5
1671
  8
0
 10
92.9632593957768876
 20
4.9127027225482323
 30
0.0
 40
38.6999999999956401
 50
84.9597641405644595
 51
90.8883422500393436
  0
ARC
  5
1672
  8
0
 10
92.9632593957768876
 20
4.9127027225434574
 30
0.0
 40
42.3000000000004022
 50
85.3896920845549801
 51
90.8127333472064322
  0
ARC
  5
1673
  8
0
 10
92.9632593957767881
 20
4.9127027225502777
 30
0.0
 40
38.6999999999936009
 50
90.8883422500376952
 51
95.1132898591220766
  0
ARC
  5
1674
  8
0
 10
92.9632593957766744
 20
4.9127027225430018
 30
0.0
 40
42.3000000000008711
 50
90.8127333472064322
 51
94.6771016110746473
  0
ARC
  5
1675
  8
0
 10
105.163259395777402
 20
43.1437337286073088
 30
0.0
 40
0.9999999999989171
 50
258.4630409612634026
 51
323.1301023541898871
  0
LINE
  5
1676
  8
0
 10
105.8683441841119048
 20
45.1960589209278609
 30
0.0
 11
105.9632593957769018
 21
45.1602488675993925
 31
0.0
  0
ARC
  5
1677
  8
0
 10
88.7908404006306569
 20
-35.9016102180472387
 30
0.0
 40
79.7231266849835976
 50
78.2959033303234548
 51
82.0891815719912046
  0
ARC
  5
1678
  8
0
 10
92.9623319042332241
 20
4.9088415310719986
 30
0.0
 40
42.3039600745117497
 50
72.2371366137183344
 51
80.7487918698480769
  0
ARC
  5
1679
  8
0
 10
76.7775823135131077
 20
95.2925977932132753
 30
0.0
 40
49.6999999999904389
 50
277.6145784739355236
 51
283.4803703897890159
  0
LINE
  5
167A
  8
0
 10
85.1632593957769473
 20
42.2127027225438098
 30
0.0
 11
83.3632593957765238
 21
41.8877188217224727
 31
0.0
  0
ARC
  5
167B
  8
0
 10
93.0630103708726466
 20
24.0526657576764684
 30
0.0
 40
19.8038634623115115
 50
102.5397435605685956
 51
113.5093981044690992
  0
LINE
  5
167C
  8
0
 10
88.7632593957769132
 20
43.3841206844542384
 30
0.0
 11
89.5141092025706371
 21
43.4586929542748805
 31
0.0
  0
LINE
  5
167D
  8
0
 10
88.3632593957771064
 20
46.9618406447414998
 30
0.0
 11
89.5141092025706371
 21
47.0718460125195506
 31
0.0
  0
ARC
  5
167E
  8
0
 10
75.3277341912616833
 20
91.5417250517064929
 30
0.0
 40
50.2999999999968779
 50
275.0589938723127261
 51
279.192501256591413
  0
ARC
  5
167F
  8
0
 10
81.6632593957768904
 20
31.2127027225439804
 30
0.0
 40
10.3999999999998796
 50
100.5266185500537972
 51
122.5789703928046066
  0
ARC
  5
1680
  8
0
 10
80.859326390194326
 20
65.4521790194881703
 30
0.0
 40
20.0000000000006004
 50
245.8075178616429923
 51
257.3025169558638936
  0
ARC
  5
1681
  8
0
 10
79.4632593957769018
 20
65.5127027225433665
 30
0.0
 40
19.7999999999995104
 50
261.2852579813816192
 51
275.7973395408441206
  0
ARC
  5
1682
  8
0
 10
79.7763296445871219
 20
34.7634803815077191
 30
0.0
 40
6.4000000000000021
 50
125.4623053106660961
 51
143.0268291306375943
  0
ARC
  5
1683
  8
0
 10
70.3632593957769359
 20
42.2127027225438596
 30
0.0
 40
5.5000000000000089
 50
65.2801488170776452
 51
293.5781784782021759
  0
ARC
  5
1684
  8
0
 10
70.5280491403016754
 20
42.3889490258207715
 30
0.0
 40
5.6000000000000068
 50
291.3110188876879079
 51
317.5978810614341228
  0
ARC
  5
1685
  8
0
 10
76.7775823135110045
 20
95.2925977932245303
 30
0.0
 40
49.7000000000019213
 50
275.4098357876877117
 51
277.614578473937172
  0
LINE
  5
1686
  8
0
 10
106.1030528192653009
 20
42.8019906655216786
 30
0.0
 11
106.5030528192653065
 21
43.9019906655216516
 31
0.0
  0
ARC
  5
1687
  8
0
 10
105.5632593958503946
 20
44.2437337286563874
 30
0.0
 40
0.9999999999265298
 50
359.9999999972382057
 51
66.4218215245536641
  0
ARC
  5
1688
  8
0
 10
105.5632593961511958
 20
44.2437337285423098
 30
0.0
 40
0.9999999996257145
 50
340.0168934743247746
 51
0.0000000037747332
  0
ARC
  5
1689
  8
0
 10
105.1632593957874064
 20
43.1437337286028182
 30
0.0
 40
0.9999999999882255
 50
323.1301023540514734
 51
340.0168934781967209
  0
LINE
  5
168A
  8
0
 10
38.4485990926786769
 20
34.8127027225438326
 30
0.0
 11
38.4485990926786769
 21
36.7127027225438667
 31
0.0
  0
LINE
  5
168B
  8
0
 10
27.7485990926786599
 20
36.7127027225438667
 30
0.0
 11
27.7485990926786599
 21
34.8127027225438326
 31
0.0
  0
LINE
  5
168C
  8
0
 10
27.7485990926772992
 20
34.8127027225438326
 30
0.0
 11
28.3485990926773184
 21
34.2127027225438667
 31
0.0
  0
LINE
  5
168D
  8
0
 10
37.8485990926800469
 20
34.2127027225438667
 30
0.0
 11
38.4485990926800412
 21
34.8127027225438326
 31
0.0
  0
LINE
  5
168E
  8
0
 10
34.5985990926018872
 20
46.2127027225438667
 30
0.0
 11
33.9194076789241592
 21
46.0318588009177674
 31
0.0
  0
LINE
  5
168F
  8
0
 10
34.5985990926583327
 20
40.2127027225438596
 30
0.0
 11
35.1985990926787125
 21
40.2127027225438596
 31
0.0
  0
LINE
  5
1690
  8
0
 10
30.9985990926786883
 20
40.2127027225438596
 30
0.0
 11
31.598599092699029
 21
40.2127027225438596
 31
0.0
  0
LINE
  5
1691
  8
0
 10
31.5985990927554496
 20
46.2127027225438667
 30
0.0
 11
30.9985990926786883
 21
46.2127027225438667
 31
0.0
  0
LINE
  5
1692
  8
0
 10
35.1985990926787125
 20
46.2127027225438667
 30
0.0
 11
34.5985990926018872
 21
46.2127027225438667
 31
0.0
  0
LINE
  5
1693
  8
0
 10
27.3485990926786791
 20
36.7127027225438667
 30
0.0
 11
27.7485990926786883
 21
36.7127027225438667
 31
0.0
  0
LINE
  5
1694
  8
0
 10
30.9985990926786599
 20
47.7127027225438596
 30
0.0
 11
27.3485990926786791
 21
47.7127027225438596
 31
0.0
  0
LINE
  5
1695
  8
0
 10
38.4485990926786769
 20
36.7127027225438667
 30
0.0
 11
38.8485990926786826
 21
36.7127027225438667
 31
0.0
  0
LINE
  5
1696
  8
0
 10
38.8485990926786826
 20
47.7127027225438596
 30
0.0
 11
35.1985990926787125
 21
47.7127027225438596
 31
0.0
  0
LINE
  5
1697
  8
0
 10
40.0774673065504317
 20
47.2127027225438596
 30
0.0
 11
38.8485990926787679
 21
47.2127027225438596
 31
0.0
  0
LINE
  5
1698
  8
0
 10
35.1985990926787622
 20
47.2127027225438596
 30
0.0
 11
30.99859909267877
 21
47.2127027225438596
 31
0.0
  0
LINE
  5
1699
  8
0
 10
27.3485990926787714
 20
47.2127027225438596
 30
0.0
 11
26.1198411260544994
 21
47.2127027225438596
 31
0.0
  0
POLYLINE
  5
169A
  8
0
 66
     1
 10
0.0
 20
0.0
 30
0.0
 70
   128
  0
VERTEX
  5
177A
  8
0
 10
28.0754028990186306
 20
37.0127027225437573
 30
0.0
  0
VERTEX
  5
177B
  8
0
 10
27.8872379005594908
 20
36.8403323648603589
 30
0.0
  0
VERTEX
  5
177C
  8
0
 10
27.7747297987846196
 20
36.7367972300285999
 30
0.0
  0
VERTEX
  5
177D
  8
0
 10
27.7561273235917589
 20
36.7196448483875599
 30
0.0
  0
SEQEND
  5
177E
  8
0
  0
LINE
  5
169B
  8
0
 10
38.121795286338461
 20
37.0127027225441125
 30
0.0
 11
28.075402899018119
 21
37.0127027225437075
 31
0.0
  0
POLYLINE
  5
169C
  8
0
 66
     1
 10
0.0
 20
0.0
 30
0.0
 70
   128
  0
VERTEX
  5
177F
  8
0
 10
38.4410708617656383
 20
36.7196448483875599
 30
0.0
  0
VERTEX
  5
1780
  8
0
 10
38.4464275284679502
 20
36.7147057426691106
 30
0.0
  0
VERTEX
  5
1781
  8
0
 10
38.3807395564104183
 20
36.7752374391114074
 30
0.0
  0
VERTEX
  5
1782
  8
0
 10
38.2748783397030081
 20
36.8725460896856418
 30
0.0
  0
VERTEX
  5
1783
  8
0
 10
38.1217952863379992
 20
37.0127027225444465
 30
0.0
  0
SEQEND
  5
1784
  8
0
  0
LINE
  5
169D
  8
0
 10
27.7485990926786599
 20
34.8127027225438326
 30
0.0
 11
38.4485990926786769
 21
34.8127027225438326
 31
0.0
  0
LINE
  5
169E
  8
0
 10
28.3485990926773184
 20
34.2127027225438667
 30
0.0
 11
37.8485990926800469
 21
34.2127027225438667
 31
0.0
  0
ARC
  5
169F
  8
0
 10
29.4634356273845093
 20
18.4299175239712802
 30
0.0
 40
20.50090480247394
 50
65.0175669411489991
 51
68.9943813691667316
  0
ARC
  5
16A0
  8
0
 10
36.808114610864493
 20
18.2547042720035186
 30
0.0
 40
20.6911275602054303
 50
111.0239061859531944
 51
114.9641455037255042
  0
POLYLINE
  5
16A1
  8
0
 66
     1
 10
0.0
 20
0.0
 30
0.0
 70
   128
  0
VERTEX
  5
1785
  8
0
 10
29.3850185121582683
 20
37.5684404207155183
 30
0.0
  0
VERTEX
  5
1786
  8
0
 10
29.5447927290517214
 20
37.6107237058127808
 30
0.0
  0
VERTEX
  5
1787
  8
0
 10
29.5783008098664517
 20
37.6127027225510133
 30
0.0
  0
SEQEND
  5
1788
  8
0
  0
LINE
  5
16A2
  8
0
 10
36.6188973754962035
 20
37.6127027225434531
 30
0.0
 11
29.5783008098611617
 21
37.6127027225434531
 31
0.0
  0
POLYLINE
  5
16A3
  8
0
 66
     1
 10
0.0
 20
0.0
 30
0.0
 70
   128
  0
VERTEX
  5
1789
  8
0
 10
36.6188973754954716
 20
37.6127027225438368
 30
0.0
  0
VERTEX
  5
178A
  8
0
 10
36.7308325616253128
 20
37.5951915490672732
 30
0.0
  0
VERTEX
  5
178B
  8
0
 10
36.8121796731991324
 20
37.5684404207155183
 30
0.0
  0
SEQEND
  5
178C
  8
0
  0
ARC
  5
16A4
  8
0
 10
33.0974399048304804
 20
50.4655087346931808
 30
0.0
 40
4.509199791195214
 50
250.5857210867679044
 51
280.5029901024416858
  0
LINE
  5
16A5
  8
0
 10
30.9985990926786599
 20
37.6127027225430481
 30
0.0
 11
30.9985990926786599
 21
47.7127027225438596
 31
0.0
  0
LINE
  5
16A6
  8
0
 10
27.3485990926786791
 20
47.7127027225438596
 30
0.0
 11
27.3485990926786791
 21
36.7127027225438667
 31
0.0
  0
LINE
  5
16A7
  8
0
 10
38.8485990926786826
 20
36.7127027225438667
 30
0.0
 11
38.8485990926786826
 21
47.7127027225438596
 31
0.0
  0
LINE
  5
16A8
  8
0
 10
35.1985990926787125
 20
47.7127027225438596
 30
0.0
 11
35.1985990926787125
 21
37.6127027225430481
 31
0.0
  0
POLYLINE
  5
16A9
  8
0
 66
     1
 10
0.0
 20
0.0
 30
0.0
 70
   128
  0
VERTEX
  5
178D
  8
0
 10
34.9985990926786599
 20
46.6422488386657221
 30
0.0
  0
VERTEX
  5
178E
  8
0
 10
35.0618450937989223
 20
46.6459602251357808
 30
0.0
  0
VERTEX
  5
178F
  8
0
 10
35.11792386521239
 20
46.656565666835057
 30
0.0
  0
VERTEX
  5
1790
  8
0
 10
35.1622692163360568
 20
46.6731975670964729
 30
0.0
  0
VERTEX
  5
1791
  8
0
 10
35.1907439106002826
 20
46.6950858366228871
 30
0.0
  0
VERTEX
  5
1792
  8
0
 10
35.1985990926787125
 20
46.7157159965574635
 30
0.0
  0
SEQEND
  5
1793
  8
0
  0
ARC
  5
16AA
  8
0
 10
35.0111466351967522
 20
37.8556266657366507
 30
0.0
 40
0.1906620695524221
 50
10.5279274691252898
 51
93.7733839102029805
  0
POLYLINE
  5
16AB
  8
0
 66
     1
 10
0.0
 20
0.0
 30
0.0
 70
   128
  0
VERTEX
  5
1794
  8
0
 10
30.9985990926786599
 20
46.7157159965574635
 30
0.0
  0
VERTEX
  5
1795
  8
0
 10
31.0110946250887913
 20
46.6898804550582085
 30
0.0
  0
VERTEX
  5
1796
  8
0
 10
31.0477936237713301
 20
46.6671872433086321
 30
0.0
  0
VERTEX
  5
1797
  8
0
 10
31.1030549744728511
 20
46.6510453744730498
 30
0.0
  0
VERTEX
  5
1798
  8
0
 10
31.167132799561049
 20
46.6431489670452208
 30
0.0
  0
VERTEX
  5
1799
  8
0
 10
31.1985990926786485
 20
46.6422488386657221
 30
0.0
  0
SEQEND
  5
179A
  8
0
  0
ARC
  5
16AC
  8
0
 10
31.1798282545144083
 20
37.8636354385330094
 30
0.0
 40
0.1832041234423367
 50
84.1192346759070091
 51
171.5794539447734905
  0
LINE
  5
16AD
  8
0
 10
34.9985990926786599
 20
46.6422488386657221
 30
0.0
 11
31.1985990926786805
 21
46.6422488386657221
 31
0.0
  0
LINE
  5
16AE
  8
0
 10
34.9985990926786599
 20
38.0458754080262622
 30
0.0
 11
31.1985990926786805
 21
38.0458754080262622
 31
0.0
  0
ARC
  5
16AF
  8
0
 10
25.3469316431427387
 20
46.0400444718356709
 30
0.0
 40
2.0184888815780249
 50
7.402152015714738
 51
27.1728467233964892
  0
ARC
  5
16B0
  8
0
 10
40.8574114917277527
 20
46.0378224942019969
 30
0.0
 40
2.0258603966896618
 50
152.8635294200402939
 51
172.5616846229399073
  0
LINE
  5
16B1
  8
0
 10
26.9985990926786883
 20
47.0718460125195506
 30
0.0
 11
27.1426457575469193
 21
46.9618406447414998
 31
0.0
  0
ARC
  5
16B2
  8
0
 10
24.595693793870911
 20
42.2334738768810993
 30
0.0
 40
2.753030868213119
 50
0.5472372592953345
 51
24.7056321063652184
  0
LINE
  5
16B3
  8
0
 10
27.096731755509321
 20
43.3841206844542384
 30
0.0
 11
26.9985990926786883
 21
43.4586929542748805
 31
0.0
  0
LINE
  5
16B4
  8
0
 10
39.054552427810421
 20
46.9618406447414998
 30
0.0
 11
39.1985990926786769
 21
47.0718460125195506
 31
0.0
  0
LINE
  5
16B5
  8
0
 10
39.1004664298479909
 20
43.3841206844542384
 30
0.0
 11
39.1985990926786485
 21
43.4586929542748805
 31
0.0
  0
ARC
  5
16B6
  8
0
 10
41.5956281051630512
 20
42.2347964928249198
 30
0.0
 40
2.7471399460940189
 50
155.2682038413690861
 51
179.4850912498104947
  0
POLYLINE
  5
16B7
  8
0
 66
     1
 10
0.0
 20
0.0
 30
0.0
 70
   128
  0
VERTEX
  5
179B
  8
0
 10
39.9985990926787807
 20
47.2084471893338886
 30
0.0
  0
VERTEX
  5
179C
  8
0
 10
40.1288857757655819
 20
47.2108938797676672
 30
0.0
  0
VERTEX
  5
179D
  8
0
 10
40.2225174279286932
 20
47.1899172967552829
 30
0.0
  0
VERTEX
  5
179E
  8
0
 10
40.2793041523833608
 20
47.1449547754079603
 30
0.0
  0
VERTEX
  5
179F
  8
0
 10
40.2985990926786073
 20
47.075838279568039
 30
0.0
  0
SEQEND
  5
17A0
  8
0
  0
ARC
  5
16B8
  8
0
 10
40.6913041009599965
 20
40.7407580523675108
 30
0.0
 40
6.5046785470867716
 50
96.1132116592250867
 51
103.2665620613861961
  0
ARC
  5
16B9
  8
0
 10
25.5085059950405899
 20
40.7560546154233805
 30
0.0
 40
6.489190890339378
 50
76.7248903948048593
 51
83.8953358845825932
  0
POLYLINE
  5
16BA
  8
0
 66
     1
 10
0.0
 20
0.0
 30
0.0
 70
   128
  0
VERTEX
  5
17A1
  8
0
 10
25.8985990926787011
 20
47.075838279568103
 30
0.0
  0
VERTEX
  5
17A2
  8
0
 10
25.9175275028325984
 20
47.1444019829415026
 30
0.0
  0
VERTEX
  5
17A3
  8
0
 10
25.9735144810443899
 20
47.1894034199113719
 30
0.0
  0
VERTEX
  5
17A4
  8
0
 10
26.0672224496417506
 20
47.2108031454329975
 30
0.0
  0
VERTEX
  5
17A5
  8
0
 10
26.1985990926787586
 20
47.2084471893338886
 30
0.0
  0
SEQEND
  5
17A6
  8
0
  0
ARC
  5
16BB
  8
0
 10
40.6960869985843701
 20
37.6549564402328869
 30
0.0
 40
5.9938157756773043
 50
96.6825311663880029
 51
104.4679750386488024
  0
POLYLINE
  5
16BC
  8
0
 66
     1
 10
0.0
 20
0.0
 30
0.0
 70
   128
  0
VERTEX
  5
17A7
  8
0
 10
39.9985990926787167
 20
43.6080512802193709
 30
0.0
  0
VERTEX
  5
17A8
  8
0
 10
40.1288748600770688
 20
43.6107265864289104
 30
0.0
  0
VERTEX
  5
17A9
  8
0
 10
40.2225075791948186
 20
43.5878011140211115
 30
0.0
  0
VERTEX
  5
17AA
  8
0
 10
40.2793045916941992
 20
43.5386403535478905
 30
0.0
  0
VERTEX
  5
17AB
  8
0
 10
40.2985990926786712
 20
43.4630594005306321
 30
0.0
  0
SEQEND
  5
17AC
  8
0
  0
LINE
  5
16BD
  8
0
 10
40.2985990926786073
 20
43.4630594005306321
 30
0.0
 11
40.2192883660464986
 21
43.3262420023342827
 31
0.0
  0
LINE
  5
16BE
  8
0
 10
25.9779098193108702
 20
43.3262420023342827
 30
0.0
 11
25.8985990926787188
 21
43.4630594005306321
 31
0.0
  0
POLYLINE
  5
16BF
  8
0
 66
     1
 10
0.0
 20
0.0
 30
0.0
 70
   128
  0
VERTEX
  5
17AD
  8
0
 10
25.8985990926787011
 20
43.4630594005306321
 30
0.0
  0
VERTEX
  5
17AE
  8
0
 10
25.9175066329191814
 20
43.5380020039896394
 30
0.0
  0
VERTEX
  5
17AF
  8
0
 10
25.9734589173960515
 20
43.5872076477958998
 30
0.0
  0
VERTEX
  5
17B0
  8
0
 10
26.0671720913964009
 20
43.6106217828336398
 30
0.0
  0
VERTEX
  5
17B1
  8
0
 10
26.1985990926787302
 20
43.6080512802193709
 30
0.0
  0
SEQEND
  5
17B2
  8
0
  0
ARC
  5
16C0
  8
0
 10
25.5038033013297607
 20
37.6693760692146213
 30
0.0
 40
5.9791809182761977
 50
75.5224822542414813
 51
83.3270115407217276
  0
LINE
  5
16C1
  8
0
 10
25.8985990926787011
 20
47.075838279568103
 30
0.0
 11
25.8985990926787011
 21
43.4630594005306321
 31
0.0
  0
LINE
  5
16C2
  8
0
 10
40.2985990926786073
 20
47.075838279568039
 30
0.0
 11
40.2985990926786712
 21
43.4630594005306321
 31
0.0
  0
ARC
  5
16C3
  8
0
 10
37.6430169017947875
 20
47.2425486801434076
 30
0.0
 40
4.7977920729957884
 50
284.9481979072713216
 51
299.4044968698786988
  0
ARC
  5
16C4
  8
0
 10
28.6315476799077295
 20
47.4348983122177117
 30
0.0
 40
5.0034201211321969
 50
240.9051325658552116
 51
254.7609697125533899
  0
ARC
  5
16C5
  8
0
 10
38.2998724864039275
 20
44.7101995993056391
 30
0.0
 40
2.366325410681938
 50
315.879340203788388
 51
324.2072424974068099
  0
ARC
  5
16C6
  8
0
 10
27.7515213165468708
 20
44.5880428101192834
 30
0.0
 40
2.176657764016813
 50
215.4291963222445077
 51
224.484220976553388
  0
LINE
  5
16C7
  8
0
 10
34.9985990926786599
 20
46.6422488386657221
 30
0.0
 11
34.9985990926786599
 21
46.2127027225438667
 31
0.0
  0
LINE
  5
16C8
  8
0
 10
34.9985990926786599
 20
40.2127027225438596
 30
0.0
 11
34.9985990926786599
 21
38.0458754080262622
 31
0.0
  0
LINE
  5
16C9
  8
0
 10
31.1985990926786805
 20
38.0458754080262622
 30
0.0
 11
31.1985990926786805
 21
40.2127027225438596
 31
0.0
  0
LINE
  5
16CA
  8
0
 10
31.1985990926786805
 20
46.2127027225438667
 30
0.0
 11
31.1985990926786805
 21
46.6422488386657221
 31
0.0
  0
LINE
  5
16CB
  8
0
 10
67.3632593957769359
 20
81.8313997879846795
 30
0.0
 11
67.3632593957769359
 21
77.6313997879846909
 31
0.0
  0
LINE
  5
16CC
  8
0
 10
73.3632593957769359
 20
77.6313997879846909
 30
0.0
 11
73.3632593957769359
 21
81.8313997879846795
 31
0.0
  0
LINE
  5
16CD
  8
0
 10
64.8632593957769359
 20
85.4813997879847136
 30
0.0
 11
64.8632593957769359
 21
81.8313997879846795
 31
0.0
  0
LINE
  5
16CE
  8
0
 10
64.8632593957769359
 20
77.6313997879846909
 30
0.0
 11
64.8632593957769359
 21
73.9813997879847136
 31
0.0
  0
ARC
  5
16CF
  8
0
 10
70.3632593957769359
 20
79.7313997879847136
 30
0.0
 40
5.3499999999999952
 50
156.8883980983657125
 51
203.1116019016378971
  0
ARC
  5
16D0
  8
0
 10
70.3632593957769359
 20
79.7313997879847136
 30
0.0
 40
4.7500000000013358
 50
153.7617174556789053
 51
206.2382825443210947
  0
ARC
  5
16D1
  8
0
 10
94.6386842991726667
 20
47.9695486931424497
 30
0.0
 40
39.000000000006203
 50
82.4495364584987271
 51
87.4655614031574373
  0
ARC
  5
16D2
  8
0
 10
97.662349842217111
 20
76.8538552023805153
 30
0.0
 40
10.0007099285859091
 50
34.860995144694499
 51
77.8731914958358402
  0
ARC
  5
16D3
  8
0
 10
97.6623982500940997
 20
82.6088716045831859
 30
0.0
 40
10.0006286141331202
 50
282.1266249364009013
 51
325.1391884230692995
  0
ARC
  5
16D4
  8
0
 10
94.638684299172553
 20
111.4932508828438955
 30
0.0
 40
39.0000000000231708
 50
272.5344385968425058
 51
277.5504635414980044
  0
ARC
  5
16D5
  8
0
 10
96.3770091331971912
 20
99.5313962869343243
 30
0.0
 40
26.9999999999734897
 50
261.4508711926495721
 51
269.9708221497173213
  0
ARC
  5
16D6
  8
0
 10
95.5168722050214001
 20
89.5363309835833263
 30
0.0
 40
17.0000000000093507
 50
249.3227304178201962
 51
259.3093282033202058
  0
LINE
  5
16D7
  8
0
 10
88.3632593957771633
 20
73.7754464528529468
 30
0.0
 11
89.5141092025706371
 21
73.6313997879846909
 31
0.0
  0
LINE
  5
16D8
  8
0
 10
89.5141092025706371
 20
85.8313997879846937
 30
0.0
 11
88.3632593957771633
 21
85.6873531231164804
 31
0.0
  0
ARC
  5
16D9
  8
0
 10
95.5168722050183305
 20
69.9264685923945137
 30
0.0
 40
17.0000000000003091
 50
100.6906717966764973
 51
110.6772695821815944
  0
ARC
  5
16DA
  8
0
 10
96.3770091331997349
 20
59.9314032890190092
 30
0.0
 40
26.9999999999895692
 50
90.0291778502892157
 51
98.5491288073520337
  0
ARC
  5
16DB
  8
0
 10
73.8632593957769359
 20
77.8313997879846795
 30
0.0
 40
0.1999999999999886
 50
269.9999999999919282
 51
0.0
  0
LINE
  5
16DC
  8
0
 10
74.0632593957769245
 20
77.8313997879846795
 30
0.0
 11
74.0632593957769245
 21
81.6313997879846909
 31
0.0
  0
ARC
  5
16DD
  8
0
 10
73.8632593957768648
 20
81.6313997879845772
 30
0.0
 40
0.2000000000001023
 50
0.0000000000227982
 51
89.9999999999837144
  0
LINE
  5
16DE
  8
0
 10
73.8632593957769359
 20
77.6313997879846909
 30
0.0
 11
64.8632593957769359
 21
77.6313997879847051
 31
0.0
  0
LINE
  5
16DF
  8
0
 10
73.8632593957769359
 20
81.8313997879846795
 30
0.0
 11
64.8632593957769359
 21
81.8313997879846795
 31
0.0
  0
ARC
  5
16E0
  8
0
 10
84.3439818640581933
 20
36.9943995927827416
 30
0.0
 40
36.9999999999954667
 50
83.7637034781105569
 51
91.5188605429876958
  0
ARC
  5
16E1
  8
0
 10
84.3439818640582644
 20
122.4683999831848951
 30
0.0
 40
36.999999999993733
 50
268.4811394570123184
 51
276.2362965218911199
  0
LINE
  5
16E2
  8
0
 10
83.3632593957765238
 20
73.9813997879847136
 30
0.0
 11
64.8632593957769359
 21
73.9813997879846994
 31
0.0
  0
LINE
  5
16E3
  8
0
 10
64.8632593957769643
 20
85.4813997879847136
 30
0.0
 11
83.3632593957765238
 21
85.4813997879847136
 31
0.0
  0
ARC
  5
16E4
  8
0
 10
100.0633186940427066
 20
79.7591643883701238
 30
0.0
 40
6.4999999999304343
 50
335.1871229293109877
 51
359.7552616523317965
  0
ARC
  5
16E5
  8
0
 10
100.0633186940066963
 20
79.7036351875912743
 30
0.0
 40
6.4999999999664499
 50
0.2447383475899847
 51
24.8128770706199511
  0
LINE
  5
16E6
  8
0
 10
105.8683441841119048
 20
76.8926644699708675
 30
0.0
 11
105.9632593957769018
 21
77.0313997879846681
 31
0.0
  0
ARC
  5
16E7
  8
0
 10
97.6627724778179953
 20
76.854490527370416
 30
0.0
 40
9.9999999988166124
 50
33.8962598376819386
 51
34.859392369009008
  0
LINE
  5
16E9
  8
1
 10
61.3632593435769422
 20
79.7313997879846994
 30
0.0
 11
109.563261231588001
 21
79.7313997879846994
 31
0.0
  0
LINE
  5
16EA
  8
1
 10
70.3632593957769359
 20
88.4813997991847145
 30
0.0
 11
70.3632593957769643
 21
70.9813997767846985
 31
0.0
  0
LINE
  5
16EC
  8
1
 10
70.3632593957769359
 20
31.4127032358438498
 30
0.0
 11
70.3632593957769359
 21
50.7127027225438383
 31
0.0
  0
LINE
  5
16ED
  8
1
 10
78.8632593957769359
 20
42.2127027225438525
 30
0.0
 11
61.8632593957769288
 21
42.2127027225438525
 31
0.0
  0
LINE
  5
16EE
  8
1
 10
78.8632593957769359
 20
43.2127027225438667
 30
0.0
 11
61.8632593957769288
 21
43.2127027225438667
 31
0.0
  0
LINE
  5
16EF
  8
0
 10
34.5985990926018872
 20
40.2127027225438596
 30
0.0
 11
33.9194076789241592
 21
40.3935466441699589
 31
0.0
  0
ARC
  5
16F0
  8
0
 10
33.0974399048304804
 20
35.9598967103945597
 30
0.0
 40
4.509199791195214
 50
79.4970098975583142
 51
109.4142789132320956
  0
LINE
  5
16F5
  8
1
 10
33.0969721034689428
 20
50.7127027225438667
 30
0.0
 11
33.0969721036197484
 21
31.4127028484438391
 31
0.0
  0
LINE
  5
16F6
  8
1
 10
22.896972103621291
 20
43.2127027225438667
 30
0.0
 11
43.2969721036212931
 21
43.2127027225438667
 31
0.0
  0
ENDSEC
  0
EOF
