  0
SECTION
  2
HEADER
  9
$ACADVER
  1
AC1009
  9
$INSBASE
 10
0.0
 20
0.0
 30
0.0
  9
$EXTMIN
 10
0.0
 20
-2.960436562073669
 30
0.0
  9
$EXTMAX
 10
137.0428473347598981
 20
98.4885385623051945
 30
0.0
  9
$LIMMIN
 10
0.0
 20
0.0
  9
$LIMMAX
 10
375.0
 20
270.0
  9
$ORTHOMODE
 70
     1
  9
$REGENMODE
 70
     1
  9
$FILLMODE
 70
     1
  9
$QTEXTMODE
 70
     0
  9
$MIRRTEXT
 70
     0
  9
$DRAGMODE
 70
     2
  9
$LTSCALE
 40
5.0
  9
$OSMODE
 70
    37
  9
$ATTMODE
 70
     1
  9
$TEXTSIZE
 40
0.2
  9
$TRACEWID
 40
0.05
  9
$TEXTSTYLE
  7
STANDARD
  9
$CLAYER
  8
0
  9
$CELTYPE
  6
BYLAYER
  9
$CECOLOR
 62
   256
  9
$DIMSCALE
 40
1.0
  9
$DIMASZ
 40
3.0
  9
$DIMEXO
 40
2.0
  9
$DIMDLI
 40
10.0
  9
$DIMRND
 40
0.0
  9
$DIMDLE
 40
0.0
  9
$DIMEXE
 40
2.0
  9
$DIMTP
 40
0.0
  9
$DIMTM
 40
0.0
  9
$DIMTXT
 40
3.2000000000000002
  9
$DIMCEN
 40
0.09
  9
$DIMTSZ
 40
0.0
  9
$DIMTOL
 70
     0
  9
$DIMLIM
 70
     0
  9
$DIMTIH
 70
     0
  9
$DIMTOH
 70
     0
  9
$DIMSE1
 70
     0
  9
$DIMSE2
 70
     0
  9
$DIMTAD
 70
     1
  9
$DIMZIN
 70
     8
  9
$DIMBLK
  1

  9
$DIMASO
 70
     0
  9
$DIMSHO
 70
     0
  9
$DIMPOST
  1

  9
$DIMAPOST
  1

  9
$DIMALT
 70
     0
  9
$DIMALTD
 70
     2
  9
$DIMALTF
 40
25.3999999999999986
  9
$DIMLFAC
 40
1.0
  9
$DIMTOFL
 70
     1
  9
$DIMTVP
 40
1.6000000000000001
  9
$DIMTIX
 70
     0
  9
$DIMSOXD
 70
     0
  9
$DIMSAH
 70
     0
  9
$DIMBLK1
  1

  9
$DIMBLK2
  1

  9
$DIMSTYLE
  2
STANDARD
  9
$DIMCLRD
 70
     0
  9
$DIMCLRE
 70
     0
  9
$DIMCLRT
 70
     0
  9
$DIMTFAC
 40
1.0
  9
$DIMGAP
 40
0.09
  9
$LUNITS
 70
     2
  9
$LUPREC
 70
     1
  9
$SKETCHINC
 40
0.1
  9
$FILLETRAD
 40
0.0
  9
$AUNITS
 70
     0
  9
$AUPREC
 70
     0
  9
$MENU
  1
E:\r13\win\SUPPORT\ACAD
  9
$ELEVATION
 40
0.0
  9
$PELEVATION
 40
0.0
  9
$THICKNESS
 40
0.0
  9
$LIMCHECK
 70
     0
  9
$BLIPMODE
 70
     0
  9
$CHAMFERA
 40
0.0
  9
$CHAMFERB
 40
0.0
  9
$SKPOLY
 70
     0
  9
$TDCREATE
 40
2449840.6171180559322238
  9
$TDUPDATE
 40
2460566.5215624999254942
  9
$TDINDWG
 40
0.1703429398
  9
$TDUSRTIMER
 40
0.1703429398
  9
$USRTIMER
 70
     1
  9
$ANGBASE
 50
0.0
  9
$ANGDIR
 70
     0
  9
$PDMODE
 70
     0
  9
$PDSIZE
 40
0.0
  9
$PLINEWID
 40
0.0
  9
$COORDS
 70
     1
  9
$SPLFRAME
 70
     0
  9
$SPLINETYPE
 70
     6
  9
$SPLINESEGS
 70
     8
  9
$ATTDIA
 70
     1
  9
$ATTREQ
 70
     1
  9
$HANDLING
 70
     1
  9
$HANDSEED
  5
1F6D
  9
$SURFTAB1
 70
     6
  9
$SURFTAB2
 70
     6
  9
$SURFTYPE
 70
     6
  9
$SURFU
 70
     6
  9
$SURFV
 70
     6
  9
$UCSNAME
  2

  9
$UCSORG
 10
0.0
 20
0.0
 30
0.0
  9
$UCSXDIR
 10
1.0
 20
0.0
 30
0.0
  9
$UCSYDIR
 10
0.0
 20
1.0
 30
0.0
  9
$PUCSNAME
  2

  9
$PUCSORG
 10
0.0
 20
0.0
 30
0.0
  9
$PUCSXDIR
 10
1.0
 20
0.0
 30
0.0
  9
$PUCSYDIR
 10
0.0
 20
1.0
 30
0.0
  9
$USERI1
 70
     0
  9
$USERI2
 70
     1
  9
$USERI3
 70
     0
  9
$USERI4
 70
     0
  9
$USERI5
 70
     0
  9
$USERR1
 40
0.0
  9
$USERR2
 40
0.0
  9
$USERR3
 40
0.0
  9
$USERR4
 40
0.0
  9
$USERR5
 40
0.0
  9
$WORLDVIEW
 70
     1
  9
$SHADEDGE
 70
     3
  9
$SHADEDIF
 70
    70
  9
$TILEMODE
 70
     1
  9
$MAXACTVP
 70
    16
  9
$PLIMCHECK
 70
     0
  9
$PEXTMIN
 10
1.0000000000000000E+20
 20
1.0000000000000000E+20
 30
1.0000000000000000E+20
  9
$PEXTMAX
 10
-1.0000000000000000E+20
 20
-1.0000000000000000E+20
 30
-1.0000000000000000E+20
  9
$PLIMMIN
 10
0.0
 20
0.0
  9
$PLIMMAX
 10
12.0
 20
9.0
  9
$UNITMODE
 70
     0
  9
$VISRETAIN
 70
     0
  9
$PLINEGEN
 70
     0
  9
$PSLTSCALE
 70
     0
  0
ENDSEC
  0
SECTION
  2
TABLES
  0
TABLE
  2
VPORT
 70
     1
  0
VPORT
  2
*ACTIVE
 70
     0
 10
0.0
 20
0.0
 11
1.0
 21
1.0
 12
84.4821869302577255
 22
47.7614907993849371
 13
0.0
 23
0.0
 14
10.0
 24
10.0
 15
10.0
 25
10.0
 16
0.0
 26
0.0
 36
1.0
 17
0.0
 27
0.0
 37
0.0
 40
102.2820562552855961
 41
2.3485221674876842
 42
50.0
 43
0.0
 44
0.0
 50
0.0
 51
0.0
 71
     0
 72
   100
 73
     1
 74
     0
 75
     0
 76
     0
 77
     0
 78
     0
  0
ENDTAB
  0
TABLE
  2
LTYPE
 70
     4
  0
LTYPE
  2
CONTINUOUS
 70
     0
  3
Solid Line
 72
    65
 73
     0
 40
0.0
  0
LTYPE
  2
CENTER
 70
     0
  3
____ _ ____ _ ____ _ ____ _ ____ _ ____ _ ____
 72
    65
 73
     4
 40
2.0
 49
1.25
 49
-0.25
 49
0.25
 49
-0.25
  0
LTYPE
  2
HIDDEN
 70
     0
  3
Hidden __ __ __ __ __ __ __ __ __ __ __ __ __ _
 72
    65
 73
     2
 40
0.375
 49
0.25
 49
-0.125
  0
LTYPE
  2
PHANTOM2
 70
     0
  3
___ _ _ ___ _ _ ___ _ _ ___ _ _
 72
    65
 73
     6
 40
1.25
 49
0.625
 49
-0.125
 49
0.125
 49
-0.125
 49
0.125
 49
-0.125
  0
ENDTAB
  0
TABLE
  2
LAYER
 70
     5
  0
LAYER
  2
0
 70
     0
 62
     7
  6
CONTINUOUS
  0
LAYER
  2
1
 70
     0
 62
     1
  6
CENTER
  0
LAYER
  2
3
 70
     0
 62
     3
  6
CONTINUOUS
  0
LAYER
  2
2
 70
     0
 62
     2
  6
HIDDEN
  0
LAYER
  2
DEFPOINTS
 70
     0
 62
     7
  6
CONTINUOUS
  0
ENDTAB
  0
TABLE
  2
STYLE
 70
     2
  0
STYLE
  2
STANDARD
 70
     0
 40
0.0
 41
1.0
 50
0.0
 71
     0
 42
0.2
  3
TXT
  4
BIGFONT
  0
STYLE
  2
STANDARD1
 70
     0
 40
0.0
 41
1.0
 50
0.0
 71
     0
 42
3.0
  3
txt
  4

  0
ENDTAB
  0
TABLE
  2
VIEW
 70
     1
  0
VIEW
  2
ALL
 70
     0
 40
270.0
 10
220.9915970000000129
 20
135.0
 41
0.0
 11
0.0
 21
0.0
 31
1.0
 12
0.0
 22
0.0
 32
0.0
 42
0.0
 43
0.0
 44
0.0
 50
0.0
 71
     0
  0
ENDTAB
  0
TABLE
  2
UCS
 70
     0
  0
ENDTAB
  0
TABLE
  2
APPID
 70
     7
  0
APPID
  2
ACAD
 70
     0
  0
APPID
  2
ACAD_EXEMPT_FROM_CAD_STANDARDS
 70
     0
  0
APPID
  2
ACAD_MLEADERVER
 70
     0
  0
APPID
  2
ACAD_NAV_VCDISPLAY
 70
     0
  0
APPID
  2
ACAD_DSTYLE_DIMRADIAL_EXTENSION
 70
     0
  0
APPID
  2
ACAD_DSTYLE_DIMJAG
 70
     0
  0
APPID
  2
ACAD_DSTYLE_DIMTALN
 70
     0
  0
ENDTAB
  0
TABLE
  2
DIMSTYLE
 70
     2
  0
DIMSTYLE
  2
STANDARD
 70
     0
  3

  4

  5

  6

  7

 40
1.0
 41
0.18
 42
0.0625
 43
0.38
 44
0.18
 45
0.0
 46
0.0
 47
0.0
 48
0.0
140
0.18
141
0.09
142
0.0
143
25.3999999999999986
144
1.0
145
0.0
146
1.0
147
0.09
 71
     0
 72
     0
 73
     1
 74
     1
 75
     0
 76
     0
 77
     0
 78
     0
170
     0
171
     2
172
     0
173
     0
174
     0
175
     0
176
     0
177
     0
178
     0
  0
DIMSTYLE
  2
ISO-25
 70
     0
  3

  4

  5

  6

  7

 40
1.0
 41
2.5
 42
0.625
 43
3.75
 44
1.25
 45
0.0
 46
0.0
 47
0.0
 48
0.0
140
2.5
141
2.5
142
0.0
143
0.03937007874016
144
1.0
145
0.0
146
1.0
147
0.625
 71
     0
 72
     0
 73
     0
 74
     0
 75
     0
 76
     0
 77
     1
 78
     8
170
     0
171
     3
172
     1
173
     0
174
     0
175
     0
176
     0
177
     0
178
     0
  0
ENDTAB
  0
ENDSEC
  0
SECTION
  2
BLOCKS
  0
BLOCK
  8
0
  2
$MODEL_SPACE
 70
     0
 10
0.0
 20
0.0
 30
0.0
  3
$MODEL_SPACE
  1

  0
ENDBLK
  5
E8
  8
0
  0
BLOCK
 67
     1
  8
0
  2
$PAPER_SPACE
 70
     0
 10
0.0
 20
0.0
 30
0.0
  3
$PAPER_SPACE
  1

  0
ENDBLK
  5
E6
 67
     1
  8
0
  0
ENDSEC
  0
SECTION
  2
ENTITIES
  0
TEXT
  5
E87
  8
0
 62
     3
 10
0.0
 20
0.0
 30
0.0
 40
10.0
  1
KCL04
  7
STANDARD1
  0
LINE
  5
1C54
  8
0
 10
73.8428473346995702
 20
40.4817162017155781
 30
0.0
 11
74.6428473346995816
 21
39.6817162017155809
 31
0.0
  0
LINE
  5
1C55
  8
0
 10
86.8428473348203482
 20
39.6817162017155809
 30
0.0
 11
87.6428473348203738
 21
40.4817162017155781
 31
0.0
  0
LINE
  5
1C56
  8
0
 10
87.6428473347599351
 20
40.4817162017155781
 30
0.0
 11
87.6428473347599351
 21
43.8817162017158466
 31
0.0
  0
LINE
  5
1C57
  8
0
 10
73.8428473347599947
 20
43.8817162017158466
 30
0.0
 11
73.8428473347599947
 21
40.4817162017155781
 31
0.0
  0
LINE
  5
1C58
  8
0
 10
74.642847334756425
 20
44.6817162016541829
 30
0.0
 11
73.8428473347612453
 21
43.8817162017158466
 31
0.0
  0
LINE
  5
1C59
  8
0
 10
87.6428473347587556
 20
43.8817162017158466
 30
0.0
 11
86.8428473347635048
 21
44.6817162016541829
 31
0.0
  0
LINE
  5
1C5B
  8
0
 10
73.8428473346995702
 20
40.4817162017155781
 30
0.0
 11
87.6428473348203738
 21
40.4817162017155781
 31
0.0
  0
LINE
  5
1C5C
  8
0
 10
74.6428473346995816
 20
39.6817162017155809
 30
0.0
 11
86.8428473348203482
 21
39.6817162017155809
 31
0.0
  0
LINE
  5
1C5D
  8
0
 10
87.642847334759324
 20
43.8817162017158466
 30
0.0
 11
83.3791326000525572
 21
43.8817162017154487
 31
0.0
  0
LINE
  5
1C5E
  8
0
 10
78.1065620694676568
 20
43.8817162017153279
 30
0.0
 11
73.8428473347601653
 21
43.8817162017156122
 31
0.0
  0
ARC
  5
1C5F
  8
0
 10
80.7428473347600288
 20
50.5817162017153805
 30
0.0
 40
7.1999999999998412
 50
248.5215821589204097
 51
291.4784178410831146
  0
LINE
  5
1C60
  8
0
 10
76.7054227557021022
 20
44.6817162016878626
 30
0.0
 11
74.642847334756425
 21
44.6817162016541829
 31
0.0
  0
LINE
  5
1C62
  8
0
 10
78.1065620694676568
 20
43.8817162017153279
 30
0.0
 11
77.8926976119697656
 21
43.9725608061938189
 31
0.0
  0
LINE
  5
1C63
  8
0
 10
86.8428473347635048
 20
44.6817162016541829
 30
0.0
 11
84.7749003081029144
 21
44.6817162016879479
 31
0.0
  0
CIRCLE
  5
1C6A
  8
0
 10
80.7428473347599578
 20
51.0817162017155511
 30
0.0
 40
4.0000000000190994
  0
ARC
  5
1C6E
  8
0
 10
113.5763116397612009
 20
-7.2243233208058077
 30
0.0
 40
59.9999999999968665
 50
88.0926458837862612
 51
96.0593011985113208
  0
LINE
  5
1C6F
  8
0
 10
105.7428473347600999
 20
52.2289147672962599
 30
0.0
 11
107.2428473347576983
 21
52.4404672168041088
 31
0.0
  0
LINE
  5
1C71
  8
0
 10
105.7428473347601994
 20
56.2085531763452124
 30
0.0
 11
107.2428473347599009
 21
56.3507824741213312
 31
0.0
  0
ARC
  5
1C72
  8
0
 10
113.7418032317712004
 20
-7.2897429444781769
 30
0.0
 40
63.9715007116974732
 50
88.3593868938339853
 51
95.8308191591495557
  0
ARC
  5
1C75
  8
0
 10
113.5763116397640005
 20
-7.2243233207918811
 30
0.0
 40
59.9999999999827835
 50
79.8568026678171634
 51
83.3324095443788337
  0
POLYLINE
  5
1C76
  8
0
 66
     1
 10
0.0
 20
0.0
 30
0.0
 70
   128
  0
VERTEX
  5
1EDB
  8
0
 10
124.1428473347603045
 20
55.8310629916863306
 30
0.0
  0
VERTEX
  5
1EDC
  8
0
 10
122.3432314415928062
 20
56.1012057843229286
 30
0.0
  0
VERTEX
  5
1EDD
  8
0
 10
120.5428473347592018
 20
56.3194408624858625
 30
0.0
  0
SEQEND
  5
1EDE
  8
0
  0
ARC
  5
1C78
  8
0
 10
113.5763116397614994
 20
-7.224323320808935
 30
0.0
 40
60.0
 50
83.3324095443771853
 51
87.3561503588273638
  0
POLYLINE
  5
1C79
  8
0
 66
     1
 10
0.0
 20
0.0
 30
0.0
 70
   128
  0
VERTEX
  5
1EDF
  8
0
 10
120.5428473347592018
 20
56.3194408624859832
 30
0.0
  0
VERTEX
  5
1EE0
  8
0
 10
118.4459496188594017
 20
56.5086762492167622
 30
0.0
  0
VERTEX
  5
1EE1
  8
0
 10
116.3439620921519975
 20
56.6288365592335481
 30
0.0
  0
SEQEND
  5
1EE2
  8
0
  0
LINE
  5
1C7A
  8
0
 10
115.5733193051515997
 20
52.7424338066560381
 30
0.0
 11
116.3439620921520969
 21
52.7118102796609307
 31
0.0
  0
LINE
  5
1C7B
  8
0
 10
115.5733193051515997
 20
56.6555340678209518
 30
0.0
 11
116.3439620921519975
 21
56.6288365592335481
 31
0.0
  0
LINE
  5
1C7D
  8
0
 10
129.4428473347599891
 20
54.7178540103040518
 30
0.0
 11
128.7428473347628142
 21
54.8990771229239769
 31
0.0
  0
ARC
  5
1C7E
  8
0
 10
113.5720045960537021
 20
-7.2433754701474689
 30
0.0
 40
60.0195128926624974
 50
74.6670298032623379
 51
79.8559583319877646
  0
ARC
  5
1C7F
  8
0
 10
113.5464886557448949
 20
-8.2874507714585661
 30
0.0
 40
64.9882037330541209
 50
76.4771832496034705
 51
80.615997655650645
  0
POLYLINE
  5
1C81
  8
0
 66
     1
 10
0.0
 20
0.0
 30
0.0
 70
   128
  0
VERTEX
  5
1EE3
  8
0
 10
98.7428473347600146
 20
54.6173868161029574
 30
0.0
  0
VERTEX
  5
1EE4
  8
0
 10
100.5956725589629031
 20
54.9972245529718293
 30
0.0
  0
VERTEX
  5
1EE5
  8
0
 10
102.4428473347599038
 20
55.4817162017155781
 30
0.0
  0
SEQEND
  5
1EE6
  8
0
  0
POLYLINE
  5
1C82
  8
0
 66
     1
 10
0.0
 20
0.0
 30
0.0
 70
   128
  0
VERTEX
  5
1EE7
  8
0
 10
103.3428473347534009
 20
51.6847463060094583
 30
0.0
  0
VERTEX
  5
1EE8
  8
0
 10
101.0499668433593996
 20
51.0634589450936005
 30
0.0
  0
VERTEX
  5
1EE9
  8
0
 10
98.7428473347600146
 20
50.5170832007171882
 30
0.0
  0
SEQEND
  5
1EEA
  8
0
  0
POLYLINE
  5
1C83
  8
0
 66
     1
 10
0.0
 20
0.0
 30
0.0
 70
   128
  0
VERTEX
  5
1EEB
  8
0
 10
103.3428473347534009
 20
51.684746306009508
 30
0.0
  0
VERTEX
  5
1EEC
  8
0
 10
104.5375201509913978
 20
51.9879896279020386
 30
0.0
  0
VERTEX
  5
1EED
  8
0
 10
105.7428473347601994
 20
52.2289147672962599
 30
0.0
  0
SEQEND
  5
1EEE
  8
0
  0
POLYLINE
  5
1C84
  8
0
 66
     1
 10
0.0
 20
0.0
 30
0.0
 70
   128
  0
VERTEX
  5
1EEF
  8
0
 10
102.4428473347599038
 20
55.4817162017155283
 30
0.0
  0
VERTEX
  5
1EF0
  8
0
 10
104.0937068864207049
 20
55.9185226004102631
 30
0.0
  0
VERTEX
  5
1EF1
  8
0
 10
105.7428473347601994
 20
56.2085531763452124
 30
0.0
  0
SEQEND
  5
1EF2
  8
0
  0
POLYLINE
  5
1C85
  8
0
 66
     1
 10
0.0
 20
0.0
 30
0.0
 70
   128
  0
VERTEX
  5
1EF3
  8
0
 10
132.621564879787087
 20
51.0908372538468214
 30
0.0
  0
VERTEX
  5
1EF4
  8
0
 10
132.7928670568664131
 20
51.4905161980495407
 30
0.0
  0
VERTEX
  5
1EF5
  8
0
 10
132.9215648797870983
 20
51.7908372538468527
 30
0.0
  0
SEQEND
  5
1EF6
  8
0
  0
ARC
  5
1C86
  8
0
 10
131.2428473347598867
 20
51.6817162017155667
 30
0.0
 40
1.5000000000000331
 50
250.5287793654811139
 51
336.8014094863532932
  0
ARC
  5
1C87
  8
0
 10
131.5422987147175888
 20
52.3814787846115522
 30
0.0
 40
1.5004108010706589
 50
336.8179952341723151
 51
69.9834142521840477
  0
ARC
  5
1C88
  8
0
 10
124.1056018949338977
 20
35.5189965275092234
 30
0.0
 40
19.9269244372936711
 50
66.4861000280577628
 51
74.464171681737497
  0
ARC
  5
1C89
  8
0
 10
113.5763116397955059
 20
-7.2243233206908712
 30
0.0
 40
59.9999999998771401
 50
73.3748540425739577
 51
74.6661854674320438
  0
LINE
  5
1C8A
  8
0
 10
93.4428473347599038
 20
49.55204581598462
 30
0.0
 11
92.8428473347605632
 21
49.4905910258976789
 31
0.0
  0
ARC
  5
1C8B
  8
0
 10
94.2428473347600288
 20
38.7817162017154828
 30
0.0
 40
10.8000000000000806
 50
97.4481905610389134
 51
140.2210388709634969
  0
POLYLINE
  5
1C8C
  8
0
 66
     1
 10
0.0
 20
0.0
 30
0.0
 70
   128
  0
VERTEX
  5
1EF7
  8
0
 10
85.9428473347600033
 20
45.6918536822582269
 30
0.0
  0
VERTEX
  5
1EF8
  8
0
 10
85.4649559684953743
 20
45.2199763102291925
 30
0.0
  0
VERTEX
  5
1EF9
  8
0
 10
84.9428473347600175
 20
44.7975417155729971
 30
0.0
  0
SEQEND
  5
1EFA
  8
0
  0
POLYLINE
  5
1C8D
  8
0
 66
     1
 10
0.0
 20
0.0
 30
0.0
 70
   128
  0
VERTEX
  5
1EFB
  8
0
 10
84.9428473347600175
 20
44.7975417155729971
 30
0.0
  0
VERTEX
  5
1EFC
  8
0
 10
84.1896169884929009
 20
44.2780726087555578
 30
0.0
  0
VERTEX
  5
1EFD
  8
0
 10
83.4056332448552666
 20
43.8817162017154985
 30
0.0
  0
SEQEND
  5
1EFE
  8
0
  0
ARC
  5
1C8E
  8
0
 10
80.7400582326105791
 20
50.0880908843848189
 30
0.0
 40
6.7459002839676696
 50
59.7069245628799408
 51
245.0335455228583896
  0
ARC
  5
1C8F
  8
0
 10
90.7423772944060261
 20
67.4600121659861429
 30
0.0
 40
13.2999999999996206
 50
240.2507420024653015
 51
266.9850664106382965
  0
ARC
  5
1C91
  8
0
 10
92.6428473347600061
 20
89.0817162017151958
 30
0.0
 40
34.9999999999996376
 50
265.7398177411661209
 51
280.0370937830745106
  0
POLYLINE
  5
1C92
  8
0
 66
     1
 10
0.0
 20
0.0
 30
0.0
 70
   128
  0
VERTEX
  5
1EFF
  8
0
 10
98.7428473347600146
 20
50.5170832007171882
 30
0.0
  0
VERTEX
  5
1F00
  8
0
 10
96.1016319908761147
 20
49.9863190433023306
 30
0.0
  0
VERTEX
  5
1F01
  8
0
 10
93.4428473347599606
 20
49.5520458159845134
 30
0.0
  0
SEQEND
  5
1F02
  8
0
  0
LINE
  5
1C93
  8
0
 10
39.2614590233464469
 20
40.4817162017155781
 30
0.0
 11
39.2614590233464469
 21
43.3880805371668927
 31
0.0
  0
LINE
  5
1C94
  8
0
 10
25.4614590233464284
 20
43.388080537166779
 30
0.0
 11
25.4614590233464284
 21
40.4817162017155781
 31
0.0
  0
LINE
  5
1C95
  8
0
 10
25.4614590232860394
 20
40.4817162017155781
 30
0.0
 11
26.2614590232860508
 21
39.6817162017155809
 31
0.0
  0
LINE
  5
1C96
  8
0
 10
38.4614590234068316
 20
39.6817162017155809
 30
0.0
 11
39.2614590234068217
 21
40.4817162017155781
 31
0.0
  0
LINE
  5
1C9B
  8
0
 10
34.3614590232241994
 20
47.0817162017155511
 30
0.0
 11
35.0614590233464583
 21
47.0817162017155511
 31
0.0
  0
LINE
  5
1C9C
  8
0
 10
29.661459023346481
 20
47.0817162017155511
 30
0.0
 11
30.3614590234686901
 21
47.0817162017155511
 31
0.0
  0
LINE
  5
1C9D
  8
0
 10
30.3614590234128414
 20
55.0817162017155511
 30
0.0
 11
29.661459023346449
 21
55.0817162017155511
 31
0.0
  0
LINE
  5
1C9E
  8
0
 10
35.0614590233464583
 20
55.0817162017155511
 30
0.0
 11
34.3614590232800197
 21
55.0817162017155511
 31
0.0
  0
LINE
  5
1C9F
  8
0
 10
29.6614590233464313
 20
56.8317162017155511
 30
0.0
 11
25.8614590233464696
 21
56.8317162017155511
 31
0.0
  0
LINE
  5
1CA0
  8
0
 10
38.8614590233464128
 20
56.8317162017155511
 30
0.0
 11
35.0614590233464583
 21
56.8317162017155511
 31
0.0
  0
LINE
  5
1CA4
  8
0
 10
35.0614590233465719
 20
56.6817162017156875
 30
0.0
 11
29.6614590233465414
 21
56.6817162017156875
 31
0.0
  0
LINE
  5
1CA5
  8
0
 10
25.8614590233465904
 20
56.6817162017156875
 30
0.0
 11
23.3614590233464092
 21
56.6817162017156875
 31
0.0
  0
POLYLINE
  5
1CA6
  8
0
 66
     1
 10
0.0
 20
0.0
 30
0.0
 70
   128
  0
VERTEX
  5
1F03
  8
0
 10
25.9849395965737315
 20
43.8817162017148235
 30
0.0
  0
VERTEX
  5
1F04
  8
0
 10
25.7132556177112086
 20
43.6226495600818112
 30
0.0
  0
VERTEX
  5
1F05
  8
0
 10
25.5323207537990697
 20
43.4495966356541317
 30
0.0
  0
VERTEX
  5
1F06
  8
0
 10
25.4624485757764205
 20
43.382664517244848
 30
0.0
  0
VERTEX
  5
1F07
  8
0
 10
25.4681016109882989
 20
43.388080537166779
 30
0.0
  0
SEQEND
  5
1F08
  8
0
  0
LINE
  5
1CA7
  8
0
 10
38.737978450118419
 20
43.8817162017153279
 30
0.0
 11
25.9849395965733585
 21
43.881716201714589
 31
0.0
  0
ARC
  5
1CA8
  8
0
 10
-105.8649308478409949
 20
-108.0353363401540037
 30
0.0
 40
209.735052460105095
 50
46.2177629454428782
 51
46.4130063079094413
  0
LINE
  5
1CA9
  8
0
 10
25.4614590233464284
 20
40.4817162017155781
 30
0.0
 11
39.2614590233464469
 21
40.4817162017155781
 31
0.0
  0
LINE
  5
1CAB
  8
0
 10
26.2614590232860508
 20
39.6817162017155809
 30
0.0
 11
38.4614590234068032
 21
39.6817162017155809
 31
0.0
  0
ARC
  5
1CAC
  8
0
 10
27.6701891881077202
 20
20.4476158255106384
 30
0.0
 40
25.9162693995551408
 50
64.7189066418315235
 51
68.9210449570838648
  0
ARC
  5
1CAD
  8
0
 10
37.1619697533081421
 20
20.1924921064076592
 30
0.0
 40
26.1936126061722803
 50
111.1012114023968991
 51
115.258836998704794
  0
POLYLINE
  5
1CAE
  8
0
 66
     1
 10
0.0
 20
0.0
 30
0.0
 70
   128
  0
VERTEX
  5
1F09
  8
0
 10
27.7318361445556114
 20
44.6297162017111688
 30
0.0
  0
VERTEX
  5
1F0A
  8
0
 10
27.9109962921290808
 20
44.6785071051189107
 30
0.0
  0
VERTEX
  5
1F0B
  8
0
 10
27.9569159142793104
 20
44.6817162017155667
 30
0.0
  0
SEQEND
  5
1F0C
  8
0
  0
LINE
  5
1CAF
  8
0
 10
36.7660021324370518
 20
44.6817162016848783
 30
0.0
 11
27.9569159142558306
 21
44.6817162016848783
 31
0.0
  0
POLYLINE
  5
1CB0
  8
0
 66
     1
 10
0.0
 20
0.0
 30
0.0
 70
   128
  0
VERTEX
  5
1F0D
  8
0
 10
36.7660021324147124
 20
44.6817162017188068
 30
0.0
  0
VERTEX
  5
1F0E
  8
0
 10
36.9114388253400705
 20
44.6567451632383765
 30
0.0
  0
VERTEX
  5
1F0F
  8
0
 10
36.9910819021333168
 20
44.6297162016968372
 30
0.0
  0
SEQEND
  5
1F10
  8
0
  0
ARC
  5
1CB3
  8
0
 10
32.3622822665126719
 20
60.7529148660709524
 30
0.0
 40
6.0132521978863593
 50
250.5758337392138912
 51
289.4182661038191213
  0
LINE
  5
1CBA
  8
0
 10
25.8614590233464696
 20
43.7640573950507132
 30
0.0
 11
25.8614590233464696
 21
56.8309818721686497
 31
0.0
  0
LINE
  5
1CBB
  8
0
 10
29.6614590233464313
 20
44.6817162016541829
 30
0.0
 11
29.6614590233464313
 21
56.8309818721686497
 31
0.0
  0
LINE
  5
1CBC
  8
0
 10
38.8614590233464128
 20
43.7640573950507132
 30
0.0
 11
38.8614590233464128
 21
56.8309818721686497
 31
0.0
  0
LINE
  5
1CBD
  8
0
 10
35.0614590233464583
 20
44.6817162016541829
 30
0.0
 11
35.0614590233464583
 21
56.8309818721686497
 31
0.0
  0
ARC
  5
1CBE
  8
0
 10
34.8678560876165307
 20
46.5474149253088783
 30
0.0
 40
0.1936782740511324
 50
1.5981562049211671
 51
91.8927856573027384
  0
ARC
  5
1CBF
  8
0
 10
29.8550874453303514
 20
46.5473878369137424
 30
0.0
 40
0.1937045076668935
 50
88.1150134449228943
 51
178.3940446928598931
  0
LINE
  5
1CC0
  8
0
 10
29.8614590233464412
 20
46.7409875251471476
 30
0.0
 11
34.8614590233464128
 21
46.7409875251471476
 31
0.0
  0
POLYLINE
  5
1CC1
  8
0
 66
     1
 10
0.0
 20
0.0
 30
0.0
 70
   128
  0
VERTEX
  5
1F11
  8
0
 10
25.5884024414344289
 20
55.4817162017155781
 30
0.0
  0
VERTEX
  5
1F12
  8
0
 10
25.780413261820371
 20
54.9972245529718293
 30
0.0
  0
VERTEX
  5
1F13
  8
0
 10
25.8614590233464696
 20
54.6173868161029574
 30
0.0
  0
SEQEND
  5
1F14
  8
0
  0
POLYLINE
  5
1CC6
  8
0
 66
     1
 10
0.0
 20
0.0
 30
0.0
 70
   128
  0
VERTEX
  5
1F15
  8
0
 10
24.9614590233464106
 20
56.2085531763452124
 30
0.0
  0
VERTEX
  5
1F16
  8
0
 10
25.3210319186381092
 20
55.9185226004102631
 30
0.0
  0
VERTEX
  5
1F17
  8
0
 10
25.5884024414344289
 20
55.4817162017155283
 30
0.0
  0
SEQEND
  5
1F18
  8
0
  0
POLYLINE
  5
1CC7
  8
0
 66
     1
 10
0.0
 20
0.0
 30
0.0
 70
   128
  0
VERTEX
  5
1F19
  8
0
 10
24.9614590233464391
 20
52.2289147672962031
 30
0.0
  0
VERTEX
  5
1F1A
  8
0
 10
25.2335493871748007
 20
51.9879896279020386
 30
0.0
  0
VERTEX
  5
1F1B
  8
0
 10
25.4540201929003196
 20
51.684746306009508
 30
0.0
  0
SEQEND
  5
1F1C
  8
0
  0
POLYLINE
  5
1CC9
  8
0
 66
     1
 10
0.0
 20
0.0
 30
0.0
 70
   128
  0
VERTEX
  5
1F1D
  8
0
 10
25.8614590233464696
 20
50.5170832007171882
 30
0.0
  0
VERTEX
  5
1F1E
  8
0
 10
25.7436472469401316
 20
51.0634589450936005
 30
0.0
  0
VERTEX
  5
1F1F
  8
0
 10
25.4540201929002912
 20
51.6847463060094583
 30
0.0
  0
SEQEND
  5
1F20
  8
0
  0
LINE
  5
1CCF
  8
0
 10
24.4729603585247411
 20
56.3507824741213312
 30
0.0
 11
24.9614590233464106
 21
56.2085531763452124
 31
0.0
  0
ARC
  5
1CD3
  8
0
 10
23.2320337157743211
 20
50.1851535033715095
 30
0.0
 40
2.5741676088955172
 50
61.1793748889114468
 51
86.3207845477404732
  0
ARC
  5
1CD4
  8
0
 10
23.0278969452267006
 20
53.3936781099354789
 30
0.0
 40
3.2913028558825421
 50
63.9563895582328001
 51
84.1832858655137954
  0
ARC
  5
1CD5
  8
0
 10
22.4755394817215688
 20
47.1584195439168568
 30
0.0
 40
5.6470981731988772
 50
63.8826011337612627
 51
69.2857502661844364
  0
POLYLINE
  5
1CDE
  8
0
 66
     1
 10
0.0
 20
0.0
 30
0.0
 70
   128
  0
VERTEX
  5
1F21
  8
0
 10
25.8614590233466402
 20
50.474295445215553
 30
0.0
  0
VERTEX
  5
1F22
  8
0
 10
25.6847716300516993
 20
50.5435179902000797
 30
0.0
  0
VERTEX
  5
1F23
  8
0
 10
25.4614590233464284
 20
50.6397678328533516
 30
0.0
  0
SEQEND
  5
1F24
  8
0
  0
ARC
  5
1CDF
  8
0
 10
26.237086701036791
 20
53.7561653120377514
 30
0.0
 40
3.2114687516253522
 50
216.6775967908330927
 51
256.0238456382556933
  0
ARC
  5
1CE0
  8
0
 10
25.2485423347577296
 20
53.083545719578062
 30
0.0
 40
2.0175287880416501
 50
200.7162190883285859
 51
218.1267209787071124
  0
LINE
  5
1CE1
  8
0
 10
23.3614590233464412
 20
52.3698658288918679
 30
0.0
 11
23.3614590233464412
 21
52.7118102796610515
 31
0.0
  0
LINE
  5
1CE2
  8
0
 10
23.3614590233464092
 20
52.7118102796609875
 30
0.0
 11
23.3972188269652612
 21
52.7540156557120525
 31
0.0
  0
LINE
  5
1CE4
  8
0
 10
23.3614590233464696
 20
56.6817162017157017
 30
0.0
 11
23.3614590233464412
 21
52.7118102796609875
 31
0.0
  0
LINE
  5
1CE5
  8
0
 10
34.8614590233464128
 20
47.0817162017155511
 30
0.0
 11
34.8614590233464128
 21
46.7409875251471476
 31
0.0
  0
LINE
  5
1CE6
  8
0
 10
29.8614590233464412
 20
46.7409875251471476
 30
0.0
 11
29.8614590233464412
 21
47.0817162017155511
 31
0.0
  0
LINE
  5
1CE7
  8
0
 10
76.742847334759972
 20
89.4938664716551671
 30
0.0
 11
76.742847334759972
 21
84.093866471655133
 31
0.0
  0
LINE
  5
1CE8
  8
0
 10
84.742847334759972
 20
84.093866471655133
 30
0.0
 11
84.742847334759972
 21
89.4938664716551671
 31
0.0
  0
LINE
  5
1CE9
  8
0
 10
73.9928473347600288
 20
93.2938664716551784
 30
0.0
 11
73.9928473347600288
 21
89.4938664716551671
 31
0.0
  0
LINE
  5
1CEA
  8
0
 10
73.9928473347600288
 20
84.093866471655133
 30
0.0
 11
73.9928473347600288
 21
80.2938664716551784
 31
0.0
  0
LINE
  5
1CEB
  8
0
 10
133.0428473347600118
 20
85.8163918008085034
 30
0.0
 11
133.0428473347600118
 21
87.7716251188283962
 31
0.0
  0
ARC
  5
1CEC
  8
0
 10
80.7309446710646057
 20
86.4974566704743779
 30
0.0
 40
6.6125740574941316
 50
249.7432546800291107
 51
290.2567453199725946
  0
ARC
  5
1CED
  8
0
 10
80.7547499984552246
 20
87.0902762728360358
 30
0.0
 40
6.6125740574940313
 50
69.7432546800273627
 51
110.2567453199725946
  0
ARC
  5
1CEE
  8
0
 10
80.7428473347599578
 20
86.7938664716551784
 30
0.0
 40
6.9000000000000004
 50
156.8863048543256866
 51
203.0441493083945943
  0
ARC
  5
1CEF
  8
0
 10
80.7428473347599578
 20
86.7938664716551784
 30
0.0
 40
6.100000000003531
 50
153.6368306549219938
 51
206.4072571701543097
  0
ARC
  5
1CF0
  8
0
 10
80.7428473347599578
 20
86.7938664716551784
 30
0.0
 40
6.100000000003555
 50
333.6368306549330214
 51
26.4072571701579406
  0
ARC
  5
1CFB
  8
0
 10
123.7049809088107963
 20
85.5015634591972002
 30
0.0
 40
10.0018921459766492
 50
59.7554811394170073
 51
87.4908828819419853
  0
ARC
  5
1CFD
  8
0
 10
123.7055304261446054
 20
88.0842995914673565
 30
0.0
 40
10.0000000000000195
 50
272.5064406622453816
 51
300.247195316399484
  0
POLYLINE
  5
1CFE
  8
0
 66
     1
 10
0.0
 20
0.0
 30
0.0
 70
   128
  0
VERTEX
  5
1F25
  8
0
 10
124.1428473347603045
 20
78.0938664716552466
 30
0.0
  0
VERTEX
  5
1F26
  8
0
 10
122.3432314415928062
 20
77.901904168874637
 30
0.0
  0
VERTEX
  5
1F27
  8
0
 10
120.5428473347592018
 20
77.7938664716551784
 30
0.0
  0
SEQEND
  5
1F28
  8
0
  0
LINE
  5
1CFF
  8
0
 10
120.5428473347592018
 20
77.7938664716551784
 30
0.0
 11
116.3439620921519975
 21
77.7938664716551784
 31
0.0
  0
LINE
  5
1D00
  8
0
 10
115.5733193051515997
 20
77.8212393585844211
 30
0.0
 11
116.3439620921519975
 21
77.7938664716551784
 31
0.0
  0
ARC
  5
1D01
  8
0
 10
114.8500608002102013
 20
104.8115505300969943
 30
0.0
 40
27.0000000000010196
 50
253.6354028237890077
 51
271.5349858279067803
  0
ARC
  5
1D03
  8
0
 10
114.8500608002098033
 20
68.7761824132149968
 30
0.0
 40
26.9999999999991793
 50
88.465014172091557
 51
106.3645971762110065
  0
LINE
  5
1D04
  8
0
 10
115.5733193051515997
 20
95.7664935847259358
 30
0.0
 11
116.3439620921515001
 21
95.7938664716551784
 31
0.0
  0
LINE
  5
1D05
  8
0
 10
120.542847334760296
 20
95.7938664716551074
 30
0.0
 11
116.3439620921515001
 21
95.7938664716551074
 31
0.0
  0
ARC
  5
1D06
  8
0
 10
119.1075490220249975
 20
56.8202867188302321
 30
0.0
 40
38.9999999999531468
 50
82.5818220252943149
 51
87.8908945932533641
  0
POLYLINE
  5
1D07
  8
0
 66
     1
 10
0.0
 20
0.0
 30
0.0
 70
   128
  0
VERTEX
  5
1F29
  8
0
 10
102.4428473347599038
 20
80.0208098897431768
 30
0.0
  0
VERTEX
  5
1F2A
  8
0
 10
104.0937068864207049
 20
79.7534393669468358
 30
0.0
  0
VERTEX
  5
1F2B
  8
0
 10
105.7428473347601994
 20
79.3938664716551443
 30
0.0
  0
SEQEND
  5
1F2C
  8
0
  0
POLYLINE
  5
1D09
  8
0
 66
     1
 10
0.0
 20
0.0
 30
0.0
 70
   128
  0
VERTEX
  5
1F2D
  8
0
 10
105.7428473347600999
 20
94.1938664716551557
 30
0.0
  0
VERTEX
  5
1F2E
  8
0
 10
104.0937068864207049
 20
93.83429357636345
 30
0.0
  0
VERTEX
  5
1F2F
  8
0
 10
102.4428473347599038
 20
93.5669230535671659
 30
0.0
  0
SEQEND
  5
1F30
  8
0
  0
LINE
  5
1D0A
  8
0
 10
107.2428473347599009
 20
94.6823651364768466
 30
0.0
 11
105.7428473347600999
 21
94.1938664716551557
 31
0.0
  0
LINE
  5
1D0B
  8
0
 10
105.7428473347601994
 20
79.3938664716551443
 30
0.0
 11
107.2428473347599009
 21
78.9053678068335103
 31
0.0
  0
ARC
  5
1D0D
  8
0
 10
86.7395807799792351
 20
84.2971330264359153
 30
0.0
 40
0.2032928003461626
 50
270.9206811890917947
 51
359.0793188109179823
  0
LINE
  5
1D0E
  8
0
 10
86.9428473347600033
 20
84.2938664716551784
 30
0.0
 11
86.9428473347600033
 21
89.2938664716551784
 31
0.0
  0
ARC
  5
1D0F
  8
0
 10
86.7410217589321064
 20
89.292040895827256
 30
0.0
 40
0.2018338321128823
 50
0.5182442174626795
 51
89.4817557825470971
  0
LINE
  5
1D11
  8
0
 10
73.9928473347600288
 20
84.093866471655133
 30
0.0
 11
86.7428473347600288
 21
84.093866471655133
 31
0.0
  0
LINE
  5
1D13
  8
0
 10
86.7428473347599862
 20
89.4938664716551671
 30
0.0
 11
73.992847334759972
 21
89.4938664716551671
 31
0.0
  0
POLYLINE
  5
1D14
  8
0
 66
     1
 10
0.0
 20
0.0
 30
0.0
 70
   128
  0
VERTEX
  5
1F31
  8
0
 10
98.7428473347600146
 20
80.2938664716551784
 30
0.0
  0
VERTEX
  5
1F32
  8
0
 10
100.5956725589629031
 20
80.212820710129094
 30
0.0
  0
VERTEX
  5
1F33
  8
0
 10
102.4428473347599038
 20
80.0208098897431768
 30
0.0
  0
SEQEND
  5
1F34
  8
0
  0
POLYLINE
  5
1D15
  8
0
 66
     1
 10
0.0
 20
0.0
 30
0.0
 70
   128
  0
VERTEX
  5
1F35
  8
0
 10
102.4428473347599038
 20
93.5669230535671659
 30
0.0
  0
VERTEX
  5
1F36
  8
0
 10
100.5956725589628036
 20
93.3749122331812345
 30
0.0
  0
VERTEX
  5
1F37
  8
0
 10
98.7428473347600146
 20
93.2938664716551784
 30
0.0
  0
SEQEND
  5
1F38
  8
0
  0
LINE
  5
1D16
  8
0
 10
98.7428473347600146
 20
93.2938664716551784
 30
0.0
 11
73.992847334759972
 21
93.2938664716551784
 31
0.0
  0
LINE
  5
1D17
  8
0
 10
98.7428473347600146
 20
80.2938664716551784
 30
0.0
 11
73.9928473347600288
 21
80.2938664716551784
 31
0.0
  0
ARC
  5
1D18
  8
0
 10
125.5584969953133054
 20
87.2781184684657632
 30
0.0
 40
7.4999999999991802
 50
29.9665219241978491
 51
58.8076111460014133
  0
ARC
  5
1D1A
  8
0
 10
125.558496995313007
 20
86.30961447484475
 30
0.0
 40
7.4999999999995062
 50
301.1923888540005123
 51
330.0334780758021793
  0
LINE
  5
1D1B
  8
0
 10
129.4428473347599891
 20
79.8938664716552012
 30
0.0
 11
128.7428473347628142
 21
79.4456979475582443
 31
0.0
  0
LINE
  5
1D1C
  8
0
 10
129.4428473347599891
 20
93.6938664716551557
 30
0.0
 11
128.7428473347628142
 21
94.1420349957520557
 31
0.0
  0
POLYLINE
  5
1D1D
  8
0
 66
     1
 10
0.0
 20
0.0
 30
0.0
 70
   128
  0
VERTEX
  5
1F39
  8
0
 10
133.042261463401303
 20
85.8163918008085034
 30
0.0
  0
VERTEX
  5
1F3A
  8
0
 10
133.0422806484818068
 20
85.8166821949543532
 30
0.0
  0
VERTEX
  5
1F3B
  8
0
 10
133.0419103332095858
 20
85.811091843276003
 30
0.0
  0
VERTEX
  5
1F3C
  8
0
 10
133.0409647608470891
 20
85.797095072540273
 30
0.0
  0
VERTEX
  5
1F3D
  8
0
 10
133.0374844623011086
 20
85.7485917759906471
 30
0.0
  0
VERTEX
  5
1F3E
  8
0
 10
133.0240072892650005
 20
85.5911744628109545
 30
0.0
  0
VERTEX
  5
1F3F
  8
0
 10
133.0095611096813002
 20
85.454252818252769
 30
0.0
  0
VERTEX
  5
1F40
  8
0
 10
132.9927525437182965
 20
85.3187338357164435
 30
0.0
  0
VERTEX
  5
1F41
  8
0
 10
132.9742090671049937
 20
85.1883587197767156
 30
0.0
  0
VERTEX
  5
1F42
  8
0
 10
132.9366604587877987
 20
84.9632475463148467
 30
0.0
  0
VERTEX
  5
1F43
  8
0
 10
132.8903255546022137
 20
84.7302823447389954
 30
0.0
  0
VERTEX
  5
1F44
  8
0
 10
132.6667994375740989
 20
83.9175366355304959
 30
0.0
  0
VERTEX
  5
1F45
  8
0
 10
132.3812602438129886
 20
83.1951479627579147
 30
0.0
  0
VERTEX
  5
1F46
  8
0
 10
132.0558775497484021
 20
82.5634102718096869
 30
0.0
  0
SEQEND
  5
1F47
  8
0
  0
POLYLINE
  5
1D1E
  8
0
 66
     1
 10
0.0
 20
0.0
 30
0.0
 70
   128
  0
VERTEX
  5
1F48
  8
0
 10
132.0558775497484021
 20
91.0243226715006131
 30
0.0
  0
VERTEX
  5
1F49
  8
0
 10
132.3026281078182933
 20
90.5593827884087545
 30
0.0
  0
VERTEX
  5
1F4A
  8
0
 10
132.5299770204127867
 20
90.0437045292541143
 30
0.0
  0
VERTEX
  5
1F4B
  8
0
 10
132.7289661819854132
 20
89.4768389243158708
 30
0.0
  0
VERTEX
  5
1F4C
  8
0
 10
132.8898866354626023
 20
88.8594868456316931
 30
0.0
  0
VERTEX
  5
1F4D
  8
0
 10
132.9279856739522927
 20
88.6711858090494047
 30
0.0
  0
VERTEX
  5
1F4E
  8
0
 10
132.9603513027234953
 20
88.4874789655312384
 30
0.0
  0
VERTEX
  5
1F4F
  8
0
 10
132.9873734936003871
 20
88.3085523446493852
 30
0.0
  0
VERTEX
  5
1F50
  8
0
 10
133.0069657125941944
 20
88.1557936747219628
 30
0.0
  0
VERTEX
  5
1F51
  8
0
 10
133.0199108249018991
 20
88.0379234853041339
 30
0.0
  0
VERTEX
  5
1F52
  8
0
 10
133.0327605854072885
 20
87.8989113371301869
 30
0.0
  0
VERTEX
  5
1F53
  8
0
 10
133.0373232020274088
 20
87.8412868001002636
 30
0.0
  0
VERTEX
  5
1F54
  8
0
 10
133.0408410499030936
 20
87.7924407883529057
 30
0.0
  0
VERTEX
  5
1F55
  8
0
 10
133.0418378105767943
 20
87.7777285590378256
 30
0.0
  0
VERTEX
  5
1F56
  8
0
 10
133.0422649775030948
 20
87.7712886102433458
 30
0.0
  0
VERTEX
  5
1F57
  8
0
 10
133.042242752962693
 20
87.7716251188283962
 30
0.0
  0
SEQEND
  5
1F58
  8
0
  0
CIRCLE
  5
1DD8
  8
0
 10
80.7428473347599578
 20
86.7938664716551784
 30
0.0
 40
1.6209999999999991
  0
CIRCLE
  5
1DD9
  8
3
 10
80.7428473347599578
 20
86.7938664716551784
 30
0.0
 40
2.0
  0
LINE
  5
1DDA
  8
1
 10
80.7428473347599578
 20
98.4885385623051945
 30
0.0
 11
80.7428473347599578
 21
75.0991943810051623
 31
0.0
  0
LINE
  5
1DDB
  8
1
 10
69.0481752441099559
 20
86.7938664716551784
 30
0.0
 11
137.0428473347598981
 21
86.7938664716551784
 31
0.0
  0
LINE
  5
1E10
  8
1
 10
69.992847334759972
 20
50.0817162017155511
 30
0.0
 11
91.492847334759972
 21
50.0817162017155511
 31
0.0
  0
LINE
  5
1E11
  8
1
 10
80.7428473347599578
 20
60.8317162017155511
 30
0.0
 11
80.7428473347599578
 21
35.8817162017155482
 31
0.0
  0
LINE
  5
1E12
  8
1
 10
69.992847334759972
 20
51.0817162017155511
 30
0.0
 11
91.492847334759972
 21
51.0817162017155511
 31
0.0
  0
ARC
  5
1E19
  8
0
 10
32.3622822665126719
 20
41.410723436985009
 30
0.0
 40
6.0132521978863593
 50
70.5817338961808645
 51
109.4241662607859951
  0
LINE
  5
1E5B
  8
0
 10
38.8614590233462422
 20
56.6817162017156875
 30
0.0
 11
41.3614590233464128
 21
56.6817162017156875
 31
0.0
  0
POLYLINE
  5
1E5C
  8
0
 66
     1
 10
0.0
 20
0.0
 30
0.0
 70
   128
  0
VERTEX
  5
1F59
  8
0
 10
39.1345156052584002
 20
55.4817162017155781
 30
0.0
  0
VERTEX
  5
1F5A
  8
0
 10
38.9425047848724617
 20
54.9972245529718293
 30
0.0
  0
VERTEX
  5
1F5B
  8
0
 10
38.861459023346363
 20
54.6173868161029574
 30
0.0
  0
SEQEND
  5
1F5C
  8
0
  0
POLYLINE
  5
1E5D
  8
0
 66
     1
 10
0.0
 20
0.0
 30
0.0
 70
   128
  0
VERTEX
  5
1F5D
  8
0
 10
39.7614590233464185
 20
56.2085531763452124
 30
0.0
  0
VERTEX
  5
1F5E
  8
0
 10
39.4018861280547128
 20
55.9185226004102631
 30
0.0
  0
VERTEX
  5
1F5F
  8
0
 10
39.1345156052584002
 20
55.4817162017155283
 30
0.0
  0
SEQEND
  5
1F60
  8
0
  0
POLYLINE
  5
1E5E
  8
0
 66
     1
 10
0.0
 20
0.0
 30
0.0
 70
   128
  0
VERTEX
  5
1F61
  8
0
 10
39.76145902334639
 20
52.2289147672962031
 30
0.0
  0
VERTEX
  5
1F62
  8
0
 10
39.4893686595180213
 20
51.9879896279020386
 30
0.0
  0
VERTEX
  5
1F63
  8
0
 10
39.2688978537925095
 20
51.684746306009508
 30
0.0
  0
SEQEND
  5
1F64
  8
0
  0
POLYLINE
  5
1E5F
  8
0
 66
     1
 10
0.0
 20
0.0
 30
0.0
 70
   128
  0
VERTEX
  5
1F65
  8
0
 10
38.861459023346363
 20
50.5170832007171882
 30
0.0
  0
VERTEX
  5
1F66
  8
0
 10
38.9792707997526975
 20
51.0634589450936005
 30
0.0
  0
VERTEX
  5
1F67
  8
0
 10
39.2688978537925379
 20
51.6847463060094583
 30
0.0
  0
SEQEND
  5
1F68
  8
0
  0
LINE
  5
1E60
  8
0
 10
40.2499576881680809
 20
56.3507824741213312
 30
0.0
 11
39.7614590233464185
 21
56.2085531763452124
 31
0.0
  0
ARC
  5
1E61
  8
0
 10
41.4908843309184974
 20
50.1851535033715095
 30
0.0
 40
2.5741676088955172
 50
93.6792154522595553
 51
118.8206251110885034
  0
ARC
  5
1E62
  8
0
 10
41.6950211014661178
 20
53.3936781099354789
 30
0.0
 40
3.2913028558825421
 50
95.8167141344878388
 51
116.0436104417671004
  0
ARC
  5
1E63
  8
0
 10
42.2473785649712497
 20
47.1584195439168568
 30
0.0
 40
5.6470981731988772
 50
110.7142497338138014
 51
116.1173988662369965
  0
POLYLINE
  5
1E64
  8
0
 66
     1
 10
0.0
 20
0.0
 30
0.0
 70
   128
  0
VERTEX
  5
1F69
  8
0
 10
38.8614590233461783
 20
50.474295445215553
 30
0.0
  0
VERTEX
  5
1F6A
  8
0
 10
39.0381464166411192
 20
50.5435179902000797
 30
0.0
  0
VERTEX
  5
1F6B
  8
0
 10
39.26145902334639
 20
50.6397678328533516
 30
0.0
  0
SEQEND
  5
1F6C
  8
0
  0
ARC
  5
1E65
  8
0
 10
38.4858313456560381
 20
53.7561653120377514
 30
0.0
 40
3.2114687516253522
 50
283.976154361746012
 51
323.3224032091653726
  0
ARC
  5
1E66
  8
0
 10
39.4743757119351031
 20
53.083545719578062
 30
0.0
 40
2.0175287880416501
 50
321.8732790212943087
 51
339.2837809116714993
  0
LINE
  5
1E67
  8
0
 10
41.3614590233463773
 20
52.3698658288918679
 30
0.0
 11
41.3614590233463773
 21
52.7118102796610515
 31
0.0
  0
LINE
  5
1E68
  8
0
 10
41.3614590233464128
 20
52.7118102796609875
 30
0.0
 11
41.3256992197275608
 21
52.7540156557120525
 31
0.0
  0
LINE
  5
1E69
  8
0
 10
41.3614590233463488
 20
56.6817162017157017
 30
0.0
 11
41.3614590233463773
 21
52.7118102796609875
 31
0.0
  0
LINE
  5
1E6B
  8
2
 10
33.9824590233461379
 20
47.201487932110183
 30
0.0
 11
33.9824590233461734
 21
54.9619315206760604
 31
0.0
  0
LINE
  5
1E6C
  8
2
 10
34.3614590233463915
 20
47.0817162017155582
 30
0.0
 11
34.3614590233463915
 21
55.0817162017155582
 31
0.0
  0
LINE
  5
1E6D
  8
2
 10
30.7404590233466912
 20
47.2016222770048799
 30
0.0
 11
30.740459023346741
 21
54.9619312249569134
 31
0.0
  0
LINE
  5
1E6E
  8
2
 10
30.3614590233463808
 20
47.081885458151568
 30
0.0
 11
30.3614590233463808
 21
55.0817162017155511
 31
0.0
  0
LINE
  5
1E6F
  8
1
 10
45.3614590233463773
 20
51.0817162017155511
 30
0.0
 11
19.3614590233463808
 21
51.0817162017155582
 31
0.0
  0
LINE
  5
1E70
  8
1
 10
32.3614590233464128
 20
35.8817162017155624
 30
0.0
 11
32.3614590233464128
 21
60.8317162017155582
 31
0.0
  0
ENDSEC
  0
EOF
