  0
SECTION
  2
HEADER
  9
$ACADVER
  1
AC1009
  9
$INSBASE
 10
0.0
 20
0.0
 30
0.0
  9
$EXTMIN
 10
0.0
 20
-2.960436562073669
 30
0.0
  9
$EXTMAX
 10
146.40000183567469
 20
118.7500001371
 30
0.0
  9
$LIMMIN
 10
0.0
 20
0.0
  9
$LIMMAX
 10
375.0
 20
270.0
  9
$ORTHOMODE
 70
     1
  9
$REGENMODE
 70
     1
  9
$FILLMODE
 70
     1
  9
$QTEXTMODE
 70
     0
  9
$MIRRTEXT
 70
     0
  9
$DRAGMODE
 70
     2
  9
$LTSCALE
 40
5.0
  9
$OSMODE
 70
    37
  9
$ATTMODE
 70
     1
  9
$TEXTSIZE
 40
0.2
  9
$TRACEWID
 40
0.05
  9
$TEXTSTYLE
  7
STANDARD
  9
$CLAYER
  8
0
  9
$CELTYPE
  6
BYLAYER
  9
$CECOLOR
 62
   256
  9
$DIMSCALE
 40
1.0
  9
$DIMASZ
 40
3.0
  9
$DIMEXO
 40
2.0
  9
$DIMDLI
 40
10.0
  9
$DIMRND
 40
0.0
  9
$DIMDLE
 40
0.0
  9
$DIMEXE
 40
2.0
  9
$DIMTP
 40
0.0
  9
$DIMTM
 40
0.0
  9
$DIMTXT
 40
3.2000000000000002
  9
$DIMCEN
 40
0.0
  9
$DIMTSZ
 40
0.0
  9
$DIMTOL
 70
     0
  9
$DIMLIM
 70
     0
  9
$DIMTIH
 70
     0
  9
$DIMTOH
 70
     0
  9
$DIMSE1
 70
     0
  9
$DIMSE2
 70
     0
  9
$DIMTAD
 70
     1
  9
$DIMZIN
 70
     8
  9
$DIMBLK
  1

  9
$DIMASO
 70
     0
  9
$DIMSHO
 70
     0
  9
$DIMPOST
  1

  9
$DIMAPOST
  1

  9
$DIMALT
 70
     0
  9
$DIMALTD
 70
     2
  9
$DIMALTF
 40
25.399999999999999
  9
$DIMLFAC
 40
1.0
  9
$DIMTOFL
 70
     1
  9
$DIMTVP
 40
1.6000000000000001
  9
$DIMTIX
 70
     0
  9
$DIMSOXD
 70
     0
  9
$DIMSAH
 70
     0
  9
$DIMBLK1
  1

  9
$DIMBLK2
  1

  9
$DIMSTYLE
  2
STANDARD
  9
$DIMCLRD
 70
   256
  9
$DIMCLRE
 70
   256
  9
$DIMCLRT
 70
   256
  9
$DIMTFAC
 40
1.0
  9
$DIMGAP
 40
0.5
  9
$LUNITS
 70
     2
  9
$LUPREC
 70
     1
  9
$SKETCHINC
 40
0.1
  9
$FILLETRAD
 40
0.0
  9
$AUNITS
 70
     0
  9
$AUPREC
 70
     1
  9
$MENU
  1
E:\r13\win\SUPPORT\ACAD
  9
$ELEVATION
 40
0.0
  9
$PELEVATION
 40
0.0
  9
$THICKNESS
 40
0.0
  9
$LIMCHECK
 70
     0
  9
$BLIPMODE
 70
     0
  9
$CHAMFERA
 40
0.0
  9
$CHAMFERB
 40
0.0
  9
$SKPOLY
 70
     0
  9
$TDCREATE
 40
2449840.6171180559
  9
$TDUPDATE
 40
2459242.4409189699
  9
$TDINDWG
 40
0.3066523264
  9
$TDUSRTIMER
 40
0.3066523264
  9
$USRTIMER
 70
     1
  9
$ANGBASE
 50
0.0
  9
$ANGDIR
 70
     0
  9
$PDMODE
 70
     0
  9
$PDSIZE
 40
0.0
  9
$PLINEWID
 40
0.0
  9
$COORDS
 70
     1
  9
$SPLFRAME
 70
     0
  9
$SPLINETYPE
 70
     6
  9
$SPLINESEGS
 70
     8
  9
$ATTDIA
 70
     0
  9
$ATTREQ
 70
     1
  9
$HANDLING
 70
     1
  9
$HANDSEED
  5
482C
  9
$SURFTAB1
 70
     6
  9
$SURFTAB2
 70
     6
  9
$SURFTYPE
 70
     6
  9
$SURFU
 70
     6
  9
$SURFV
 70
     6
  9
$UCSNAME
  2

  9
$UCSORG
 10
0.0
 20
0.0
 30
0.0
  9
$UCSXDIR
 10
1.0
 20
0.0
 30
0.0
  9
$UCSYDIR
 10
0.0
 20
1.0
 30
0.0
  9
$PUCSNAME
  2

  9
$PUCSORG
 10
0.0
 20
0.0
 30
0.0
  9
$PUCSXDIR
 10
1.0
 20
0.0
 30
0.0
  9
$PUCSYDIR
 10
0.0
 20
1.0
 30
0.0
  9
$USERI1
 70
     0
  9
$USERI2
 70
     1
  9
$USERI3
 70
     0
  9
$USERI4
 70
     0
  9
$USERI5
 70
     0
  9
$USERR1
 40
0.0
  9
$USERR2
 40
0.0
  9
$USERR3
 40
0.0
  9
$USERR4
 40
0.0
  9
$USERR5
 40
0.0
  9
$WORLDVIEW
 70
     1
  9
$SHADEDGE
 70
     3
  9
$SHADEDIF
 70
    70
  9
$TILEMODE
 70
     1
  9
$MAXACTVP
 70
    16
  9
$PLIMCHECK
 70
     0
  9
$PEXTMIN
 10
1.0000000000000000E+020
 20
1.0000000000000000E+020
 30
1.0000000000000000E+020
  9
$PEXTMAX
 10
-1.0000000000000000E+020
 20
-1.0000000000000000E+020
 30
-1.0000000000000000E+020
  9
$PLIMMIN
 10
0.0
 20
0.0
  9
$PLIMMAX
 10
12.0
 20
9.0
  9
$UNITMODE
 70
     0
  9
$VISRETAIN
 70
     0
  9
$PLINEGEN
 70
     0
  9
$PSLTSCALE
 70
     0
  0
ENDSEC
  0
SECTION
  2
TABLES
  0
TABLE
  2
VPORT
 70
     1
  0
VPORT
  2
*ACTIVE
 70
     0
 10
0.0
 20
0.0
 11
1.0
 21
1.0
 12
264.70588235294122
 22
100.0
 13
0.0
 23
0.0
 14
10.0
 24
10.0
 15
10.0
 25
10.0
 16
0.0
 26
0.0
 36
1.0
 17
0.0
 27
0.0
 37
0.0
 40
200.0
 41
2.6470588235294108
 42
50.0
 43
0.0
 44
0.0
 50
0.0
 51
0.0
 71
     0
 72
   100
 73
     1
 74
     0
 75
     0
 76
     0
 77
     0
 78
     0
  0
ENDTAB
  0
TABLE
  2
LTYPE
 70
     3
  0
LTYPE
  2
CONTINUOUS
 70
     0
  3
Solid Line
 72
    65
 73
     0
 40
0.0
  0
LTYPE
  2
CENTER
 70
     0
  3
____ _ ____ _ ____ _ ____ _ ____ _ ____ _ ____
 72
    65
 73
     4
 40
2.0
 49
1.25
 49
-0.25
 49
0.25
 49
-0.25
  0
LTYPE
  2
PHANTOM2
 70
     0
  3
___ _ _ ___ _ _ ___ _ _ ___ _ _
 72
    65
 73
     6
 40
1.25
 49
0.625
 49
-0.125
 49
0.125
 49
-0.125
 49
0.125
 49
-0.125
  0
ENDTAB
  0
TABLE
  2
LAYER
 70
     4
  0
LAYER
  2
0
 70
     0
 62
     7
  6
CONTINUOUS
  0
LAYER
  2
1
 70
     0
 62
     1
  6
CENTER
  0
LAYER
  2
3
 70
     0
 62
     3
  6
CONTINUOUS
  0
LAYER
  2
DEFPOINTS
 70
     0
 62
     7
  6
CONTINUOUS
  0
ENDTAB
  0
TABLE
  2
STYLE
 70
     2
  0
STYLE
  2
STANDARD
 70
     0
 40
0.0
 41
1.0
 50
0.0
 71
     0
 42
0.2
  3
TXT
  4
BIGFONT
  0
STYLE
  2
STANDARD1
 70
     0
 40
0.0
 41
1.0
 50
0.0
 71
     0
 42
3.0
  3
txt
  4

  0
ENDTAB
  0
TABLE
  2
VIEW
 70
     1
  0
VIEW
  2
ALL
 70
     0
 40
270.0
 10
220.99159700000001
 20
135.0
 41
0.0
 11
0.0
 21
0.0
 31
1.0
 12
0.0
 22
0.0
 32
0.0
 42
0.0
 43
0.0
 44
0.0
 50
0.0
 71
     0
  0
ENDTAB
  0
TABLE
  2
UCS
 70
     0
  0
ENDTAB
  0
TABLE
  2
APPID
 70
     6
  0
APPID
  2
ACAD
 70
     0
  0
APPID
  2
ACAD_EXEMPT_FROM_CAD_STANDARDS
 70
     0
  0
APPID
  2
ACAD_MLEADERVER
 70
     0
  0
APPID
  2
ACAD_NAV_VCDISPLAY
 70
     0
  0
APPID
  2
ACAD_DSTYLE_DIMJAG
 70
     0
  0
APPID
  2
ACAD_DSTYLE_DIMTALN
 70
     0
  0
ENDTAB
  0
TABLE
  2
DIMSTYLE
 70
     1
  0
DIMSTYLE
  2
STANDARD
 70
     0
  3

  4

  5

  6

  7

 40
1.0
 41
0.18
 42
0.0625
 43
0.38
 44
0.18
 45
0.0
 46
0.0
 47
0.0
 48
0.0
140
0.18
141
0.09
142
0.0
143
25.399999999999999
144
1.0
145
0.0
146
1.0
147
0.09
 71
     0
 72
     0
 73
     1
 74
     1
 75
     0
 76
     0
 77
     0
 78
     0
170
     0
171
     2
172
     0
173
     0
174
     0
175
     0
176
     0
177
     0
178
     0
  0
ENDTAB
  0
ENDSEC
  0
SECTION
  2
BLOCKS
  0
BLOCK
  8
0
  2
$MODEL_SPACE
 70
     0
 10
0.0
 20
0.0
 30
0.0
  3
$MODEL_SPACE
  1

  0
ENDBLK
  5
E8
  8
0
  0
BLOCK
 67
     1
  8
0
  2
$PAPER_SPACE
 70
     0
 10
0.0
 20
0.0
 30
0.0
  3
$PAPER_SPACE
  1

  0
ENDBLK
  5
E6
 67
     1
  8
0
  0
ENDSEC
  0
SECTION
  2
ENTITIES
  0
TEXT
  5
AFF
  8
0
 62
     3
 10
0.0
 20
0.0
 30
0.0
 40
10.0
  1
KCL03X10
  7
STANDARD1
  0
LINE
  5
3E5B
  8
0
 10
101.2174552612
 20
63.199999812299993
 30
0.0
 11
101.2053280443
 21
62.505235499899989
 31
0.0
  0
LINE
  5
3E5C
  8
0
 10
113.1946719557
 20
62.505235499899989
 30
0.0
 11
113.1825447388
 21
63.199999812299993
 31
0.0
  0
ARC
  5
3E5D
  8
0
 10
112.8947177821
 20
62.499999612599993
 30
0.0
 40
0.3000000000006705
 50
270.0
 51
1.0000000035002059
  0
ARC
  5
3E5E
  8
0
 10
101.5052822179
 20
62.499999612599993
 30
0.0
 40
0.3000000000000114
 50
178.9999999999998
 51
270.0
  0
ARC
  5
3E5F
  8
0
 10
112.09999999999999
 20
61.099999738499989
 30
0.0
 40
1.1000000000000001
 50
270.0
 51
0.0
  0
ARC
  5
3E60
  8
0
 10
102.3
 20
61.099999738499989
 30
0.0
 40
1.0999999999999941
 50
180.0
 51
270.0
  0
LINE
  5
3E61
  8
0
 10
101.1999999479
 20
62.199999648399988
 30
0.0
 11
101.1999999479
 21
61.10000011999999
 31
0.0
  0
LINE
  5
3E62
  8
0
 10
113.2000000522
 20
61.10000011999999
 30
0.0
 11
113.2000000522
 21
62.199999648399988
 31
0.0
  0
LINE
  5
3E63
  8
0
 10
104.18503734550001
 20
63.199999812299993
 30
0.0
 11
101.2174552612
 21
63.199999812299993
 31
0.0
  0
LINE
  5
3E64
  8
0
 10
113.1825447388
 20
63.199999812299993
 30
0.0
 11
110.2883955769
 21
63.199999812299993
 31
0.0
  0
LINE
  5
3E65
  8
0
 10
102.2999999419
 20
60.000000125899987
 30
0.0
 11
112.10000005809999
 21
60.000000125899987
 31
0.0
  0
LINE
  5
3E66
  8
0
 10
113.2000000522
 20
62.199999648399988
 30
0.0
 11
101.1999999479
 21
62.199999648399988
 31
0.0
  0
CIRCLE
  5
3E67
  8
0
 10
107.2
 20
68.799999612600004
 30
0.0
 40
3.0000000000000062
  0
LINE
  5
3E68
  8
0
 10
134.50000019079999
 20
68.913538893899997
 30
0.0
 11
136.60000034870001
 21
68.650127720599997
 31
0.0
  0
LINE
  5
3E69
  8
0
 10
133.2000005365
 20
69.050356291900002
 30
0.0
 11
134.50000019079999
 21
68.913538893899997
 31
0.0
  0
POLYLINE
  5
3E6A
  8
0
 66
     1
 10
0.0
 20
0.0
 30
0.0
 70
   128
  0
VERTEX
  5
47CB
  8
0
 10
133.2000005365
 20
72.663135198199996
 30
0.0
  0
VERTEX
  5
47CC
  8
0
 10
134.90441584289999
 20
72.490890580499993
 30
0.0
  0
VERTEX
  5
47CD
  8
0
 10
136.60000034870001
 20
72.249849862700003
 30
0.0
  0
SEQEND
  5
47CE
  8
0
  0
POLYLINE
  5
3E6B
  8
0
 66
     1
 10
0.0
 20
0.0
 30
0.0
 70
   128
  0
VERTEX
  5
47CF
  8
0
 10
129.19999988079999
 20
69.195348170100004
 30
0.0
  0
VERTEX
  5
47D0
  8
0
 10
131.18807927969999
 20
69.175098015900005
 30
0.0
  0
VERTEX
  5
47D1
  8
0
 10
133.2000005365
 20
69.050356291900002
 30
0.0
  0
SEQEND
  5
47D2
  8
0
  0
POLYLINE
  5
3E6C
  8
0
 66
     1
 10
0.0
 20
0.0
 30
0.0
 70
   128
  0
VERTEX
  5
47D3
  8
0
 10
129.19999988079999
 20
72.795744124099997
 30
0.0
  0
VERTEX
  5
47D4
  8
0
 10
131.18820966480001
 20
72.777214064499987
 30
0.0
  0
VERTEX
  5
47D5
  8
0
 10
133.2000005365
 20
72.663135198199996
 30
0.0
  0
SEQEND
  5
47D6
  8
0
  0
ARC
  5
3E6D
  8
0
 10
129.8000019824
 20
30.499953596400001
 30
0.0
 40
38.700046043050001
 50
90.888344304799631
 51
95.11328726349933
  0
POLYLINE
  5
3E6E
  8
0
 66
     1
 10
0.0
 20
0.0
 30
0.0
 70
   128
  0
VERTEX
  5
47D7
  8
0
 10
126.3508494318
 20
72.659142851099986
 30
0.0
  0
VERTEX
  5
47D8
  8
0
 10
127.7508638174
 20
72.750337491999986
 30
0.0
  0
VERTEX
  5
47D9
  8
0
 10
129.19999988079999
 20
72.795744124099997
 30
0.0
  0
SEQEND
  5
47DA
  8
0
  0
ARC
  5
3E6F
  8
0
 10
142.00000282139999
 20
68.731021756299995
 30
0.0
 40
0.9999917361353228
 50
258.46282777939967
 51
323.13038115009948
  0
LINE
  5
3E70
  8
0
 10
142.7050861836
 20
70.783355809100001
 30
0.0
 11
142.7999991298
 21
70.747545757599994
 31
0.0
  0
ARC
  5
3E71
  8
0
 10
125.6274805801
 20
-10.314902912499999
 30
0.0
 40
79.72372453013827
 50
78.295918026599423
 51
82.08916815510031
  0
ARC
  5
3E72
  8
0
 10
129.79902693419999
 20
30.4959366872
 30
0.0
 40
42.304166518753739
 50
72.237159385800126
 51
80.748774395499566
  0
ARC
  5
3E73
  8
0
 10
113.6143178792
 20
120.8799037231
 30
0.0
 40
49.70000973123723
 50
277.61458314650042
 51
283.48037275509978
  0
LINE
  5
3E74
  8
0
 10
122.0000000045
 20
67.799999565099995
 30
0.0
 11
120.2000002682
 21
67.475015716900003
 31
0.0
  0
ARC
  5
3E75
  8
0
 10
129.8985489371
 20
49.643656102599991
 30
0.0
 40
19.799997049752079
 50
102.53866751999939
 51
113.5104718784992
  0
LINE
  5
3E76
  8
0
 10
125.60000040830001
 20
68.971417579700002
 30
0.0
 11
126.3508494318
 21
69.04598984430001
 31
0.0
  0
LINE
  5
3E77
  8
0
 10
125.1999992252
 20
72.549137589799983
 30
0.0
 11
126.3508494318
 21
72.659142851099986
 31
0.0
  0
ARC
  5
3E78
  8
0
 10
116.6130702488
 20
60.350777271600002
 30
0.0
 40
6.4000000000000217
 50
125.4623053106999
 51
143.02682913059979
  0
ARC
  5
3E79
  8
0
 10
117.6960669944
 20
91.0394759096
 30
0.0
 40
20.000000000000611
 50
245.80751786160019
 51
257.30251695590061
  0
ARC
  5
3E7A
  8
0
 10
116.3
 20
91.099999612599987
 30
0.0
 40
19.7999999999995
 50
261.2852579813997
 51
275.7973395407999
  0
ARC
  5
3E7B
  8
0
 10
118.5
 20
56.79999961259999
 30
0.0
 40
10.39999999999991
 50
100.5266185501001
 51
122.57897039279889
  0
ARC
  5
3E7C
  8
0
 10
107.3647897445
 20
67.976245915899995
 30
0.0
 40
5.599999999999997
 50
291.31101888770007
 51
317.59788106140002
  0
ARC
  5
3E7D
  8
0
 10
112.1644747955
 20
117.1290219418
 30
0.0
 40
50.299999999996921
 50
275.0589938722996
 51
279.1925012565996
  0
POLYLINE
  5
3E7E
  8
0
 66
     1
 10
0.0
 20
0.0
 30
0.0
 70
   128
  0
VERTEX
  5
47DB
  8
0
 10
109.39999998810001
 20
62.759166187800012
 30
0.0
  0
VERTEX
  5
47DC
  8
0
 10
108.9241258174
 20
62.577223475300002
 30
0.0
  0
VERTEX
  5
47DD
  8
0
 10
108.7475737164
 20
62.522214441800003
 30
0.0
  0
SEQEND
  5
47DE
  8
0
  0
ARC
  5
3E7F
  8
0
 10
107.2
 20
67.79999961259999
 30
0.0
 40
5.4999999999999973
 50
65.280148817099061
 51
286.34244809404157
  0
ARC
  5
3E80
  8
0
 10
113.6143229178
 20
120.87989468329999
 30
0.0
 40
49.7000000000019
 50
275.40983578769919
 51
277.61457847389943
  0
POLYLINE
  5
3E81
  8
0
 66
     1
 10
0.0
 20
0.0
 30
0.0
 70
   128
  0
VERTEX
  5
47DF
  8
0
 10
142.93979437350001
 20
68.389287550500001
 30
0.0
  0
VERTEX
  5
47E0
  8
0
 10
143.0741544187
 20
68.758780396000006
 30
0.0
  0
VERTEX
  5
47E1
  8
0
 10
143.18586842420001
 20
69.065990520399993
 30
0.0
  0
VERTEX
  5
47E2
  8
0
 10
143.27452288270001
 20
69.309791038
 30
0.0
  0
VERTEX
  5
47E3
  8
0
 10
143.33979369400001
 20
69.489287573599995
 30
0.0
  0
SEQEND
  5
47E4
  8
0
  0
ARC
  5
3E82
  8
0
 10
142.39987295469999
 20
69.830945064699989
 30
0.0
 40
1.0001288848059799
 50
0.004901889900056
 51
66.417157110899353
  0
ARC
  5
3E83
  8
0
 10
142.39928104000001
 20
69.831161930700006
 30
0.0
 40
1.00072080444247
 50
340.02390158870031
 51
359.99248242939979
  0
LINE
  5
3E84
  8
0
 10
142.93979437350001
 20
68.389287550500001
 30
0.0
 11
142.7999991298
 21
68.131030607300005
 31
0.0
  0
LINE
  5
3E87
  8
0
 10
113.2000000522
 20
61.10000011999999
 30
0.0
 11
101.1999999479
 21
61.10000011999999
 31
0.0
  0
LINE
  5
3E88
  8
0
 10
110.2000000259637
 20
107.90000020079989
 30
0.0
 11
110.2000000259637
 21
112.10000005099999
 31
0.0
  0
LINE
  5
3E89
  8
0
 10
104.1999999737637
 20
112.10000005099999
 30
0.0
 11
104.1999999737637
 21
107.90000020079989
 31
0.0
  0
LINE
  5
3E8A
  8
0
 10
101.7000000296636
 20
115.7500001370999
 30
0.0
 11
101.7000000296636
 21
112.10000005099999
 31
0.0
  0
LINE
  5
3E8B
  8
0
 10
101.7000000296636
 20
107.90000020079989
 30
0.0
 11
101.7000000296636
 21
104.2500001146999
 31
0.0
  0
ARC
  5
3E8C
  8
3
 10
107.19999999986361
 20
110.0000001259
 30
0.0
 40
1.2294999999653551
 50
104.1228406545424
 51
255.87715934545761
  0
LINE
  5
3E8D
  8
0
 10
101.7000000296636
 20
112.10000005099999
 30
0.0
 11
110.69999999746371
 21
112.10000005099999
 31
0.0
  0
LINE
  5
3E8E
  8
0
 10
120.20000026601841
 20
115.7500001370999
 30
0.0
 11
101.7000000296636
 21
115.7500001370999
 31
0.0
  0
LINE
  5
3E8F
  8
0
 10
101.7000000296636
 20
104.2500001146999
 30
0.0
 11
120.2000002664542
 21
104.2500001146999
 31
0.0
  0
LINE
  5
3E90
  8
0
 10
110.7000004860637
 20
107.90000020079989
 30
0.0
 11
101.7000000296636
 21
107.90000020079989
 31
0.0
  0
POLYLINE
  5
3E91
  8
0
 66
     1
 10
0.0
 20
0.0
 30
0.0
 70
   128
  0
VERTEX
  5
47E5
  8
0
 10
136.6000003485637
 20
116.90000004620001
 30
0.0
  0
VERTEX
  5
47E6
  8
0
 10
134.91033532906371
 20
117.0865905239999
 30
0.0
  0
VERTEX
  5
47E7
  8
0
 10
133.20000053636369
 20
117.2000000022
 30
0.0
  0
SEQEND
  5
47E8
  8
0
  0
ARC
  5
3E92
  8
0
 10
134.49908264536359
 20
107.12244109849991
 30
0.0
 40
10.000725682219789
 50
34.861032534700051
 51
77.87316313269973
  0
ARC
  5
3E93
  8
0
 10
134.4991313876636
 20
112.8774858815999
 30
0.0
 40
10.00064380597245
 50
282.12665203189908
 51
325.13915230080028
  0
POLYLINE
  5
3E94
  8
0
 66
     1
 10
0.0
 20
0.0
 30
0.0
 70
   128
  0
VERTEX
  5
47E9
  8
0
 10
133.20000053636369
 20
102.8000002496
 30
0.0
  0
VERTEX
  5
47EA
  8
0
 10
134.90441584276371
 20
102.9128872558
 30
0.0
  0
VERTEX
  5
47EB
  8
0
 10
136.6000003485637
 20
103.1000002056
 30
0.0
  0
SEQEND
  5
47EC
  8
0
  0
POLYLINE
  5
3E95
  8
0
 66
     1
 10
0.0
 20
0.0
 30
0.0
 70
   128
  0
VERTEX
  5
47ED
  8
0
 10
129.1999998806636
 20
103.1000002056
 30
0.0
  0
VERTEX
  5
47EE
  8
0
 10
131.1882096646637
 20
102.8760818533999
 30
0.0
  0
VERTEX
  5
47EF
  8
0
 10
133.20000053636369
 20
102.8000002496
 30
0.0
  0
SEQEND
  5
47F0
  8
0
  0
POLYLINE
  5
3E96
  8
0
 66
     1
 10
0.0
 20
0.0
 30
0.0
 70
   128
  0
VERTEX
  5
47F1
  8
0
 10
126.3508494316637
 20
103.9000002436
 30
0.0
  0
VERTEX
  5
47F2
  8
0
 10
127.75086381726371
 20
103.4398863792
 30
0.0
  0
VERTEX
  5
47F3
  8
0
 10
129.1999998806636
 20
103.1000002056
 30
0.0
  0
SEQEND
  5
47F4
  8
0
  0
LINE
  5
3E97
  8
0
 10
125.19999922506361
 20
104.0440469748999
 30
0.0
 11
126.3508494316637
 21
103.9000002436
 31
0.0
  0
LINE
  5
3E98
  8
0
 10
126.3508494316637
 20
116.1000000081999
 30
0.0
 11
125.19999922506361
 21
115.9559532769
 31
0.0
  0
POLYLINE
  5
3E99
  8
0
 66
     1
 10
0.0
 20
0.0
 30
0.0
 70
   128
  0
VERTEX
  5
47F5
  8
0
 10
129.1999998806636
 20
116.90000004620001
 30
0.0
  0
VERTEX
  5
47F6
  8
0
 10
127.76309394526371
 20
116.5635490559
 30
0.0
  0
VERTEX
  5
47F7
  8
0
 10
126.3508494316637
 20
116.1000000081999
 30
0.0
  0
SEQEND
  5
47F8
  8
0
  0
POLYLINE
  5
3E9A
  8
0
 66
     1
 10
0.0
 20
0.0
 30
0.0
 70
   128
  0
VERTEX
  5
47F9
  8
0
 10
133.20000053636369
 20
117.2000000022
 30
0.0
  0
VERTEX
  5
47FA
  8
0
 10
131.20377206496369
 20
117.1250848799999
 30
0.0
  0
VERTEX
  5
47FB
  8
0
 10
129.1999998806636
 20
116.90000004620001
 30
0.0
  0
SEQEND
  5
47FC
  8
0
  0
ARC
  5
3E9B
  8
0
 10
110.7000004860637
 20
108.09999971569999
 30
0.0
 40
0.1999995149041519
 50
269.99989165900053
 51
0.0001083409995516
  0
LINE
  5
3E9C
  8
0
 10
110.9000000009637
 20
108.10000009389999
 30
0.0
 11
110.9000000009637
 21
111.9000001578999
 31
0.0
  0
ARC
  5
3E9D
  8
0
 10
110.69999999746371
 20
111.9000000475
 30
0.0
 40
0.2000000035157562
 50
0.0000316363010016
 51
89.999968363698997
  0
ARC
  5
3E9E
  8
0
 10
121.18072150206361
 20
67.262955427599977
 30
0.0
 40
37.000044443588273
 50
83.763710700799876
 51
91.518856806099123
  0
ARC
  5
3E9F
  8
0
 10
121.18072337596369
 20
152.73699933069989
 30
0.0
 40
36.999999015753353
 50
268.48113842579932
 51
276.23629406730032
  0
ARC
  5
3EA0
  8
0
 10
136.89966449776369
 20
109.97214154140001
 30
0.0
 40
6.5003970345949451
 50
0.245551801800321
 51
24.81217243070089
  0
ARC
  5
3EA1
  8
0
 10
136.89710831356359
 20
110.02842675399999
 30
0.0
 40
6.5029556537112621
 50
335.19273587929928
 51
359.74953988810012
  0
LINE
  5
3EA2
  8
0
 10
142.70508618346361
 20
107.1612648901
 30
0.0
 11
142.7999991296636
 21
107.3000000559
 31
0.0
  0
LINE
  5
3EA3
  8
0
 10
142.70508618346361
 20
112.8387353618
 30
0.0
 11
142.7999991296636
 21
112.7000001959
 31
0.0
  0
ARC
  5
3EA4
  8
0
 10
62.894717782100031
 20
62.5
 30
0.0
 40
0.3000000000000114
 50
270.0
 51
318.4054197845993
  0
ARC
  5
3EA5
  8
0
 10
51.50528221790001
 20
62.5
 30
0.0
 40
0.3000000000000114
 50
221.6114641839992
 51
270.0
  0
ARC
  5
3EA6
  8
0
 10
62.099999999998431
 20
61.100000000000009
 30
0.0
 40
1.1000000000000041
 50
270.0
 51
0.0
  0
ARC
  5
3EA7
  8
0
 10
52.29999999999842
 20
61.100000000000009
 30
0.0
 40
1.0999999999999981
 50
180.0
 51
270.0
  0
LINE
  5
3EA8
  8
0
 10
51.199999999998447
 20
62.200000000000003
 30
0.0
 11
51.199999999998447
 21
61.100000000000009
 31
0.0
  0
LINE
  5
3EA9
  8
0
 10
63.199999999998447
 20
61.100000000000009
 30
0.0
 11
63.199999999998447
 21
62.200000000000003
 31
0.0
  0
LINE
  5
3EAA
  8
0
 10
55.699999999998447
 20
71.800000000000011
 30
0.0
 11
55.100000000000023
 21
71.800000000000011
 31
0.0
  0
LINE
  5
3EAB
  8
0
 10
59.300000000000011
 20
71.800000000000011
 30
0.0
 11
58.699999999998447
 21
71.800000000000011
 31
0.0
  0
LINE
  5
3EAD
  8
0
 10
55.100000000000023
 20
65.799999999999997
 30
0.0
 11
59.300000000000011
 21
65.799999999999997
 31
0.0
  0
LINE
  5
3EAE
  8
0
 10
55.100000000000023
 20
73.300000000000011
 30
0.0
 11
51.449999999999989
 21
73.300000000000011
 31
0.0
  0
LINE
  5
3EAF
  8
0
 10
62.949999999999989
 20
73.300000000000011
 30
0.0
 11
59.300000000000011
 21
73.300000000000011
 31
0.0
  0
LINE
  5
3EB0
  8
0
 10
64.230286683100019
 20
72.800000000000011
 30
0.0
 11
62.949999999999989
 21
72.800000000000011
 31
0.0
  0
LINE
  5
3EB1
  8
0
 10
59.300000000000011
 20
72.800000000000011
 30
0.0
 11
55.100000000000023
 21
72.800000000000011
 31
0.0
  0
LINE
  5
3EB2
  8
0
 10
51.449999999999989
 20
72.800000000000011
 30
0.0
 11
50.168623356900007
 21
72.800000000000011
 31
0.0
  0
POLYLINE
  5
3EB3
  8
0
 66
     1
 10
0.0
 20
0.0
 30
0.0
 70
   128
  0
VERTEX
  5
47FD
  8
0
 10
51.382460686100053
 20
62.505235722000009
 30
0.0
  0
VERTEX
  5
47FE
  8
0
 10
51.326856646400017
 20
62.431167587800012
 30
0.0
  0
VERTEX
  5
47FF
  8
0
 10
51.296707185899997
 20
62.372249675800013
 30
0.0
  0
VERTEX
  5
4800
  8
0
 10
51.282831887100031
 20
62.320270228399998
 30
0.0
  0
VERTEX
  5
4801
  8
0
 10
51.281672193500007
 20
62.300215597700003
 30
0.0
  0
VERTEX
  5
4802
  8
0
 10
51.281701455699988
 20
62.301485981799999
 30
0.0
  0
SEQEND
  5
4803
  8
0
  0
ARC
  5
3EB5
  8
0
 10
62.783767588900041
 20
62.262841229099998
 30
0.0
 40
0.3367555634901896
 50
6.5893703498001504
 51
46.037440712699841
  0
LINE
  5
3EB6
  8
0
 10
62.419276185400001
 20
63.200000000000003
 30
0.0
 11
51.980723814499981
 21
63.200000000000003
 31
0.0
  0
LINE
  5
3EB7
  8
0
 10
63.0175393138
 20
62.505235722000009
 30
0.0
 11
62.419276185400001
 21
63.200000000000003
 31
0.0
  0
LINE
  5
3EB8
  8
0
 10
51.980723814499981
 20
63.200000000000003
 30
0.0
 11
51.382460686100053
 21
62.505235722000009
 31
0.0
  0
LINE
  5
3EB9
  8
0
 10
52.29999999999842
 20
60.0
 30
0.0
 11
62.099999999998431
 21
60.0
 31
0.0
  0
LINE
  5
3EBA
  8
0
 10
63.199999999998447
 20
62.200000000000003
 30
0.0
 11
51.199999999998447
 21
62.200000000000003
 31
0.0
  0
ARC
  5
3EBB
  8
0
 10
57.199999633170187
 20
76.051325380386473
 30
0.0
 40
4.5081888147496061
 50
250.56557579472559
 51
289.43443409287897
  0
LINE
  5
3EBC
  8
0
 10
51.449999999999989
 20
73.300000000000011
 30
0.0
 11
51.449999999999989
 21
62.583669274781109
 31
0.0
  0
LINE
  5
3EBD
  8
0
 10
55.100000000000023
 20
63.200000000000003
 30
0.0
 11
55.100000000000023
 21
73.300000000000011
 31
0.0
  0
LINE
  5
3EBE
  8
0
 10
59.300000000000011
 20
73.300000000000011
 30
0.0
 11
59.300000000000011
 21
63.200000000000003
 31
0.0
  0
LINE
  5
3EBF
  8
0
 10
62.949999999999989
 20
62.58366927466497
 30
0.0
 11
62.949999999999989
 21
73.300000000000011
 31
0.0
  0
ARC
  5
3EC0
  8
3
 10
49.448332550400039
 20
71.627341749300015
 30
0.0
 40
2.0184888815781941
 50
7.402152015699941
 51
27.172846723400479
  0
ARC
  5
3EC1
  8
3
 10
64.958812398999996
 20
71.625119771700014
 30
0.0
 40
2.0258603966884081
 50
152.86352942000059
 51
172.56168462299971
  0
LINE
  5
3EC2
  8
3
 10
63.15595333510003
 20
72.549137922200003
 30
0.0
 11
63.300000000000011
 21
72.659143290000003
 31
0.0
  0
LINE
  5
3EC3
  8
3
 10
63.201867337099991
 20
68.971417961900002
 30
0.0
 11
63.300000000000011
 21
69.045990231800019
 31
0.0
  0
ARC
  5
3EC4
  8
3
 10
65.697029012500025
 20
67.822093770300015
 30
0.0
 40
2.7471399460956771
 50
155.26820384140009
 51
172.2499770367327
  0
LINE
  5
3EC5
  8
3
 10
51.100000000000023
 20
72.659143290000003
 30
0.0
 11
51.24404666480001
 21
72.549137922200003
 31
0.0
  0
ARC
  5
3EC6
  8
3
 10
48.697094701200001
 20
67.820771154400006
 30
0.0
 40
2.753030868211463
 50
7.7661838930103073
 51
24.705632106400209
  0
LINE
  5
3EC7
  8
3
 10
51.198132662799992
 20
68.971417961900002
 30
0.0
 11
51.100000000000023
 21
69.045990231800019
 31
0.0
  0
POLYLINE
  5
3EC8
  8
0
 66
     1
 10
0.0
 20
0.0
 30
0.0
 70
   128
  0
VERTEX
  5
4804
  8
0
 10
64.230286683100019
 20
72.800000000000011
 30
0.0
  0
VERTEX
  5
4805
  8
0
 10
64.323918335200005
 20
72.777214574200016
 30
0.0
  0
VERTEX
  5
4806
  8
0
 10
64.380705059700006
 20
72.732252052900009
 30
0.0
  0
VERTEX
  5
4807
  8
0
 10
64.400000000000034
 20
72.663135557000004
 30
0.0
  0
SEQEND
  5
4808
  8
0
  0
POLYLINE
  5
3EC9
  8
3
 66
     1
 10
0.0
 20
0.0
 30
0.0
 70
   128
  0
VERTEX
  5
4809
  8
3
 10
63.300000000000011
 20
72.659143290000003
 30
0.0
  0
VERTEX
  5
480A
  8
3
 10
63.760113965199992
 20
72.750337768200012
 30
0.0
  0
VERTEX
  5
480B
  8
3
 10
64.100000000000023
 20
72.795744466800016
 30
0.0
  0
SEQEND
  5
480C
  8
3
  0
POLYLINE
  5
3ECA
  8
3
 66
     1
 10
0.0
 20
0.0
 30
0.0
 70
   128
  0
VERTEX
  5
480D
  8
3
 10
50.300000000000011
 20
72.795744466800016
 30
0.0
  0
VERTEX
  5
480E
  8
3
 10
50.636450998399987
 20
72.750929185199993
 30
0.0
  0
VERTEX
  5
480F
  8
3
 10
51.100000000000023
 20
72.659143290000003
 30
0.0
  0
SEQEND
  5
4810
  8
3
  0
POLYLINE
  5
3ECB
  8
0
 66
     1
 10
0.0
 20
0.0
 30
0.0
 70
   128
  0
VERTEX
  5
4811
  8
0
 10
50.0
 20
72.663135557000004
 30
0.0
  0
VERTEX
  5
4812
  8
0
 10
50.018928410100038
 20
72.731699260400006
 30
0.0
  0
VERTEX
  5
4813
  8
0
 10
50.074915388299992
 20
72.776700697400017
 30
0.0
  0
VERTEX
  5
4814
  8
0
 10
50.168623356900007
 20
72.800000000000011
 30
0.0
  0
SEQEND
  5
4815
  8
0
  0
POLYLINE
  5
3ECC
  8
3
 66
     1
 10
0.0
 20
0.0
 30
0.0
 70
   128
  0
VERTEX
  5
4816
  8
3
 10
63.300000000000011
 20
69.045990231800019
 30
0.0
  0
VERTEX
  5
4817
  8
3
 10
63.760020837199988
 20
69.145694255199984
 30
0.0
  0
VERTEX
  5
4818
  8
3
 10
64.100000000000023
 20
69.195348557700001
 30
0.0
  0
SEQEND
  5
4819
  8
3
  0
POLYLINE
  5
3ECD
  8
3
 66
     1
 10
0.0
 20
0.0
 30
0.0
 70
   128
  0
VERTEX
  5
481A
  8
3
 10
64.100000000000023
 20
69.195348557700001
 30
0.0
  0
VERTEX
  5
481B
  8
3
 10
64.323908486499974
 20
69.175098391500015
 30
0.0
  0
VERTEX
  5
481C
  8
3
 10
64.400000000000034
 20
69.050356677999986
 30
0.0
  0
SEQEND
  5
481D
  8
3
  0
LINE
  5
3ECE
  8
0
 10
64.400000000000034
 20
69.050356677999986
 30
0.0
 11
64.320689273300033
 21
68.913539279800005
 31
0.0
  0
LINE
  5
3ECF
  8
0
 10
50.079310726599992
 20
68.913539279800005
 30
0.0
 11
50.0
 21
69.050356677999986
 31
0.0
  0
POLYLINE
  5
3ED0
  8
3
 66
     1
 10
0.0
 20
0.0
 30
0.0
 70
   128
  0
VERTEX
  5
481E
  8
3
 10
50.0
 20
69.050356677999986
 30
0.0
  0
VERTEX
  5
481F
  8
3
 10
50.074859824700013
 20
69.174504925299999
 30
0.0
  0
VERTEX
  5
4820
  8
3
 10
50.300000000000011
 20
69.195348557700001
 30
0.0
  0
SEQEND
  5
4821
  8
3
  0
POLYLINE
  5
3ED1
  8
3
 66
     1
 10
0.0
 20
0.0
 30
0.0
 70
   128
  0
VERTEX
  5
4822
  8
3
 10
50.300000000000011
 20
69.195348557700001
 30
0.0
  0
VERTEX
  5
4823
  8
3
 10
50.636468342500002
 20
69.146355133
 30
0.0
  0
VERTEX
  5
4824
  8
3
 10
51.100000000000023
 20
69.045990231800019
 30
0.0
  0
SEQEND
  5
4825
  8
3
  0
LINE
  5
3ED2
  8
0
 10
64.400000000000034
 20
72.663135557000004
 30
0.0
 11
64.400000000000034
 21
69.050356677999986
 31
0.0
  0
LINE
  5
3ED3
  8
0
 10
50.0
 20
72.663135557000004
 30
0.0
 11
50.0
 21
69.050356677999986
 31
0.0
  0
ARC
  5
3ED4
  8
0
 10
61.744417809100007
 20
72.829845957600014
 30
0.0
 40
4.7977920729964882
 50
284.8616254161883
 51
299.40449686989939
  0
ARC
  5
3ED5
  8
0
 10
52.732948587200042
 20
73.022195589700004
 30
0.0
 40
5.0034201211315477
 50
240.90513256589989
 51
254.8447099011216
  0
LINE
  5
3ED6
  8
0
 10
64.320689273300033
 20
68.913539279800005
 30
0.0
 11
64.100000000000023
 21
68.6501281062
 31
0.0
  0
LINE
  5
3ED7
  8
0
 10
50.300000000000011
 20
68.6501281062
 30
0.0
 11
50.079310726599992
 21
68.913539279800005
 31
0.0
  0
LINE
  5
3ED8
  8
0
 10
63.199999999998447
 20
61.100000000000009
 30
0.0
 11
51.199999999998447
 21
61.100000000000009
 31
0.0
  0
ARC
  5
3ED9
  8
0
 10
107.19999999986361
 20
110.0000001259
 30
0.0
 40
6.000000052200007
 50
73.402156566221024
 51
106.59784343377891
  0
ARC
  5
3EDA
  8
0
 10
107.19999999986361
 20
110.0000001259
 30
0.0
 40
6.000000052200007
 50
253.40215656622109
 51
286.59784343377902
  0
ARC
  5
3EDB
  8
0
 10
107.19999999986361
 20
110.0000001259
 30
0.0
 40
6.0000000521999928
 50
156.44353383553019
 51
203.55646616446981
  0
ARC
  5
3EDC
  8
0
 10
107.19999999986361
 20
110.0000001259
 30
0.0
 40
5.2192761854499992
 50
156.2745396312045
 51
203.7254603687955
  0
LINE
  5
3EDD
  8
1
 10
98.199999947663684
 20
110.0000001259
 30
0.0
 11
146.40000183567469
 21
110.0000001259
 31
0.0
  0
LINE
  5
3EDE
  8
1
 10
107.19999999986361
 20
118.7500001371
 30
0.0
 11
107.19999999986371
 21
101.2500001146999
 31
0.0
  0
CIRCLE
  5
3EDF
  8
0
 10
107.19999999986361
 20
110.0000001259
 30
0.0
 40
1.5
  0
LINE
  5
3EE4
  8
1
 10
57.199999999847641
 20
76.300000000000011
 30
0.0
 11
57.199999999998461
 21
47.00000012589998
 31
0.0
  0
LINE
  5
3EE5
  8
1
 10
47.0
 20
68.799999999999983
 30
0.0
 11
67.400000000000034
 21
68.799999999999983
 31
0.0
  0
POLYLINE
  5
3EE6
  8
3
 66
     1
 10
0.0
 20
0.0
 30
0.0
 70
   128
  0
VERTEX
  5
4826
  8
3
 10
64.100000000000023
 20
72.795744466800016
 30
0.0
  0
VERTEX
  5
4827
  8
3
 10
64.230286683100019
 20
72.800000000000011
 30
0.0
  0
SEQEND
  5
4828
  8
3
  0
POLYLINE
  5
3EE7
  8
3
 66
     1
 10
0.0
 20
0.0
 30
0.0
 70
   128
  0
VERTEX
  5
4829
  8
3
 10
50.168623356900007
 20
72.800000000000011
 30
0.0
  0
VERTEX
  5
482A
  8
3
 10
50.300000000000011
 20
72.795744466800016
 30
0.0
  0
SEQEND
  5
482B
  8
3
  0
LINE
  5
3EE8
  8
1
 10
107.2
 20
47.00000012589998
 30
0.0
 11
107.2
 21
76.29999961259999
 31
0.0
  0
LINE
  5
3EE9
  8
1
 10
115.7
 20
67.79999961259999
 30
0.0
 11
98.699999999999989
 21
67.79999961259999
 31
0.0
  0
LINE
  5
3EEA
  8
1
 10
115.7
 20
68.799999612600004
 30
0.0
 11
98.699999999999989
 21
68.799999612600004
 31
0.0
  0
ARC
  5
3EEF
  8
0
 10
65.697029012500025
 20
67.822093770300015
 30
0.0
 40
2.7471399460956771
 50
172.2499770367327
 51
179.48509124979989
  0
ARC
  5
3EF0
  8
0
 10
48.697094701200001
 20
67.820771154400006
 30
0.0
 40
2.753030868211463
 50
0.5472372592998163
 51
7.7661838930103073
  0
ARC
  5
3EF1
  8
0
 10
57.199999999998461
 20
61.548672477392671
 30
0.0
 40
4.5081909569669483
 50
70.565580457104559
 51
109.4344195428954
  0
LINE
  5
3F24
  8
0
 10
106.8999999998637
 20
108.53030628023011
 30
0.0
 11
106.8999999998637
 21
111.4696939715699
 31
0.0
  0
LINE
  5
3F25
  8
0
 10
107.4999999998637
 20
108.53030628023011
 30
0.0
 11
107.4999999998637
 21
111.4696939715699
 31
0.0
  0
ARC
  5
3F67
  8
3
 10
107.19999999986361
 20
110.0000001259
 30
0.0
 40
1.2294999999653551
 50
284.12284065454901
 51
75.87715934545092
  0
LINE
  5
3F84
  8
0
 10
105.7
 20
60.000000125899987
 30
0.0
 11
105.7
 21
50.30650012589998
 31
0.0
  0
LINE
  5
3F87
  8
0
 10
108.7
 20
50.30650012589998
 30
0.0
 11
108.7
 21
60.000000125899987
 31
0.0
  0
LINE
  5
3F8B
  8
0
 10
108.3935
 20
50.000000125899987
 30
0.0
 11
106.0065
 21
50.000000125899987
 31
0.0
  0
LINE
  5
3F8C
  8
0
 10
108.7
 20
50.30650012589998
 30
0.0
 11
105.7
 21
50.30650012589998
 31
0.0
  0
LINE
  5
3F8D
  8
0
 10
108.3935
 20
50.000000125899987
 30
0.0
 11
108.7
 21
50.30650012589998
 31
0.0
  0
LINE
  5
3F8E
  8
0
 10
105.7
 20
50.30650012589998
 30
0.0
 11
106.0065
 21
50.000000125899987
 31
0.0
  0
LINE
  5
3F91
  8
3
 10
105.9704999999217
 20
50.036000125978298
 30
0.0
 11
105.9704999999217
 21
60.000000125899987
 31
0.0
  0
LINE
  5
3F92
  8
3
 10
108.42949999982901
 20
50.036000125728961
 30
0.0
 11
108.42949999982901
 21
60.000000125899987
 31
0.0
  0
LINE
  5
44D4
  8
0
 10
55.699999999975027
 20
60.0
 30
0.0
 11
55.699999999975027
 21
50.3065
 31
0.0
  0
LINE
  5
44D5
  8
0
 10
58.699999999975027
 20
50.3065
 30
0.0
 11
58.699999999975027
 21
60.0
 31
0.0
  0
LINE
  5
44D6
  8
0
 10
58.393499999975013
 20
50.0
 30
0.0
 11
56.006499999975063
 21
50.0
 31
0.0
  0
LINE
  5
44D7
  8
0
 10
58.699999999975027
 20
50.3065
 30
0.0
 11
55.699999999975027
 21
50.3065
 31
0.0
  0
LINE
  5
44D8
  8
0
 10
58.393499999975013
 20
50.0
 30
0.0
 11
58.699999999975027
 21
50.3065
 31
0.0
  0
LINE
  5
44D9
  8
0
 10
55.699999999975027
 20
50.3065
 30
0.0
 11
56.006499999975063
 21
50.0
 31
0.0
  0
LINE
  5
44DA
  8
3
 10
55.970499999896731
 20
50.036000000078353
 30
0.0
 11
55.970499999896731
 21
60.0
 31
0.0
  0
LINE
  5
44DB
  8
3
 10
58.429499999803973
 20
50.035999999828967
 30
0.0
 11
58.429499999804023
 21
60.0
 31
0.0
  0
LINE
  5
4634
  8
0
 10
55.699999999999989
 20
63.199999999999989
 30
0.0
 11
55.699999999999989
 21
65.799999999999983
 31
0.0
  0
LINE
  5
4635
  8
0
 10
55.853500000106813
 20
72.000000125976641
 30
0.0
 11
58.546499999632708
 21
72.000000125976641
 31
0.0
  0
LINE
  5
4636
  8
0
 10
58.699999999999989
 20
65.799999999999983
 30
0.0
 11
58.699999999999989
 21
63.199999999999989
 31
0.0
  0
LINE
  5
4637
  8
0
 10
55.699999999849467
 20
71.846500125719302
 30
0.0
 11
55.853500000106813
 21
72.000000125976641
 31
0.0
  0
LINE
  5
463A
  8
3
 10
58.393499999975013
 20
65.799999612599976
 30
0.0
 11
58.393499999974942
 21
65.896009990691425
 31
0.0
  0
ARC
  5
463B
  8
0
 10
55.287452457481827
 20
63.442923943192959
 30
0.0
 40
0.1906620695522777
 50
86.226616089764377
 51
169.47207253090289
  0
ARC
  5
463C
  8
0
 10
59.118770838164266
 20
63.450932715989261
 30
0.0
 40
0.1832041234422628
 50
8.4205460552167501
 51
95.880765324114265
  0
LINE
  5
463D
  8
0
 10
59.099999999999959
 20
63.633172685482378
 30
0.0
 11
58.699999999999989
 21
63.633172685482378
 31
0.0
  0
LINE
  5
463E
  8
0
 10
55.699999999999989
 20
63.633172685482378
 30
0.0
 11
55.300000000000011
 21
63.633172685482378
 31
0.0
  0
LINE
  5
464F
  8
0
 10
55.699999999849467
 20
71.846500125719302
 30
0.0
 11
55.699999999991348
 21
71.800000000076665
 31
0.0
  0
LINE
  5
4651
  8
0
 10
58.699999999877541
 20
71.846500125734991
 30
0.0
 11
58.546499999618611
 21
72.000000125990724
 31
0.0
  0
LINE
  5
4652
  8
0
 10
58.699999999877541
 20
71.846500125734991
 30
0.0
 11
58.699999999736178
 21
71.800000000092354
 31
0.0
  0
LINE
  5
4653
  8
3
 10
58.429499999799127
 20
71.714034147613106
 30
0.0
 11
58.429499999796178
 21
72.000000125733393
 31
0.0
  0
LINE
  5
4654
  8
0
 10
55.699999999849467
 20
71.846500125719302
 30
0.0
 11
58.699999999893237
 21
71.846500125719302
 31
0.0
  0
LINE
  5
4657
  8
3
 10
56.006499999828577
 20
65.799999612587612
 30
0.0
 11
56.006499999827611
 21
65.896009990679062
 31
0.0
  0
LINE
  5
4658
  8
3
 10
55.970499999679639
 20
71.714033939789005
 30
0.0
 11
55.970499999679589
 21
72.00000012572103
 31
0.0
  0
ENDSEC
  0
EOF
