  0
SECTION
  2
HEADER
  9
$ACADVER
  1
AC1009
  9
$INSBASE
 10
0.0
 20
0.0
 30
0.0
  9
$EXTMIN
 10
0.0
 20
-2.960436562073669
 30
0.0
  9
$EXTMAX
 10
108.5000158256738985
 20
93.2167476036738805
 30
0.0
  9
$LIMMIN
 10
0.0
 20
0.0
  9
$LIMMAX
 10
375.0
 20
270.0
  9
$ORTHOMODE
 70
     0
  9
$REGENMODE
 70
     1
  9
$FILLMODE
 70
     1
  9
$QTEXTMODE
 70
     0
  9
$MIRRTEXT
 70
     0
  9
$DRAGMODE
 70
     2
  9
$LTSCALE
 40
5.0
  9
$OSMODE
 70
    37
  9
$ATTMODE
 70
     1
  9
$TEXTSIZE
 40
0.2
  9
$TRACEWID
 40
0.05
  9
$TEXTSTYLE
  7
STANDARD
  9
$CLAYER
  8
0
  9
$CELTYPE
  6
BYLAYER
  9
$CECOLOR
 62
   256
  9
$DIMSCALE
 40
1.0
  9
$DIMASZ
 40
3.0
  9
$DIMEXO
 40
2.0
  9
$DIMDLI
 40
10.0
  9
$DIMRND
 40
0.0
  9
$DIMDLE
 40
0.0
  9
$DIMEXE
 40
2.0
  9
$DIMTP
 40
0.0
  9
$DIMTM
 40
0.0
  9
$DIMTXT
 40
3.2000000000000002
  9
$DIMCEN
 40
0.09
  9
$DIMTSZ
 40
0.0
  9
$DIMTOL
 70
     0
  9
$DIMLIM
 70
     0
  9
$DIMTIH
 70
     0
  9
$DIMTOH
 70
     0
  9
$DIMSE1
 70
     0
  9
$DIMSE2
 70
     0
  9
$DIMTAD
 70
     1
  9
$DIMZIN
 70
     8
  9
$DIMBLK
  1

  9
$DIMASO
 70
     0
  9
$DIMSHO
 70
     0
  9
$DIMPOST
  1

  9
$DIMAPOST
  1

  9
$DIMALT
 70
     0
  9
$DIMALTD
 70
     2
  9
$DIMALTF
 40
25.3999999999999986
  9
$DIMLFAC
 40
1.0
  9
$DIMTOFL
 70
     1
  9
$DIMTVP
 40
1.6000000000000001
  9
$DIMTIX
 70
     0
  9
$DIMSOXD
 70
     0
  9
$DIMSAH
 70
     0
  9
$DIMBLK1
  1

  9
$DIMBLK2
  1

  9
$DIMSTYLE
  2
STANDARD
  9
$DIMCLRD
 70
     0
  9
$DIMCLRE
 70
     0
  9
$DIMCLRT
 70
     0
  9
$DIMTFAC
 40
1.0
  9
$DIMGAP
 40
0.09
  9
$LUNITS
 70
     2
  9
$LUPREC
 70
     1
  9
$SKETCHINC
 40
0.1
  9
$FILLETRAD
 40
0.0
  9
$AUNITS
 70
     0
  9
$AUPREC
 70
     0
  9
$MENU
  1
E:\r13\win\SUPPORT\ACAD
  9
$ELEVATION
 40
0.0
  9
$PELEVATION
 40
0.0
  9
$THICKNESS
 40
0.0
  9
$LIMCHECK
 70
     0
  9
$BLIPMODE
 70
     0
  9
$CHAMFERA
 40
0.0
  9
$CHAMFERB
 40
0.0
  9
$SKPOLY
 70
     0
  9
$TDCREATE
 40
2449840.6171180559322238
  9
$TDUPDATE
 40
2460566.5215393519029021
  9
$TDINDWG
 40
0.2127836574
  9
$TDUSRTIMER
 40
0.2127836574
  9
$USRTIMER
 70
     1
  9
$ANGBASE
 50
0.0
  9
$ANGDIR
 70
     0
  9
$PDMODE
 70
     0
  9
$PDSIZE
 40
0.0
  9
$PLINEWID
 40
0.0
  9
$COORDS
 70
     1
  9
$SPLFRAME
 70
     0
  9
$SPLINETYPE
 70
     6
  9
$SPLINESEGS
 70
     8
  9
$ATTDIA
 70
     1
  9
$ATTREQ
 70
     1
  9
$HANDLING
 70
     1
  9
$HANDSEED
  5
16A1
  9
$SURFTAB1
 70
     6
  9
$SURFTAB2
 70
     6
  9
$SURFTYPE
 70
     6
  9
$SURFU
 70
     6
  9
$SURFV
 70
     6
  9
$UCSNAME
  2

  9
$UCSORG
 10
0.0
 20
0.0
 30
0.0
  9
$UCSXDIR
 10
1.0
 20
0.0
 30
0.0
  9
$UCSYDIR
 10
0.0
 20
1.0
 30
0.0
  9
$PUCSNAME
  2

  9
$PUCSORG
 10
0.0
 20
0.0
 30
0.0
  9
$PUCSXDIR
 10
1.0
 20
0.0
 30
0.0
  9
$PUCSYDIR
 10
0.0
 20
1.0
 30
0.0
  9
$USERI1
 70
     0
  9
$USERI2
 70
     1
  9
$USERI3
 70
     0
  9
$USERI4
 70
     0
  9
$USERI5
 70
     0
  9
$USERR1
 40
0.0
  9
$USERR2
 40
0.0
  9
$USERR3
 40
0.0
  9
$USERR4
 40
0.0
  9
$USERR5
 40
0.0
  9
$WORLDVIEW
 70
     1
  9
$SHADEDGE
 70
     3
  9
$SHADEDIF
 70
    70
  9
$TILEMODE
 70
     1
  9
$MAXACTVP
 70
    16
  9
$PLIMCHECK
 70
     0
  9
$PEXTMIN
 10
1.0000000000000000E+20
 20
1.0000000000000000E+20
 30
1.0000000000000000E+20
  9
$PEXTMAX
 10
-1.0000000000000000E+20
 20
-1.0000000000000000E+20
 30
-1.0000000000000000E+20
  9
$PLIMMIN
 10
0.0
 20
0.0
  9
$PLIMMAX
 10
12.0
 20
9.0
  9
$UNITMODE
 70
     0
  9
$VISRETAIN
 70
     0
  9
$PLINEGEN
 70
     0
  9
$PSLTSCALE
 70
     0
  0
ENDSEC
  0
SECTION
  2
TABLES
  0
TABLE
  2
VPORT
 70
     1
  0
VPORT
  2
*ACTIVE
 70
     0
 10
0.0
 20
0.0
 11
1.0
 21
1.0
 12
69.3770022094357159
 22
45.1270993759458605
 13
0.0
 23
0.0
 14
10.0
 24
10.0
 15
10.0
 25
10.0
 16
0.0
 26
0.0
 36
1.0
 17
0.0
 27
0.0
 37
0.0
 40
96.9706111991210093
 41
2.3485221674876842
 42
50.0
 43
0.0
 44
0.0
 50
0.0
 51
0.0
 71
     0
 72
   100
 73
     1
 74
     0
 75
     0
 76
     0
 77
     0
 78
     0
  0
ENDTAB
  0
TABLE
  2
LTYPE
 70
     4
  0
LTYPE
  2
CONTINUOUS
 70
     0
  3
Solid Line
 72
    65
 73
     0
 40
0.0
  0
LTYPE
  2
CENTER
 70
     0
  3
____ _ ____ _ ____ _ ____ _ ____ _ ____ _ ____
 72
    65
 73
     4
 40
2.0
 49
1.25
 49
-0.25
 49
0.25
 49
-0.25
  0
LTYPE
  2
HIDDEN
 70
     0
  3
Hidden __ __ __ __ __ __ __ __ __ __ __ __ __ _
 72
    65
 73
     2
 40
0.375
 49
0.25
 49
-0.125
  0
LTYPE
  2
PHANTOM2
 70
     0
  3
___ _ _ ___ _ _ ___ _ _ ___ _ _
 72
    65
 73
     6
 40
1.25
 49
0.625
 49
-0.125
 49
0.125
 49
-0.125
 49
0.125
 49
-0.125
  0
ENDTAB
  0
TABLE
  2
LAYER
 70
     5
  0
LAYER
  2
0
 70
     0
 62
     7
  6
CONTINUOUS
  0
LAYER
  2
1
 70
     0
 62
     1
  6
CENTER
  0
LAYER
  2
3
 70
     0
 62
     3
  6
CONTINUOUS
  0
LAYER
  2
2
 70
     0
 62
     2
  6
HIDDEN
  0
LAYER
  2
DEFPOINTS
 70
     0
 62
     7
  6
CONTINUOUS
  0
ENDTAB
  0
TABLE
  2
STYLE
 70
     2
  0
STYLE
  2
STANDARD
 70
     0
 40
0.0
 41
1.0
 50
0.0
 71
     0
 42
0.2
  3
TXT
  4
BIGFONT
  0
STYLE
  2
STANDARD1
 70
     0
 40
0.0
 41
1.0
 50
0.0
 71
     0
 42
3.0
  3
txt
  4

  0
ENDTAB
  0
TABLE
  2
VIEW
 70
     1
  0
VIEW
  2
ALL
 70
     0
 40
270.0
 10
220.9915970000000129
 20
135.0
 41
0.0
 11
0.0
 21
0.0
 31
1.0
 12
0.0
 22
0.0
 32
0.0
 42
0.0
 43
0.0
 44
0.0
 50
0.0
 71
     0
  0
ENDTAB
  0
TABLE
  2
UCS
 70
     0
  0
ENDTAB
  0
TABLE
  2
APPID
 70
     7
  0
APPID
  2
ACAD
 70
     0
  0
APPID
  2
ACAD_EXEMPT_FROM_CAD_STANDARDS
 70
     0
  0
APPID
  2
ACAD_MLEADERVER
 70
     0
  0
APPID
  2
ACAD_NAV_VCDISPLAY
 70
     0
  0
APPID
  2
ACAD_DSTYLE_DIMRADIAL_EXTENSION
 70
     0
  0
APPID
  2
ACAD_DSTYLE_DIMJAG
 70
     0
  0
APPID
  2
ACAD_DSTYLE_DIMTALN
 70
     0
  0
ENDTAB
  0
TABLE
  2
DIMSTYLE
 70
     2
  0
DIMSTYLE
  2
STANDARD
 70
     0
  3

  4

  5

  6

  7

 40
1.0
 41
0.18
 42
0.0625
 43
0.38
 44
0.18
 45
0.0
 46
0.0
 47
0.0
 48
0.0
140
0.18
141
0.09
142
0.0
143
25.3999999999999986
144
1.0
145
0.0
146
1.0
147
0.09
 71
     0
 72
     0
 73
     1
 74
     1
 75
     0
 76
     0
 77
     0
 78
     0
170
     0
171
     2
172
     0
173
     0
174
     0
175
     0
176
     0
177
     0
178
     0
  0
DIMSTYLE
  2
ISO-25
 70
     0
  3

  4

  5

  6

  7

 40
1.0
 41
2.5
 42
0.625
 43
3.75
 44
1.25
 45
0.0
 46
0.0
 47
0.0
 48
0.0
140
2.5
141
2.5
142
0.0
143
0.03937007874016
144
1.0
145
0.0
146
1.0
147
0.625
 71
     0
 72
     0
 73
     0
 74
     0
 75
     0
 76
     0
 77
     1
 78
     8
170
     0
171
     3
172
     1
173
     0
174
     0
175
     0
176
     0
177
     0
178
     0
  0
ENDTAB
  0
ENDSEC
  0
SECTION
  2
BLOCKS
  0
BLOCK
  8
0
  2
$MODEL_SPACE
 70
     0
 10
0.0
 20
0.0
 30
0.0
  3
$MODEL_SPACE
  1

  0
ENDBLK
  5
E8
  8
0
  0
BLOCK
 67
     1
  8
0
  2
$PAPER_SPACE
 70
     0
 10
0.0
 20
0.0
 30
0.0
  3
$PAPER_SPACE
  1

  0
ENDBLK
  5
E6
 67
     1
  8
0
  0
ENDSEC
  0
SECTION
  2
ENTITIES
  0
TEXT
  5
E87
  8
0
 62
     3
 10
0.0
 20
0.0
 30
0.0
 40
10.0
  1
KCL03-SUS
  7
STANDARD1
  0
LINE
  5
1452
  8
0
 10
74.6500139898628277
 20
39.5480505270329772
 30
0.0
 11
74.6500139898628277
 21
41.7480505270332003
 31
0.0
  0
LINE
  5
1453
  8
0
 10
63.950013989862839
 20
41.7480505270332003
 30
0.0
 11
63.950013989862839
 21
39.5480505270329772
 31
0.0
  0
LINE
  5
1454
  8
0
 10
63.9500139898614677
 20
39.5480505270329772
 30
0.0
 11
64.5500139898614975
 21
38.9480505270330184
 31
0.0
  0
LINE
  5
1455
  8
0
 10
74.050013989864226
 20
38.9480505270330184
 30
0.0
 11
74.6500139898641919
 21
39.5480505270329772
 31
0.0
  0
LINE
  5
1456
  8
0
 10
64.5500139898614975
 20
42.3480505270321999
 30
0.0
 11
63.9500139898624909
 21
41.7480505270332003
 31
0.0
  0
LINE
  5
1457
  8
0
 10
74.6500139898632256
 20
41.7480505270332003
 30
0.0
 11
74.050013989864226
 21
42.3480505270321999
 31
0.0
  0
LINE
  5
1458
  8
0
 10
74.6500139898626571
 20
41.7480505270333069
 30
0.0
 11
71.0916612765806519
 21
41.7480505270333211
 31
0.0
  0
LINE
  5
1459
  8
0
 10
67.5083667031452705
 20
41.74805052703325
 30
0.0
 11
63.9500139898627324
 21
41.7480505270332003
 31
0.0
  0
LINE
  5
145A
  8
0
 10
63.950013989862839
 20
39.5480505270329772
 30
0.0
 11
74.6500139898628277
 21
39.5480505270329772
 31
0.0
  0
LINE
  5
145C
  8
0
 10
64.5500139898614975
 20
38.9480505270330184
 30
0.0
 11
74.0500139898641976
 21
38.9480505270330184
 31
0.0
  0
LINE
  5
145D
  8
0
 10
66.2850513035271831
 20
42.348050527032612
 30
0.0
 11
64.5500139898618954
 21
42.3480505270324272
 31
0.0
  0
LINE
  5
1460
  8
0
 10
74.0500139898638139
 20
42.3480505270324272
 30
0.0
 11
72.388409598800564
 21
42.348050527032612
 31
0.0
  0
CIRCLE
  5
1466
  8
0
 10
69.3000139898628618
 20
47.9480505270330184
 30
0.0
 40
3.0000000000427458
  0
ARC
  5
1469
  8
0
 10
87.7315365022981268
 20
-31.1434612131283508
 30
0.0
 40
79.7000000001292506
 50
82.0897321241978943
 51
83.6112823396196774
  0
LINE
  5
146A
  8
0
 10
95.3000139898627481
 20
48.1984072050197767
 30
0.0
 11
96.6000139898628163
 21
48.0615898068234415
 31
0.0
  0
ARC
  5
146D
  8
0
 10
91.9000139898625861
 20
9.6480505270323231
 30
0.0
 40
42.3000000000007006
 50
80.7491910297115965
 51
85.3896920845549801
  0
ARC
  5
146E
  8
0
 10
91.9000139898628134
 20
9.6480505270373822
 30
0.0
 40
38.6999999999956401
 50
84.9597641405644595
 51
90.8883422500393436
  0
ARC
  5
1470
  8
0
 10
91.9000139898628134
 20
9.6480505270326091
 30
0.0
 40
42.3000000000004022
 50
85.3896920845549801
 51
90.8127333472064322
  0
ARC
  5
1472
  8
0
 10
91.900013989862714
 20
9.6480505270394303
 30
0.0
 40
38.6999999999936009
 50
90.8883422500376952
 51
95.1132898591220766
  0
ARC
  5
1473
  8
0
 10
91.9000139898625861
 20
9.6480505270321544
 30
0.0
 40
42.3000000000008711
 50
90.8127333472064322
 51
94.6771016110746473
  0
ARC
  5
1475
  8
0
 10
104.1000139898633989
 20
47.8790815330964605
 30
0.0
 40
0.9999999999989171
 50
258.4630409612634026
 51
323.1301023541900008
  0
LINE
  5
1476
  8
0
 10
104.8050987781979018
 20
49.9314067254170197
 30
0.0
 11
104.9000139898628987
 21
49.8955966720885513
 31
0.0
  0
ARC
  5
1477
  8
0
 10
87.7275949947165969
 20
-31.1662624135580906
 30
0.0
 40
79.7231266849835976
 50
78.2959033303234406
 51
82.0891815719911762
  0
ARC
  5
1478
  8
0
 10
91.89908649831915
 20
9.6441893355611512
 30
0.0
 40
42.3039600745117497
 50
72.2371366137183486
 51
80.7487918698480343
  0
ARC
  5
147A
  8
0
 10
75.7143369075990336
 20
100.0279455977023986
 30
0.0
 40
49.6999999999904389
 50
277.6145784739355236
 51
283.4803703897890159
  0
LINE
  5
147B
  8
0
 10
84.1000139898628589
 20
46.9480505270329616
 30
0.0
 11
82.3000139898624639
 21
46.6230666262116173
 31
0.0
  0
ARC
  5
147C
  8
0
 10
91.9997649649585441
 20
28.7880135621656201
 30
0.0
 40
19.8038634623115115
 50
102.5397435605685956
 51
113.5093981044690992
  0
LINE
  5
147D
  8
0
 10
87.700013989862839
 20
48.1194684889433972
 30
0.0
 11
88.450863796656563
 21
48.1940407587640323
 31
0.0
  0
LINE
  5
147E
  8
0
 10
87.3000139898630323
 20
51.6971884492306515
 30
0.0
 11
88.450863796656563
 21
51.8071938170087094
 31
0.0
  0
ARC
  5
147F
  8
0
 10
74.2644887853476234
 20
96.2770728561956446
 30
0.0
 40
50.2999999999968779
 50
275.0589938723127261
 51
279.192501256591413
  0
ARC
  5
1480
  8
0
 10
80.6000139898628163
 20
35.9480505270331321
 30
0.0
 40
10.3999999999998796
 50
100.5266185500537972
 51
122.5789703928047061
  0
ARC
  5
1481
  8
0
 10
79.7960809842802519
 20
70.187526823977322
 30
0.0
 40
20.0000000000006004
 50
245.8075178616429923
 51
257.3025169558638936
  0
ARC
  5
1482
  8
0
 10
78.4000139898628277
 20
70.2480505270325182
 30
0.0
 40
19.7999999999995104
 50
261.285257981381676
 51
275.7973395408441206
  0
ARC
  5
1483
  8
0
 10
78.7130842386730336
 20
39.4988281859968708
 30
0.0
 40
6.4000000000000021
 50
125.4623053106661956
 51
143.026829130637708
  0
ARC
  5
1484
  8
0
 10
69.3000139898628618
 20
46.9480505270330113
 30
0.0
 40
5.5000000000000089
 50
65.2801488170775741
 51
293.5781784782021759
  0
ARC
  5
1486
  8
0
 10
69.4648037343876013
 20
47.1242968303099232
 30
0.0
 40
5.6000000000000068
 50
291.3110188876880216
 51
317.5978810614338954
  0
ARC
  5
1487
  8
0
 10
75.7143369075969304
 20
100.0279455977136962
 30
0.0
 40
49.7000000000019213
 50
275.4098357876877117
 51
277.614578473937172
  0
LINE
  5
1488
  8
0
 10
105.0398074133512978
 20
47.5373384700108303
 30
0.0
 11
105.4398074133513035
 21
48.6373384700108033
 31
0.0
  0
ARC
  5
1489
  8
0
 10
104.5000139899363063
 20
48.9790815331455391
 30
0.0
 40
0.9999999999265298
 50
359.9999999972382057
 51
66.4218215245535788
  0
ARC
  5
148A
  8
0
 10
104.5000139902370933
 20
48.9790815330314615
 30
0.0
 40
0.9999999996257145
 50
340.0168934743252862
 51
0.0000000037747332
  0
ARC
  5
148B
  8
0
 10
104.1000139898734034
 20
47.879081533091977
 30
0.0
 40
0.9999999999882255
 50
323.1301023540518145
 51
340.0168934781970052
  0
LINE
  5
148C
  8
0
 10
37.3853536867646099
 20
39.5480505270329772
 30
0.0
 11
37.3853536867646099
 21
41.4480505270330184
 31
0.0
  0
LINE
  5
148D
  8
0
 10
26.6853536867645893
 20
41.4480505270330184
 30
0.0
 11
26.6853536867645893
 21
39.5480505270329772
 31
0.0
  0
LINE
  5
148E
  8
0
 10
26.6853536867632215
 20
39.5480505270329772
 30
0.0
 11
27.2853536867632407
 21
38.9480505270330184
 31
0.0
  0
LINE
  5
148F
  8
0
 10
36.7853536867659727
 20
38.9480505270330184
 30
0.0
 11
37.385353686765967
 21
39.5480505270329772
 31
0.0
  0
LINE
  5
1493
  8
0
 10
33.5353536866878201
 20
50.9480505270330184
 30
0.0
 11
32.8561622730100922
 21
50.7672066054069404
 31
0.0
  0
LINE
  5
1494
  8
0
 10
33.5353536867442585
 20
44.9480505270330113
 30
0.0
 11
34.1353536867646312
 21
44.9480505270330113
 31
0.0
  0
LINE
  5
1495
  8
0
 10
29.9353536867646106
 20
44.9480505270330113
 30
0.0
 11
30.5353536867849584
 21
44.9480505270330113
 31
0.0
  0
LINE
  5
1496
  8
0
 10
30.5353536868413684
 20
50.9480505270330184
 30
0.0
 11
29.9353536867646106
 21
50.9480505270330184
 31
0.0
  0
LINE
  5
1497
  8
0
 10
34.1353536867646312
 20
50.9480505270330184
 30
0.0
 11
33.5353536866878201
 21
50.9480505270330184
 31
0.0
  0
LINE
  5
1498
  8
0
 10
26.2853536867646085
 20
41.4480505270330184
 30
0.0
 11
26.6853536867646213
 21
41.4480505270330184
 31
0.0
  0
LINE
  5
1499
  8
0
 10
29.9353536867645893
 20
52.4480505270330184
 30
0.0
 11
26.2853536867646085
 21
52.4480505270330184
 31
0.0
  0
LINE
  5
149A
  8
0
 10
37.3853536867646099
 20
41.4480505270330184
 30
0.0
 11
37.7853536867646085
 21
41.4480505270330184
 31
0.0
  0
LINE
  5
149B
  8
0
 10
37.7853536867646085
 20
52.4480505270330184
 30
0.0
 11
34.1353536867646312
 21
52.4480505270330184
 31
0.0
  0
LINE
  5
149C
  8
0
 10
39.0142219006363575
 20
51.9480505270330113
 30
0.0
 11
37.7853536867646866
 21
51.9480505270330113
 31
0.0
  0
LINE
  5
149D
  8
0
 10
34.1353536867646881
 20
51.9480505270330113
 30
0.0
 11
29.9353536867646994
 21
51.9480505270330113
 31
0.0
  0
LINE
  5
149E
  8
0
 10
26.2853536867647009
 20
51.9480505270330113
 30
0.0
 11
25.0565957201404217
 21
51.9480505270330113
 31
0.0
  0
POLYLINE
  5
149F
  8
0
 66
     1
 10
0.0
 20
0.0
 30
0.0
 70
   128
  0
VERTEX
  5
1668
  8
0
 10
27.0121574931045494
 20
41.748050527032909
 30
0.0
  0
VERTEX
  5
1669
  8
0
 10
26.8239924946454096
 20
41.5756801693495106
 30
0.0
  0
VERTEX
  5
166A
  8
0
 10
26.711484392870549
 20
41.4721450345177516
 30
0.0
  0
VERTEX
  5
166B
  8
0
 10
26.6928819176776813
 20
41.4549926528766974
 30
0.0
  0
SEQEND
  5
166C
  8
0
  0
LINE
  5
14A0
  8
0
 10
37.0585498804243798
 20
41.7480505270332571
 30
0.0
 11
27.0121574931040414
 21
41.7480505270328592
 31
0.0
  0
POLYLINE
  5
14A1
  8
0
 66
     1
 10
0.0
 20
0.0
 30
0.0
 70
   128
  0
VERTEX
  5
166D
  8
0
 10
37.3778254558515712
 20
41.4549926528766974
 30
0.0
  0
VERTEX
  5
166E
  8
0
 10
37.3831821225538832
 20
41.4500535471582623
 30
0.0
  0
VERTEX
  5
166F
  8
0
 10
37.3174941504963371
 20
41.510585243600552
 30
0.0
  0
VERTEX
  5
1670
  8
0
 10
37.2116329337889269
 20
41.6078938941747865
 30
0.0
  0
VERTEX
  5
1671
  8
0
 10
37.0585498804239322
 20
41.7480505270335911
 30
0.0
  0
SEQEND
  5
1672
  8
0
  0
LINE
  5
14A2
  8
0
 10
26.6853536867645893
 20
39.5480505270329772
 30
0.0
 11
37.3853536867646099
 21
39.5480505270329772
 31
0.0
  0
LINE
  5
14A3
  8
0
 10
27.2853536867632407
 20
38.9480505270330184
 30
0.0
 11
36.7853536867659727
 21
38.9480505270330184
 31
0.0
  0
ARC
  5
14A4
  8
0
 10
28.4001902214704387
 20
23.1652653284604391
 30
0.0
 40
20.50090480247394
 50
65.0175669411489139
 51
68.9943813691666463
  0
ARC
  5
14A5
  8
0
 10
35.7448692049504189
 20
22.9900520764926704
 30
0.0
 40
20.6911275602054303
 50
111.0239061859532939
 51
114.9641455037255042
  0
POLYLINE
  5
14A6
  8
0
 66
     1
 10
0.0
 20
0.0
 30
0.0
 70
   128
  0
VERTEX
  5
1673
  8
0
 10
28.3217731062442013
 20
42.3037882252046629
 30
0.0
  0
VERTEX
  5
1674
  8
0
 10
28.4815473231376508
 20
42.3460715103019183
 30
0.0
  0
VERTEX
  5
1675
  8
0
 10
28.5150554039523705
 20
42.3480505270401508
 30
0.0
  0
SEQEND
  5
1676
  8
0
  0
LINE
  5
14A7
  8
0
 10
35.5556519695821294
 20
42.3480505270325978
 30
0.0
 11
28.5150554039470912
 21
42.3480505270325978
 31
0.0
  0
POLYLINE
  5
14A8
  8
0
 66
     1
 10
0.0
 20
0.0
 30
0.0
 70
   128
  0
VERTEX
  5
1677
  8
0
 10
35.5556519695813904
 20
42.3480505270330028
 30
0.0
  0
VERTEX
  5
1678
  8
0
 10
35.6675871557112316
 20
42.3305393535564107
 30
0.0
  0
VERTEX
  5
1679
  8
0
 10
35.7489342672850512
 20
42.3037882252046629
 30
0.0
  0
SEQEND
  5
167A
  8
0
  0
ARC
  5
14AC
  8
0
 10
32.0341944989164134
 20
55.2008565391823183
 30
0.0
 40
4.509199791195214
 50
250.5857210867679044
 51
280.5029901024416858
  0
LINE
  5
14B3
  8
0
 10
29.9353536867645893
 20
42.3480505270321999
 30
0.0
 11
29.9353536867645893
 21
52.4480505270330184
 31
0.0
  0
LINE
  5
14B4
  8
0
 10
26.2853536867646085
 20
52.4480505270330184
 30
0.0
 11
26.2853536867646085
 21
41.4480505270330184
 31
0.0
  0
LINE
  5
14B5
  8
0
 10
37.7853536867646085
 20
41.4480505270330184
 30
0.0
 11
37.7853536867646085
 21
52.4480505270330184
 31
0.0
  0
LINE
  5
14B6
  8
0
 10
34.1353536867646312
 20
52.4480505270330184
 30
0.0
 11
34.1353536867646312
 21
42.3480505270321999
 31
0.0
  0
POLYLINE
  5
14B7
  8
0
 66
     1
 10
0.0
 20
0.0
 30
0.0
 70
   128
  0
VERTEX
  5
167B
  8
0
 10
33.9353536867645929
 20
51.3775966431548667
 30
0.0
  0
VERTEX
  5
167C
  8
0
 10
33.9985996878848482
 20
51.3813080296249325
 30
0.0
  0
VERTEX
  5
167D
  8
0
 10
34.0546784592983229
 20
51.3919134713242087
 30
0.0
  0
VERTEX
  5
167E
  8
0
 10
34.0990238104219827
 20
51.4085453715856318
 30
0.0
  0
VERTEX
  5
167F
  8
0
 10
34.1274985046862014
 20
51.4304336411120389
 30
0.0
  0
VERTEX
  5
1680
  8
0
 10
34.1353536867646312
 20
51.4510638010466081
 30
0.0
  0
SEQEND
  5
1681
  8
0
  0
ARC
  5
14B8
  8
0
 10
33.9479012292826781
 20
42.5909744702258024
 30
0.0
 40
0.1906620695524221
 50
10.5279274691251796
 51
93.7733839102029805
  0
POLYLINE
  5
14B9
  8
0
 66
     1
 10
0.0
 20
0.0
 30
0.0
 70
   128
  0
VERTEX
  5
1682
  8
0
 10
29.9353536867645893
 20
51.4510638010466081
 30
0.0
  0
VERTEX
  5
1683
  8
0
 10
29.9478492191747101
 20
51.4252282595473673
 30
0.0
  0
VERTEX
  5
1684
  8
0
 10
29.9845482178572489
 20
51.4025350477977767
 30
0.0
  0
VERTEX
  5
1685
  8
0
 10
30.0398095685587805
 20
51.3863931789622015
 30
0.0
  0
VERTEX
  5
1686
  8
0
 10
30.1038873936469713
 20
51.3784967715343726
 30
0.0
  0
VERTEX
  5
1687
  8
0
 10
30.1353536867645708
 20
51.3775966431548667
 30
0.0
  0
SEQEND
  5
1688
  8
0
  0
ARC
  5
14BA
  8
0
 10
30.1165828486003306
 20
42.5989832430221469
 30
0.0
 40
0.1832041234423367
 50
84.1192346759070091
 51
171.5794539447732063
  0
LINE
  5
14BB
  8
0
 10
33.9353536867645929
 20
51.3775966431548667
 30
0.0
 11
30.1353536867645992
 21
51.3775966431548667
 31
0.0
  0
LINE
  5
14BC
  8
0
 10
33.9353536867645929
 20
42.7812232125154068
 30
0.0
 11
30.1353536867645992
 21
42.7812232125154068
 31
0.0
  0
ARC
  5
14BD
  8
0
 10
24.283686237228661
 20
50.7753922763248227
 30
0.0
 40
2.0184888815780249
 50
7.4021520157146501
 51
27.1728467233962192
  0
ARC
  5
14C1
  8
0
 10
39.7941660858136927
 20
50.7731702986911486
 30
0.0
 40
2.0258603966896618
 50
152.8635294200406065
 51
172.5616846229397083
  0
LINE
  5
14C2
  8
0
 10
25.9353536867646106
 20
51.8071938170087094
 30
0.0
 11
26.0794003516328416
 21
51.6971884492306515
 31
0.0
  0
ARC
  5
14C3
  8
0
 10
23.5324483879568298
 20
46.968821681370251
 30
0.0
 40
2.753030868213119
 50
0.5472372592953383
 51
24.7056321063658295
  0
LINE
  5
14C4
  8
0
 10
26.0334863495952504
 20
48.1194684889433972
 30
0.0
 11
25.9353536867646106
 21
48.1940407587640323
 31
0.0
  0
LINE
  5
14C6
  8
0
 10
37.9913070218963469
 20
51.6971884492306515
 30
0.0
 11
38.1353536867646028
 21
51.8071938170087094
 31
0.0
  0
LINE
  5
14C8
  8
0
 10
38.0372210239339097
 20
48.1194684889433972
 30
0.0
 11
38.1353536867645815
 21
48.1940407587640323
 31
0.0
  0
ARC
  5
14C9
  8
0
 10
40.5323826992489771
 20
46.9701442973140786
 30
0.0
 40
2.7471399460940189
 50
155.2682038413690861
 51
179.4850912498104947
  0
POLYLINE
  5
14CA
  8
0
 66
     1
 10
0.0
 20
0.0
 30
0.0
 70
   128
  0
VERTEX
  5
1689
  8
0
 10
38.9353536867646994
 20
51.9437949938230403
 30
0.0
  0
VERTEX
  5
168A
  8
0
 10
39.0656403698515078
 20
51.9462416842568189
 30
0.0
  0
VERTEX
  5
168B
  8
0
 10
39.1592720220146191
 20
51.9252651012444275
 30
0.0
  0
VERTEX
  5
168C
  8
0
 10
39.2160587464692867
 20
51.8803025798971191
 30
0.0
  0
VERTEX
  5
168D
  8
0
 10
39.2353536867645403
 20
51.8111860840571978
 30
0.0
  0
SEQEND
  5
168E
  8
0
  0
ARC
  5
14CB
  8
0
 10
39.6280586950459224
 20
45.4761058568566625
 30
0.0
 40
6.5046785470867716
 50
96.1132116592250725
 51
103.2665620613861961
  0
ARC
  5
14CC
  8
0
 10
24.4452605891265193
 20
45.4914024199125322
 30
0.0
 40
6.489190890339378
 50
76.7248903948048593
 51
83.8953358845826074
  0
POLYLINE
  5
14CD
  8
0
 66
     1
 10
0.0
 20
0.0
 30
0.0
 70
   128
  0
VERTEX
  5
168F
  8
0
 10
24.8353536867646199
 20
51.8111860840572476
 30
0.0
  0
VERTEX
  5
1690
  8
0
 10
24.8542820969185208
 20
51.8797497874306472
 30
0.0
  0
VERTEX
  5
1691
  8
0
 10
24.9102690751303193
 20
51.9247512244005165
 30
0.0
  0
VERTEX
  5
1692
  8
0
 10
25.00397704372768
 20
51.9461509499221492
 30
0.0
  0
VERTEX
  5
1693
  8
0
 10
25.1353536867646916
 20
51.9437949938230403
 30
0.0
  0
SEQEND
  5
1694
  8
0
  0
ARC
  5
14CE
  8
0
 10
39.6328415926703101
 20
42.3903042447220386
 30
0.0
 40
5.9938157756773043
 50
96.6825311663880029
 51
104.4679750386488024
  0
POLYLINE
  5
14CF
  8
0
 66
     1
 10
0.0
 20
0.0
 30
0.0
 70
   128
  0
VERTEX
  5
1695
  8
0
 10
38.9353536867646426
 20
48.3433990847085227
 30
0.0
  0
VERTEX
  5
1696
  8
0
 10
39.0656294541630018
 20
48.3460743909180621
 30
0.0
  0
VERTEX
  5
1697
  8
0
 10
39.1592621732807515
 20
48.3231489185102703
 30
0.0
  0
VERTEX
  5
1698
  8
0
 10
39.2160591857801322
 20
48.2739881580370422
 30
0.0
  0
VERTEX
  5
1699
  8
0
 10
39.2353536867645971
 20
48.1984072050197767
 30
0.0
  0
SEQEND
  5
169A
  8
0
  0
LINE
  5
14D0
  8
0
 10
39.2353536867645403
 20
48.1984072050197767
 30
0.0
 11
39.1560429601324174
 21
48.0615898068234415
 31
0.0
  0
LINE
  5
14D1
  8
0
 10
24.9146644133967889
 20
48.0615898068234415
 30
0.0
 11
24.8353536867646483
 21
48.1984072050197767
 31
0.0
  0
POLYLINE
  5
14D2
  8
0
 66
     1
 10
0.0
 20
0.0
 30
0.0
 70
   128
  0
VERTEX
  5
169B
  8
0
 10
24.8353536867646199
 20
48.1984072050197767
 30
0.0
  0
VERTEX
  5
169C
  8
0
 10
24.8542612270051109
 20
48.2733498084787911
 30
0.0
  0
VERTEX
  5
169D
  8
0
 10
24.9102135114819703
 20
48.3225554522850516
 30
0.0
  0
VERTEX
  5
169E
  8
0
 10
25.0039266854823303
 20
48.3459695873227986
 30
0.0
  0
VERTEX
  5
169F
  8
0
 10
25.1353536867646596
 20
48.3433990847085227
 30
0.0
  0
SEQEND
  5
16A0
  8
0
  0
ARC
  5
14D3
  8
0
 10
24.4405578954156795
 20
42.4047238737037731
 30
0.0
 40
5.9791809182761977
 50
75.5224822542414529
 51
83.3270115407217276
  0
LINE
  5
14D6
  8
0
 10
24.8353536867646199
 20
51.8111860840572476
 30
0.0
 11
24.8353536867646199
 21
48.1984072050197767
 31
0.0
  0
LINE
  5
14D7
  8
0
 10
39.2353536867645403
 20
51.8111860840571978
 30
0.0
 11
39.2353536867645971
 21
48.1984072050197767
 31
0.0
  0
ARC
  5
14D8
  8
0
 10
36.5797714958807205
 20
51.9778964846325593
 30
0.0
 40
4.7977920729957884
 50
284.9481979072713216
 51
299.4044968698788125
  0
ARC
  5
14D9
  8
0
 10
27.5683022739936483
 20
52.1702461167068634
 30
0.0
 40
5.0034201211321969
 50
240.9051325658550979
 51
254.7609697125533899
  0
ARC
  5
14DA
  8
0
 10
37.2366270804898605
 20
49.4455474037947909
 30
0.0
 40
2.366325410681938
 50
315.8793402037886153
 51
324.2072424974065825
  0
ARC
  5
14DB
  8
0
 10
26.6882759106328002
 20
49.323390614608428
 30
0.0
 40
2.176657764016813
 50
215.4291963222447066
 51
224.4842209765537007
  0
LINE
  5
14DC
  8
0
 10
33.9353536867645929
 20
51.3775966431548667
 30
0.0
 11
33.9353536867645929
 21
50.9480505270330184
 31
0.0
  0
LINE
  5
14DD
  8
0
 10
33.9353536867645929
 20
44.9480505270330113
 30
0.0
 11
33.9353536867645929
 21
42.7812232125154068
 31
0.0
  0
LINE
  5
14DE
  8
0
 10
30.1353536867645992
 20
42.7812232125154068
 30
0.0
 11
30.1353536867645992
 21
44.9480505270330113
 31
0.0
  0
LINE
  5
14DF
  8
0
 10
30.1353536867645992
 20
50.9480505270330184
 30
0.0
 11
30.1353536867645992
 21
51.3775966431548667
 31
0.0
  0
LINE
  5
14E2
  8
0
 10
66.3000139898628618
 20
86.5667475924738312
 30
0.0
 11
66.3000139898628618
 21
82.3667475924738284
 31
0.0
  0
LINE
  5
14E3
  8
0
 10
72.3000139898628618
 20
82.3667475924738284
 30
0.0
 11
72.3000139898628618
 21
86.5667475924738312
 31
0.0
  0
LINE
  5
14E4
  8
0
 10
63.8000139898628618
 20
90.2167475924738653
 30
0.0
 11
63.8000139898628618
 21
86.5667475924738312
 31
0.0
  0
LINE
  5
14E5
  8
0
 10
63.8000139898628618
 20
82.3667475924738284
 30
0.0
 11
63.8000139898628618
 21
78.7167475924738653
 31
0.0
  0
ARC
  5
14E6
  8
0
 10
69.3000139898628618
 20
84.4667475924738653
 30
0.0
 40
5.3499999999999952
 50
156.8883980983657125
 51
203.1116019016378971
  0
ARC
  5
14E7
  8
0
 10
69.3000139898628618
 20
84.4667475924738653
 30
0.0
 40
4.7500000000013358
 50
153.7617174556785073
 51
206.2382825443214927
  0
ARC
  5
14F2
  8
0
 10
93.5754388932585783
 20
52.7048964976316086
 30
0.0
 40
39.000000000006203
 50
82.4495364584987271
 51
87.4655614031574373
  0
ARC
  5
14F3
  8
0
 10
96.5991044363030369
 20
81.589203006869667
 30
0.0
 40
10.0007099285859091
 50
34.8609951446941224
 51
77.8731914958358118
  0
ARC
  5
14F5
  8
0
 10
96.5991528441800256
 20
87.3442194090723376
 30
0.0
 40
10.0006286141331202
 50
282.1266249364009013
 51
325.1391884230689016
  0
ARC
  5
14F6
  8
0
 10
93.5754388932584789
 20
116.2285986873331041
 30
0.0
 40
39.0000000000231708
 50
272.5344385968425058
 51
277.5504635414980044
  0
ARC
  5
14F7
  8
0
 10
95.3137637272831171
 20
104.2667440914234049
 30
0.0
 40
26.9999999999734897
 50
261.4508711926495721
 51
269.9708221497173213
  0
ARC
  5
14F8
  8
0
 10
94.453626799107326
 20
94.271678788072478
 30
0.0
 40
17.0000000000093507
 50
249.3227304178201109
 51
259.3093282033200921
  0
LINE
  5
14F9
  8
0
 10
87.3000139898630749
 20
78.5107942573420985
 30
0.0
 11
88.450863796656563
 21
78.3667475924738426
 31
0.0
  0
LINE
  5
14FB
  8
0
 10
88.450863796656563
 20
90.5667475924738454
 30
0.0
 11
87.3000139898630749
 21
90.4227009276056322
 31
0.0
  0
ARC
  5
14FC
  8
0
 10
94.4536267991042564
 20
74.6618163968836654
 30
0.0
 40
17.0000000000003091
 50
100.6906717966764973
 51
110.6772695821815944
  0
ARC
  5
14FD
  8
0
 10
95.313763727285675
 20
64.6667510935081538
 30
0.0
 40
26.9999999999895692
 50
90.0291778502892157
 51
98.5491288073520195
  0
ARC
  5
14FE
  8
0
 10
72.8000139898628618
 20
82.5667475924738312
 30
0.0
 40
0.1999999999999886
 50
269.9999999999919282
 51
0.0
  0
LINE
  5
14FF
  8
0
 10
73.0000139898628504
 20
82.5667475924738312
 30
0.0
 11
73.0000139898628504
 21
86.3667475924738426
 31
0.0
  0
ARC
  5
1500
  8
0
 10
72.8000139898628049
 20
86.3667475924737289
 30
0.0
 40
0.2000000000001023
 50
0.0000000000227982
 51
89.9999999999837144
  0
LINE
  5
1503
  8
0
 10
72.8000139898628618
 20
82.3667475924738284
 30
0.0
 11
63.8000139898628618
 21
82.3667475924738568
 31
0.0
  0
LINE
  5
1504
  8
0
 10
72.8000139898628618
 20
86.5667475924738312
 30
0.0
 11
63.8000139898628618
 21
86.5667475924738312
 31
0.0
  0
ARC
  5
1507
  8
0
 10
83.2807364581441334
 20
41.7297473972718933
 30
0.0
 40
36.9999999999954667
 50
83.7637034781105569
 51
91.5188605429876958
  0
ARC
  5
1508
  8
0
 10
83.280736458144176
 20
127.2037477876741036
 30
0.0
 40
36.999999999993733
 50
268.4811394570123184
 51
276.2362965218911199
  0
LINE
  5
1509
  8
0
 10
82.3000139898624639
 20
78.7167475924738653
 30
0.0
 11
63.8000139898628618
 21
78.7167475924738511
 31
0.0
  0
LINE
  5
150A
  8
0
 10
63.8000139898628902
 20
90.2167475924738653
 30
0.0
 11
82.3000139898624639
 21
90.2167475924738653
 31
0.0
  0
ARC
  5
150D
  8
0
 10
99.0000732881287036
 20
84.4945121928592755
 30
0.0
 40
6.4999999999304343
 50
335.1871229293112719
 51
359.7552616523317965
  0
ARC
  5
150E
  8
0
 10
99.0000732880926648
 20
84.4389829920804402
 30
0.0
 40
6.4999999999664499
 50
0.244738347589983
 51
24.8128770706196988
  0
LINE
  5
150F
  8
0
 10
104.8050987781979018
 20
81.628012274460005
 30
0.0
 11
104.9000139898628987
 21
81.7667475924738056
 31
0.0
  0
ARC
  5
1510
  8
0
 10
96.5995270719039354
 20
81.5898383318595535
 30
0.0
 40
9.9999999988166124
 50
33.8962598376814483
 51
34.8593923690094272
  0
CIRCLE
  5
158F
  8
0
 10
69.3000139898628618
 20
84.4667475924738369
 30
0.0
 40
1.2294999999653551
  0
LINE
  5
1590
  8
1
 10
60.3000139376628681
 20
84.4667475924738369
 30
0.0
 11
108.5000158256738985
 21
84.4667475924738369
 31
0.0
  0
LINE
  5
1591
  8
1
 10
69.3000139898628618
 20
93.2167476036738805
 30
0.0
 11
69.3000139898628902
 21
75.7167475812738502
 31
0.0
  0
CIRCLE
  5
1592
  8
3
 10
69.3000139898628618
 20
84.4667475924738369
 30
0.0
 40
1.5
  0
LINE
  5
15C9
  8
1
 10
69.3000139898628618
 20
36.1480510403330015
 30
0.0
 11
69.3000139898628618
 21
55.44805052703299
 31
0.0
  0
LINE
  5
15CA
  8
1
 10
77.8000139898628618
 20
46.9480505270329971
 30
0.0
 11
60.8000139898628618
 21
46.9480505270329971
 31
0.0
  0
LINE
  5
15CB
  8
1
 10
77.8000139898628618
 20
47.9480505270330184
 30
0.0
 11
60.8000139898628618
 21
47.9480505270330184
 31
0.0
  0
LINE
  5
15D3
  8
0
 10
33.5353536866878201
 20
44.9480505270330113
 30
0.0
 11
32.8561622730100922
 21
45.1288944486591035
 31
0.0
  0
ARC
  5
15D4
  8
0
 10
32.0341944989164134
 20
40.6952445148837185
 30
0.0
 40
4.509199791195214
 50
79.4970098975582857
 51
109.4142789132320956
  0
LINE
  5
15D5
  8
2
 10
33.5337266977056814
 20
44.9480505270329971
 30
0.0
 11
33.5337266977056814
 21
50.9480505270330184
 31
0.0
  0
LINE
  5
15D6
  8
2
 10
33.263226697705683
 20
45.0205080270496296
 30
0.0
 11
33.2632266977056474
 21
50.8755930270164214
 31
0.0
  0
LINE
  5
15D7
  8
2
 10
30.8042266977056514
 20
45.0340165677527722
 30
0.0
 11
30.8042266977056691
 21
50.8620844667316376
 31
0.0
  0
LINE
  5
15D8
  8
2
 10
30.5337266977056707
 20
44.9480505270329971
 30
0.0
 11
30.5337266977056707
 21
50.9480505270330184
 31
0.0
  0
LINE
  5
15D9
  8
1
 10
32.0337266975548687
 20
55.4480505270330184
 30
0.0
 11
32.0337266977056814
 21
36.1480506529330015
 31
0.0
  0
LINE
  5
15DA
  8
1
 10
21.8337266977072204
 20
47.9480505270330113
 30
0.0
 11
42.233726697707219
 21
47.9480505270330113
 31
0.0
  0
ENDSEC
  0
EOF
