  0
SECTION
  2
HEADER
  9
$ACADVER
  1
AC1009
  9
$INSBASE
 10
0.0
 20
0.0
 30
0.0
  9
$EXTMIN
 10
0.0
 20
-2.960436562073669
 30
0.0
  9
$EXTMAX
 10
177.49999999999989
 20
230.00031260138081
 30
0.0
  9
$LIMMIN
 10
0.0
 20
0.0
  9
$LIMMAX
 10
375.0
 20
270.0
  9
$ORTHOMODE
 70
     1
  9
$REGENMODE
 70
     1
  9
$FILLMODE
 70
     1
  9
$QTEXTMODE
 70
     0
  9
$MIRRTEXT
 70
     0
  9
$DRAGMODE
 70
     2
  9
$LTSCALE
 40
6.0
  9
$OSMODE
 70
    37
  9
$ATTMODE
 70
     1
  9
$TEXTSIZE
 40
0.2
  9
$TRACEWID
 40
0.05
  9
$TEXTSTYLE
  7
STANDARD
  9
$CLAYER
  8
0
  9
$CELTYPE
  6
BYLAYER
  9
$CECOLOR
 62
   256
  9
$DIMSCALE
 40
1.0
  9
$DIMASZ
 40
3.0
  9
$DIMEXO
 40
1.0
  9
$DIMDLI
 40
6.0
  9
$DIMRND
 40
0.0
  9
$DIMDLE
 40
0.0
  9
$DIMEXE
 40
1.0
  9
$DIMTP
 40
495.0
  9
$DIMTM
 40
0.0
  9
$DIMTXT
 40
3.0
  9
$DIMCEN
 40
0.0
  9
$DIMTSZ
 40
0.0
  9
$DIMTOL
 70
     0
  9
$DIMLIM
 70
     0
  9
$DIMTIH
 70
     0
  9
$DIMTOH
 70
     0
  9
$DIMSE1
 70
     0
  9
$DIMSE2
 70
     0
  9
$DIMTAD
 70
     1
  9
$DIMZIN
 70
     8
  9
$DIMBLK
  1

  9
$DIMASO
 70
     0
  9
$DIMSHO
 70
     0
  9
$DIMPOST
  1

  9
$DIMAPOST
  1

  9
$DIMALT
 70
     0
  9
$DIMALTD
 70
     2
  9
$DIMALTF
 40
25.399999999999999
  9
$DIMLFAC
 40
1.0
  9
$DIMTOFL
 70
     1
  9
$DIMTVP
 40
0.0
  9
$DIMTIX
 70
     1
  9
$DIMSOXD
 70
     0
  9
$DIMSAH
 70
     0
  9
$DIMBLK1
  1

  9
$DIMBLK2
  1

  9
$DIMSTYLE
  2
STANDARD
  9
$DIMCLRD
 70
     0
  9
$DIMCLRE
 70
     0
  9
$DIMCLRT
 70
   256
  9
$DIMTFAC
 40
1.0
  9
$DIMGAP
 40
1.0
  9
$LUNITS
 70
     2
  9
$LUPREC
 70
     1
  9
$SKETCHINC
 40
0.1
  9
$FILLETRAD
 40
2.0
  9
$AUNITS
 70
     0
  9
$AUPREC
 70
     1
  9
$MENU
  1
C:\R13\WIN\SUPPORT\ACAD-I
  9
$ELEVATION
 40
0.0
  9
$PELEVATION
 40
0.0
  9
$THICKNESS
 40
0.0
  9
$LIMCHECK
 70
     0
  9
$BLIPMODE
 70
     0
  9
$CHAMFERA
 40
0.0
  9
$CHAMFERB
 40
0.0
  9
$SKPOLY
 70
     0
  9
$TDCREATE
 40
2451962.4112634258
  9
$TDUPDATE
 40
2458057.585332674
  9
$TDINDWG
 40
0.1947106366
  9
$TDUSRTIMER
 40
0.1947106366
  9
$USRTIMER
 70
     1
  9
$ANGBASE
 50
0.0
  9
$ANGDIR
 70
     0
  9
$PDMODE
 70
     0
  9
$PDSIZE
 40
0.0
  9
$PLINEWID
 40
0.0
  9
$COORDS
 70
     1
  9
$SPLFRAME
 70
     0
  9
$SPLINETYPE
 70
     6
  9
$SPLINESEGS
 70
     8
  9
$ATTDIA
 70
     0
  9
$ATTREQ
 70
     1
  9
$HANDLING
 70
     1
  9
$HANDSEED
  5
5241
  9
$SURFTAB1
 70
     6
  9
$SURFTAB2
 70
     6
  9
$SURFTYPE
 70
     6
  9
$SURFU
 70
     6
  9
$SURFV
 70
     6
  9
$UCSNAME
  2

  9
$UCSORG
 10
0.0
 20
0.0
 30
0.0
  9
$UCSXDIR
 10
1.0
 20
0.0
 30
0.0
  9
$UCSYDIR
 10
0.0
 20
1.0
 30
0.0
  9
$PUCSNAME
  2

  9
$PUCSORG
 10
0.0
 20
0.0
 30
0.0
  9
$PUCSXDIR
 10
1.0
 20
0.0
 30
0.0
  9
$PUCSYDIR
 10
0.0
 20
1.0
 30
0.0
  9
$USERI1
 70
     4
  9
$USERI2
 70
     1
  9
$USERI3
 70
     0
  9
$USERI4
 70
     0
  9
$USERI5
 70
     0
  9
$USERR1
 40
1.0
  9
$USERR2
 40
3.0
  9
$USERR3
 40
3.0
  9
$USERR4
 40
3.0
  9
$USERR5
 40
10.0
  9
$WORLDVIEW
 70
     1
  9
$SHADEDGE
 70
     3
  9
$SHADEDIF
 70
    70
  9
$TILEMODE
 70
     1
  9
$MAXACTVP
 70
    16
  9
$PLIMCHECK
 70
     0
  9
$PEXTMIN
 10
1.0000000000000000E+020
 20
1.0000000000000000E+020
 30
1.0000000000000000E+020
  9
$PEXTMAX
 10
-1.0000000000000000E+020
 20
-1.0000000000000000E+020
 30
-1.0000000000000000E+020
  9
$PLIMMIN
 10
0.0
 20
0.0
  9
$PLIMMAX
 10
12.0
 20
9.0
  9
$UNITMODE
 70
     0
  9
$VISRETAIN
 70
     0
  9
$PLINEGEN
 70
     0
  9
$PSLTSCALE
 70
     0
  0
ENDSEC
  0
SECTION
  2
TABLES
  0
TABLE
  2
VPORT
 70
     1
  0
VPORT
  2
*ACTIVE
 70
     0
 10
0.0
 20
0.0
 11
1.0
 21
1.0
 12
363.24786324786322
 22
200.0
 13
0.0
 23
0.0
 14
10.0
 24
10.0
 15
10.0
 25
10.0
 16
0.0
 26
0.0
 36
1.0
 17
0.0
 27
0.0
 37
0.0
 40
400.0
 41
1.816239316239316
 42
50.0
 43
0.0
 44
0.0
 50
0.0
 51
0.0
 71
     0
 72
   100
 73
     1
 74
     0
 75
     0
 76
     0
 77
     0
 78
     0
  0
ENDTAB
  0
TABLE
  2
LTYPE
 70
     4
  0
LTYPE
  2
CONTINUOUS
 70
     0
  3
Solid Line
 72
    65
 73
     0
 40
0.0
  0
LTYPE
  2
CENTER
 70
     0
  3
____ _ ____ _ ____ _ ____ _ ____ _ ____ _ ____
 72
    65
 73
     4
 40
2.0
 49
1.25
 49
-0.25
 49
0.25
 49
-0.25
  0
LTYPE
  2
PHANTOM2
 70
     0
  3
___ _ _ ___ _ _ ___ _ _ ___ _ _
 72
    65
 73
     6
 40
1.25
 49
0.625
 49
-0.125
 49
0.125
 49
-0.125
 49
0.125
 49
-0.125
  0
LTYPE
  2
HIDDEN
 70
     0
  3
_ _ _ _ _ _ _ _ _ _ _ _ _ _ _ _ _ _ _ _ _ _ _
 72
    65
 73
     2
 40
0.375
 49
0.25
 49
-0.125
  0
ENDTAB
  0
TABLE
  2
LAYER
 70
     5
  0
LAYER
  2
0
 70
     0
 62
     7
  6
CONTINUOUS
  0
LAYER
  2
1
 70
     0
 62
     1
  6
CENTER
  0
LAYER
  2
3
 70
     0
 62
     3
  6
CONTINUOUS
  0
LAYER
  2
DEFPOINTS
 70
     0
 62
     7
  6
CONTINUOUS
  0
LAYER
  2
2
 70
     0
 62
     2
  6
HIDDEN
  0
ENDTAB
  0
TABLE
  2
STYLE
 70
     2
  0
STYLE
  2
STANDARD
 70
     0
 40
0.0
 41
1.0
 50
0.0
 71
     0
 42
0.2
  3
SIMPLEX
  4
BIGFONT
  0
STYLE
  2
STANDARD1
 70
     0
 40
0.0
 41
1.0
 50
0.0
 71
     0
 42
3.0
  3
txt
  4

  0
ENDTAB
  0
TABLE
  2
VIEW
 70
     1
  0
VIEW
  2
OLE1
 70
     0
 40
23.205456353438649
 10
338.59170241122831
 20
147.26976484028091
 41
37.128730165501842
 11
0.0
 21
0.0
 31
1.0
 12
0.0
 22
0.0
 32
0.0
 42
50.0
 43
0.0
 44
0.0
 50
0.0
 71
     0
  0
ENDTAB
  0
TABLE
  2
UCS
 70
     0
  0
ENDTAB
  0
TABLE
  2
APPID
 70
    32
  0
APPID
  2
ACAD
 70
     0
  0
APPID
  2
GENIUS_GENOREF_13
 70
     0
  0
APPID
  2
GENIUS_GENOENT_13
 70
     0
  0
APPID
  2
GENIUS_GENBH_13
 70
     0
  0
APPID
  2
GENIUS_GENOBJ_13
 70
     0
  0
APPID
  2
GENIUS_GENODEF_13
 70
     0
  0
APPID
  2
GENIUS_GENOLIS_13
 70
     0
  0
APPID
  2
GENIUS_GENOBJ-NBEHI-BHF_13
 70
     0
  0
APPID
  2
GENIUS_GENOBJ-NBEHI-BHB_13
 70
     0
  0
APPID
  2
GENIUS_GENOBJ-F-PART_13
 70
     0
  0
APPID
  2
GENIUS_GEFSTDP_13
 70
     0
  0
APPID
  2
GENIUS_GENOBJ-N-RSSYM_13
 70
     0
  0
APPID
  2
GENIUS_GENSYMENT_13
 70
     0
  0
APPID
  2
GENIUS_GENOBJ-N-TIT_13
 70
     0
  0
APPID
  2
GENIUS_GENTITLE_13
 70
     0
  0
APPID
  2
GENIUS_GENZVEED_13
 70
     0
  0
APPID
  2
GENIUS_GENOBJ-N-LEADER_13
 70
     0
  0
APPID
  2
GENIUS_GENOBJ-N-FIL_13
 70
     0
  0
APPID
  2
GENIUS_GENOBJ-N-SEC_13
 70
     0
  0
APPID
  2
GENIUS_GENOBJ-N-CRS_13
 70
     0
  0
APPID
  2
GENIUS_GENOBJ-N-ZOO_13
 70
     0
  0
APPID
  2
GENIUS_GENZOO_13
 70
     0
  0
APPID
  2
GENIUS_GENOBJ-F-TOL_13
 70
     0
  0
APPID
  2
GENIUS_GENFIL_13
 70
     0
  0
APPID
  2
GENIUS_GENOBJ-N-CHA_13
 70
     0
  0
APPID
  2
GENIUS_GENOBJ-N-CEN_13
 70
     0
  0
APPID
  2
ACAD_MLEADERVER
 70
     0
  0
APPID
  2
ACAD_EXEMPT_FROM_CAD_STANDARDS
 70
     0
  0
APPID
  2
ACAD_NAV_VCDISPLAY
 70
     0
  0
APPID
  2
ACAD_DSTYLE_DIMJAG
 70
     0
  0
APPID
  2
ACAD_DSTYLE_DIMTALN
 70
     0
  0
APPID
  2
ACAD_DSTYLE_DIMRADIAL_EXTENSION
 70
     0
  0
ENDTAB
  0
TABLE
  2
DIMSTYLE
 70
     1
  0
DIMSTYLE
  2
STANDARD
 70
     0
  3

  4

  5

  6

  7

 40
1.0
 41
0.18
 42
0.0625
 43
0.38
 44
0.18
 45
0.0
 46
0.0
 47
0.0
 48
0.0
140
0.18
141
0.09
142
0.0
143
25.399999999999999
144
1.0
145
0.0
146
1.0
147
0.09
 71
     0
 72
     0
 73
     1
 74
     1
 75
     0
 76
     0
 77
     0
 78
     0
170
     0
171
     2
172
     0
173
     0
174
     0
175
     0
176
     0
177
     0
178
     0
  0
ENDTAB
  0
ENDSEC
  0
SECTION
  2
BLOCKS
  0
BLOCK
  8
0
  2
$MODEL_SPACE
 70
     0
 10
0.0
 20
0.0
 30
0.0
  3
$MODEL_SPACE
  1

  0
ENDBLK
  5
4119
  8
0
  0
BLOCK
 67
     1
  8
0
  2
$PAPER_SPACE
 70
     0
 10
0.0
 20
0.0
 30
0.0
  3
$PAPER_SPACE
  1

  0
ENDBLK
  5
4117
 67
     1
  8
0
  0
ENDSEC
  0
SECTION
  2
ENTITIES
  0
TEXT
  5
4A34
  8
0
 62
     3
 10
0.0
 20
0.0
 30
0.0
 40
10.0
  1
KAF75-12X050
  7
STANDARD1
  0
LINE
  5
4DEA
  8
1
 10
47.50073909828199
 20
187.50031260138081
 30
0.0
 11
177.49999999999989
 21
187.50031260138081
 31
0.0
  0
LINE
  5
4DEB
  8
0
 10
128.9999999999998
 20
123.0003126013808
 30
0.0
 11
128.9999999999998
 21
100.0003126013807
 31
0.0
  0
LINE
  5
4DEC
  8
0
 10
140.99999999999969
 20
100.0003126013807
 30
0.0
 11
140.99999999999969
 21
123.0003126013808
 31
0.0
  0
LINE
  5
4DED
  8
3
 10
129.94999999999979
 20
100.0003126013807
 30
0.0
 11
129.94999999999979
 21
123.9503126013808
 31
0.0
  0
LINE
  5
4DEE
  8
3
 10
140.0499999999999
 20
123.9503126013806
 30
0.0
 11
140.0499999999999
 21
100.0003126013807
 31
0.0
  0
LINE
  5
4DEF
  8
1
 10
134.99999999999989
 20
130.00031260138081
 30
0.0
 11
134.99999999999989
 21
45.0
 31
0.0
  0
LINE
  5
4DF3
  8
0
 10
151.019788365713
 20
67.000000000000085
 30
0.0
 11
118.980211634287
 21
67.000000000000085
 31
0.0
  0
LINE
  5
4DF4
  8
0
 10
52.5
 20
52.0
 30
0.0
 11
172.49999999999989
 21
52.0
 31
0.0
  0
LINE
  5
4DF5
  8
0
 10
145.969655114603
 20
75.000312601380699
 30
0.0
 11
124.0303448853972
 21
75.000312601380699
 31
0.0
  0
ARC
  5
4DF6
  8
0
 10
134.99999999999969
 20
77.296026802587306
 30
0.0
 40
10.296026802587109
 50
237.8110532386354
 51
302.18894676136853
  0
LINE
  5
4DF7
  8
0
 10
128.9999999999998
 20
78.500312601380699
 30
0.0
 11
140.99999999999969
 21
78.500312601380699
 31
0.0
  0
LINE
  5
4DF8
  8
0
 10
52.5
 20
50.0
 30
0.0
 11
172.49999999999989
 21
50.0
 31
0.0
  0
LINE
  5
4DFA
  8
0
 10
116.59939255041169
 20
65.825294630971513
 30
0.0
 11
105.9999999999999
 21
52.0
 31
0.0
  0
LINE
  5
4DFC
  8
0
 10
52.5
 20
52.0
 30
0.0
 11
52.5
 21
50.0
 31
0.0
  0
LINE
  5
4DFD
  8
1
 10
70.000739098281997
 20
55.0
 30
0.0
 11
70.000739098281997
 21
47.0
 31
0.0
  0
LINE
  5
4DFE
  8
2
 10
63.0
 20
52.0
 30
0.0
 11
63.0
 21
50.0
 31
0.0
  0
LINE
  5
4DFF
  8
2
 10
77.0
 20
52.0
 30
0.0
 11
77.0
 21
50.0
 31
0.0
  0
ARC
  5
4E02
  8
0
 10
118.980211634287
 20
64.000000000000099
 30
0.0
 40
3.0
 50
90.0
 51
142.52382043863631
  0
LINE
  5
4E03
  8
0
 10
129.5151724426986
 20
75.000312601380699
 30
0.0
 11
129.5151724426986
 21
68.582541014094716
 31
0.0
  0
LINE
  5
4E04
  8
0
 10
124.0303448853972
 20
75.000312601380699
 30
0.0
 11
124.0303448853972
 21
68.582541014094716
 31
0.0
  0
ARC
  5
4E05
  8
0
 10
126.7727586640479
 20
70.167457740118422
 30
0.0
 40
3.1674586598348249
 50
210.02480452746289
 51
329.97519547253478
  0
LINE
  5
4E08
  8
0
 10
128.9999999999998
 20
75.000312601380699
 30
0.0
 11
128.9999999999998
 21
90.000312601380742
 31
0.0
  0
LINE
  5
4E09
  8
3
 10
129.94999999999979
 20
78.500312601380699
 30
0.0
 11
129.94999999999979
 21
90.000312601380742
 31
0.0
  0
LINE
  5
4E0A
  8
0
 10
163.9999999999998
 20
52.0
 30
0.0
 11
153.4006074495887
 21
65.825294630971513
 31
0.0
  0
LINE
  5
4E0B
  8
0
 10
172.49999999999989
 20
50.0
 30
0.0
 11
172.49999999999989
 21
52.0
 31
0.0
  0
LINE
  5
4E0E
  8
0
 10
145.969655114603
 20
75.000312601380699
 30
0.0
 11
145.969655114603
 21
68.582541014094716
 31
0.0
  0
LINE
  5
4E0F
  8
0
 10
140.48482755730171
 20
75.000312601380699
 30
0.0
 11
140.48482755730171
 21
68.582541014094716
 31
0.0
  0
ARC
  5
4E10
  8
0
 10
143.2272413359521
 20
70.167457740118522
 30
0.0
 40
3.167458659834911
 50
210.02480452746519
 51
329.97519547253478
  0
ARC
  5
4E11
  8
0
 10
151.019788365713
 20
64.000000000000099
 30
0.0
 40
3.0
 50
37.47617956136304
 51
90.0
  0
LINE
  5
4E13
  8
0
 10
140.99999999999969
 20
90.000312601380742
 30
0.0
 11
140.99999999999969
 21
75.000312601380699
 31
0.0
  0
LINE
  5
4E15
  8
3
 10
140.0499999999999
 20
90.000312601380742
 30
0.0
 11
140.0499999999999
 21
78.500312601380699
 31
0.0
  0
LINE
  5
4E17
  8
1
 10
134.99999999999989
 20
230.00031260138081
 30
0.0
 11
134.99999999999989
 21
145.00031260138081
 31
0.0
  0
CIRCLE
  5
4E18
  8
0
 10
134.99999999999989
 20
187.50031260138081
 30
0.0
 40
29.0
  0
LINE
  5
4E1A
  8
0
 10
140.99999999999989
 20
123.0003126013808
 30
0.0
 11
138.99999999999989
 21
125.0003126013808
 31
0.0
  0
LINE
  5
4E1B
  8
0
 10
128.9999999999998
 20
123.0003126013808
 30
0.0
 11
140.99999999999989
 21
123.0003126013808
 31
0.0
  0
LINE
  5
4E1C
  8
0
 10
138.99999999999989
 20
125.0003126013808
 30
0.0
 11
130.99999999999989
 21
125.0003126013808
 31
0.0
  0
LINE
  5
4E1D
  8
0
 10
130.99999999999989
 20
125.0003126013808
 30
0.0
 11
128.9999999999998
 21
123.0003126013808
 31
0.0
  0
CIRCLE
  5
4E1E
  8
0
 10
134.99999999999989
 20
187.50031260138081
 30
0.0
 40
6.0
  0
CIRCLE
  5
4E1F
  8
3
 10
134.99999999999989
 20
187.50031260138081
 30
0.0
 40
5.0500000000000123
  0
CIRCLE
  5
4E21
  8
0
 10
134.99999999999989
 20
187.50031260138081
 30
0.0
 40
17.5
  0
CIRCLE
  5
4E23
  8
0
 10
70.0
 20
187.50031260138081
 30
0.0
 40
7.0
  0
LINE
  5
4E24
  8
1
 10
70.000739098281997
 20
197.50031257406749
 30
0.0
 11
70.000739098281969
 21
177.5003126286941
 31
0.0
  0
LINE
  5
4E26
  8
0
 10
129.5151724426986
 20
197.00031260138081
 30
0.0
 11
124.0303448853972
 21
187.50031260138081
 31
0.0
  0
LINE
  5
4E27
  8
0
 10
124.0303448853972
 20
187.50031260138081
 30
0.0
 11
129.5151724426986
 21
178.00031260138081
 31
0.0
  0
LINE
  5
4E28
  8
0
 10
129.5151724426986
 20
178.00031260138081
 30
0.0
 11
140.48482755730171
 21
178.00031260138081
 31
0.0
  0
LINE
  5
4E29
  8
0
 10
140.48482755730171
 20
178.00031260138081
 30
0.0
 11
145.969655114603
 21
187.50031260138081
 31
0.0
  0
LINE
  5
4E2A
  8
0
 10
145.969655114603
 20
187.50031260138081
 30
0.0
 11
140.48482755730171
 21
197.00031260138081
 31
0.0
  0
LINE
  5
4E2B
  8
0
 10
140.48482755730171
 20
197.00031260138081
 30
0.0
 11
129.5151724426986
 21
197.00031260138081
 31
0.0
  0
LINE
  5
4E57
  8
3
 10
129.9499999999997
 20
78.500312601380585
 30
0.0
 11
128.9999999999998
 21
76.854864334190253
 31
0.0
  0
LINE
  5
4E58
  8
3
 10
140.99999999999969
 20
76.854864334190239
 30
0.0
 11
140.04999999999981
 21
78.500312601380585
 31
0.0
  0
LINE
  5
4EC8
  8
0
 10
145.96965511460269
 20
100.0003126013807
 30
0.0
 11
124.0303448853966
 21
100.0003126013807
 31
0.0
  0
LINE
  5
4EC9
  8
0
 10
129.51517244270249
 20
91.137493512006586
 30
0.0
 11
129.51517244269479
 21
100.0003126013807
 31
0.0
  0
LINE
  5
4ECA
  8
0
 10
124.0303448853966
 20
91.137493512006586
 30
0.0
 11
124.0303448853966
 21
100.0003126013807
 31
0.0
  0
LINE
  5
4ECB
  8
0
 10
140.48482755729691
 20
91.137493512006586
 30
0.0
 11
140.48482755730461
 21
100.0003126013807
 31
0.0
  0
LINE
  5
4ECC
  8
0
 10
145.96965511460269
 20
91.137493512006586
 30
0.0
 11
145.96965511460269
 21
100.0003126013807
 31
0.0
  0
LINE
  5
4ECD
  8
0
 10
144.00000000000099
 20
90.000312601380756
 30
0.0
 11
125.99999999999829
 21
90.000312601380784
 31
0.0
  0
LINE
  5
4ECE
  8
0
 10
124.0303448853966
 20
91.137493512006586
 30
0.0
 11
125.99999999999829
 21
90.000312601380784
 31
0.0
  0
ARC
  5
4ECF
  8
0
 10
126.7727586640473
 20
95.145050957984054
 30
0.0
 40
4.8560632220084576
 50
244.38424746808431
 51
304.38424746800661
  0
ARC
  5
4ED0
  8
0
 10
134.99999999999969
 20
108.44048195996101
 30
0.0
 40
18.15149422398537
 50
252.4120462260245
 51
287.58795377397553
  0
ARC
  5
4ED1
  8
0
 10
143.2272413359521
 20
95.145050957984026
 30
0.0
 40
4.8560632220084576
 50
235.61575253199339
 51
295.61575253191569
  0
LINE
  5
4ED2
  8
0
 10
145.96965511460269
 20
91.137493512006586
 30
0.0
 11
144.00000000000099
 21
90.000312601380756
 31
0.0
  0
ARC
  5
50D9
  8
0
 10
134.99999999999989
 20
187.50031260138081
 30
0.0
 40
37.5
 50
252.07957617690559
 51
107.9204238230943
  0
ARC
  5
50DA
  8
0
 10
70.000739098281997
 20
187.50031260138081
 30
0.0
 40
17.5
 50
107.9204238230943
 51
252.07957617690559
  0
LINE
  5
50DB
  8
0
 10
64.616062485893778
 20
204.15129628943961
 30
0.0
 11
123.461407259168
 21
223.1809919329354
 31
0.0
  0
LINE
  5
50DC
  8
0
 10
123.461407259168
 20
151.81963326982631
 30
0.0
 11
64.616062485893778
 21
170.84932891332201
 31
0.0
  0
ENDSEC
  0
EOF
