  0
SECTION
  2
HEADER
  9
$ACADVER
  1
AC1009
  9
$INSBASE
 10
0.0
 20
0.0
 30
0.0
  9
$EXTMIN
 10
0.0
 20
-2.960436562073669
 30
0.0
  9
$EXTMAX
 10
92.500000000000057
 20
247.9999999999998
 30
0.0
  9
$LIMMIN
 10
0.0
 20
0.0
  9
$LIMMAX
 10
375.0
 20
270.0
  9
$ORTHOMODE
 70
     1
  9
$REGENMODE
 70
     1
  9
$FILLMODE
 70
     1
  9
$QTEXTMODE
 70
     0
  9
$MIRRTEXT
 70
     0
  9
$DRAGMODE
 70
     2
  9
$LTSCALE
 40
6.0
  9
$OSMODE
 70
    37
  9
$ATTMODE
 70
     1
  9
$TEXTSIZE
 40
0.2
  9
$TRACEWID
 40
0.05
  9
$TEXTSTYLE
  7
STANDARD
  9
$CLAYER
  8
0
  9
$CELTYPE
  6
BYLAYER
  9
$CECOLOR
 62
   256
  9
$DIMSCALE
 40
1.0
  9
$DIMASZ
 40
3.0
  9
$DIMEXO
 40
1.0
  9
$DIMDLI
 40
6.0
  9
$DIMRND
 40
0.0
  9
$DIMDLE
 40
0.0
  9
$DIMEXE
 40
1.0
  9
$DIMTP
 40
495.0
  9
$DIMTM
 40
0.0
  9
$DIMTXT
 40
3.0
  9
$DIMCEN
 40
0.0
  9
$DIMTSZ
 40
0.0
  9
$DIMTOL
 70
     0
  9
$DIMLIM
 70
     0
  9
$DIMTIH
 70
     0
  9
$DIMTOH
 70
     0
  9
$DIMSE1
 70
     0
  9
$DIMSE2
 70
     0
  9
$DIMTAD
 70
     1
  9
$DIMZIN
 70
     0
  9
$DIMBLK
  1

  9
$DIMASO
 70
     0
  9
$DIMSHO
 70
     0
  9
$DIMPOST
  1

  9
$DIMAPOST
  1

  9
$DIMALT
 70
     0
  9
$DIMALTD
 70
     2
  9
$DIMALTF
 40
25.399999999999999
  9
$DIMLFAC
 40
1.0
  9
$DIMTOFL
 70
     1
  9
$DIMTVP
 40
0.0
  9
$DIMTIX
 70
     1
  9
$DIMSOXD
 70
     0
  9
$DIMSAH
 70
     0
  9
$DIMBLK1
  1

  9
$DIMBLK2
  1

  9
$DIMSTYLE
  2
STANDARD
  9
$DIMCLRD
 70
     0
  9
$DIMCLRE
 70
     0
  9
$DIMCLRT
 70
     4
  9
$DIMTFAC
 40
1.0
  9
$DIMGAP
 40
1.0
  9
$LUNITS
 70
     2
  9
$LUPREC
 70
     1
  9
$SKETCHINC
 40
0.1
  9
$FILLETRAD
 40
2.0
  9
$AUNITS
 70
     0
  9
$AUPREC
 70
     1
  9
$MENU
  1
C:\R13\WIN\SUPPORT\ACAD-I
  9
$ELEVATION
 40
0.0
  9
$PELEVATION
 40
0.0
  9
$THICKNESS
 40
0.0
  9
$LIMCHECK
 70
     0
  9
$BLIPMODE
 70
     0
  9
$CHAMFERA
 40
0.0
  9
$CHAMFERB
 40
0.0
  9
$SKPOLY
 70
     0
  9
$TDCREATE
 40
2451962.4112634258
  9
$TDUPDATE
 40
2457032.3753284728
  9
$TDINDWG
 40
0.1364770486
  9
$TDUSRTIMER
 40
0.1364770486
  9
$USRTIMER
 70
     1
  9
$ANGBASE
 50
0.0
  9
$ANGDIR
 70
     0
  9
$PDMODE
 70
     0
  9
$PDSIZE
 40
0.0
  9
$PLINEWID
 40
0.0
  9
$COORDS
 70
     1
  9
$SPLFRAME
 70
     0
  9
$SPLINETYPE
 70
     6
  9
$SPLINESEGS
 70
     8
  9
$ATTDIA
 70
     0
  9
$ATTREQ
 70
     1
  9
$HANDLING
 70
     1
  9
$HANDSEED
  5
4FDC
  9
$SURFTAB1
 70
     6
  9
$SURFTAB2
 70
     6
  9
$SURFTYPE
 70
     6
  9
$SURFU
 70
     6
  9
$SURFV
 70
     6
  9
$UCSNAME
  2

  9
$UCSORG
 10
0.0
 20
0.0
 30
0.0
  9
$UCSXDIR
 10
1.0
 20
0.0
 30
0.0
  9
$UCSYDIR
 10
0.0
 20
1.0
 30
0.0
  9
$PUCSNAME
  2

  9
$PUCSORG
 10
0.0
 20
0.0
 30
0.0
  9
$PUCSXDIR
 10
1.0
 20
0.0
 30
0.0
  9
$PUCSYDIR
 10
0.0
 20
1.0
 30
0.0
  9
$USERI1
 70
     4
  9
$USERI2
 70
     1
  9
$USERI3
 70
     0
  9
$USERI4
 70
     0
  9
$USERI5
 70
     0
  9
$USERR1
 40
1.0
  9
$USERR2
 40
3.0
  9
$USERR3
 40
3.0
  9
$USERR4
 40
3.0
  9
$USERR5
 40
10.0
  9
$WORLDVIEW
 70
     1
  9
$SHADEDGE
 70
     3
  9
$SHADEDIF
 70
    70
  9
$TILEMODE
 70
     1
  9
$MAXACTVP
 70
    16
  9
$PLIMCHECK
 70
     0
  9
$PEXTMIN
 10
1.0000000000000000E+020
 20
1.0000000000000000E+020
 30
1.0000000000000000E+020
  9
$PEXTMAX
 10
-1.0000000000000000E+020
 20
-1.0000000000000000E+020
 30
-1.0000000000000000E+020
  9
$PLIMMIN
 10
0.0
 20
0.0
  9
$PLIMMAX
 10
12.0
 20
9.0
  9
$UNITMODE
 70
     0
  9
$VISRETAIN
 70
     0
  9
$PLINEGEN
 70
     0
  9
$PSLTSCALE
 70
     0
  0
ENDSEC
  0
SECTION
  2
TABLES
  0
TABLE
  2
VPORT
 70
     1
  0
VPORT
  2
*ACTIVE
 70
     0
 10
0.0
 20
0.0
 11
1.0
 21
1.0
 12
314.18636995827541
 22
180.0
 13
0.0
 23
0.0
 14
10.0
 24
10.0
 15
10.0
 25
10.0
 16
0.0
 26
0.0
 36
1.0
 17
0.0
 27
0.0
 37
0.0
 40
360.0
 41
1.7454798331015291
 42
50.0
 43
0.0
 44
0.0
 50
0.0
 51
0.0
 71
     0
 72
   100
 73
     1
 74
     0
 75
     0
 76
     0
 77
     0
 78
     0
  0
ENDTAB
  0
TABLE
  2
LTYPE
 70
     3
  0
LTYPE
  2
CONTINUOUS
 70
     0
  3
Solid Line
 72
    65
 73
     0
 40
0.0
  0
LTYPE
  2
CENTER
 70
     0
  3
____ _ ____ _ ____ _ ____ _ ____ _ ____ _ ____
 72
    65
 73
     4
 40
2.0
 49
1.25
 49
-0.25
 49
0.25
 49
-0.25
  0
LTYPE
  2
PHANTOM2
 70
     0
  3
___ _ _ ___ _ _ ___ _ _ ___ _ _
 72
    65
 73
     6
 40
1.25
 49
0.625
 49
-0.125
 49
0.125
 49
-0.125
 49
0.125
 49
-0.125
  0
ENDTAB
  0
TABLE
  2
LAYER
 70
     3
  0
LAYER
  2
0
 70
     0
 62
     7
  6
CONTINUOUS
  0
LAYER
  2
1
 70
     0
 62
     1
  6
CENTER
  0
LAYER
  2
3
 70
     0
 62
     3
  6
CONTINUOUS
  0
ENDTAB
  0
TABLE
  2
STYLE
 70
     2
  0
STYLE
  2
STANDARD
 70
     0
 40
0.0
 41
1.0
 50
0.0
 71
     0
 42
0.2
  3
SIMPLEX
  4
BIGFONT
  0
STYLE
  2
STANDARD1
 70
     0
 40
0.0
 41
1.0
 50
0.0
 71
     0
 42
3.0
  3
txt
  4

  0
ENDTAB
  0
TABLE
  2
VIEW
 70
     1
  0
VIEW
  2
OLE1
 70
     0
 40
23.205456353438649
 10
338.59170241122831
 20
147.26976484028091
 41
37.128730165501842
 11
0.0
 21
0.0
 31
1.0
 12
0.0
 22
0.0
 32
0.0
 42
50.0
 43
0.0
 44
0.0
 50
0.0
 71
     0
  0
ENDTAB
  0
TABLE
  2
UCS
 70
     0
  0
ENDTAB
  0
TABLE
  2
APPID
 70
    29
  0
APPID
  2
ACAD
 70
     0
  0
APPID
  2
GENIUS_GENOREF_13
 70
     0
  0
APPID
  2
GENIUS_GENOENT_13
 70
     0
  0
APPID
  2
GENIUS_GENBH_13
 70
     0
  0
APPID
  2
GENIUS_GENOBJ_13
 70
     0
  0
APPID
  2
GENIUS_GENODEF_13
 70
     0
  0
APPID
  2
GENIUS_GENOLIS_13
 70
     0
  0
APPID
  2
GENIUS_GENOBJ-NBEHI-BHF_13
 70
     0
  0
APPID
  2
GENIUS_GENOBJ-NBEHI-BHB_13
 70
     0
  0
APPID
  2
GENIUS_GENOBJ-F-PART_13
 70
     0
  0
APPID
  2
GENIUS_GEFSTDP_13
 70
     0
  0
APPID
  2
GENIUS_GENOBJ-N-RSSYM_13
 70
     0
  0
APPID
  2
GENIUS_GENSYMENT_13
 70
     0
  0
APPID
  2
GENIUS_GENOBJ-N-TIT_13
 70
     0
  0
APPID
  2
GENIUS_GENTITLE_13
 70
     0
  0
APPID
  2
GENIUS_GENZVEED_13
 70
     0
  0
APPID
  2
GENIUS_GENOBJ-N-LEADER_13
 70
     0
  0
APPID
  2
GENIUS_GENOBJ-N-FIL_13
 70
     0
  0
APPID
  2
GENIUS_GENOBJ-N-SEC_13
 70
     0
  0
APPID
  2
GENIUS_GENOBJ-N-CRS_13
 70
     0
  0
APPID
  2
GENIUS_GENOBJ-N-ZOO_13
 70
     0
  0
APPID
  2
GENIUS_GENZOO_13
 70
     0
  0
APPID
  2
GENIUS_GENOBJ-F-TOL_13
 70
     0
  0
APPID
  2
GENIUS_GENFIL_13
 70
     0
  0
APPID
  2
GENIUS_GENOBJ-N-CHA_13
 70
     0
  0
APPID
  2
GENIUS_GENOBJ-N-CEN_13
 70
     0
  0
APPID
  2
ACAD_MLEADERVER
 70
     0
  0
APPID
  2
ACAD_EXEMPT_FROM_CAD_STANDARDS
 70
     0
  0
APPID
  2
ACAD_NAV_VCDISPLAY
 70
     0
  0
ENDTAB
  0
TABLE
  2
DIMSTYLE
 70
     1
  0
DIMSTYLE
  2
STANDARD
 70
     0
  3

  4

  5

  6

  7

 40
1.0
 41
0.18
 42
0.0625
 43
0.38
 44
0.18
 45
0.0
 46
0.0
 47
0.0
 48
0.0
140
0.18
141
0.09
142
0.0
143
25.399999999999999
144
1.0
145
0.0
146
1.0
147
0.09
 71
     0
 72
     0
 73
     1
 74
     1
 75
     0
 76
     0
 77
     0
 78
     0
170
     0
171
     2
172
     0
173
     0
174
     0
175
     0
176
     0
177
     0
178
     0
  0
ENDTAB
  0
ENDSEC
  0
SECTION
  2
BLOCKS
  0
BLOCK
  8
0
  2
$MODEL_SPACE
 70
     0
 10
0.0
 20
0.0
 30
0.0
  3
$MODEL_SPACE
  1

  0
ENDBLK
  5
4119
  8
0
  0
BLOCK
 67
     1
  8
0
  2
$PAPER_SPACE
 70
     0
 10
0.0
 20
0.0
 30
0.0
  3
$PAPER_SPACE
  1

  0
ENDBLK
  5
4117
 67
     1
  8
0
  0
ENDSEC
  0
SECTION
  2
ENTITIES
  0
TEXT
  5
4A34
  8
0
 62
     3
 10
0.0
 20
0.0
 30
0.0
 40
10.0
  1
KA75-16X065
  7
STANDARD1
  0
LINE
  5
4E83
  8
1
 10
7.500000000000056
 20
205.4999999999998
 30
0.0
 11
92.500000000000057
 21
205.4999999999998
 31
0.0
  0
LINE
  5
4E85
  8
3
 10
43.160000000000082
 20
142.1599999999998
 30
0.0
 11
43.160000000000082
 21
110.4999999999999
 31
0.0
  0
LINE
  5
4E86
  8
0
 10
58.000000000000057
 20
140.9999999999998
 30
0.0
 11
58.000000000000057
 21
110.4999999999999
 31
0.0
  0
LINE
  5
4E87
  8
0
 10
41.999999999999943
 20
140.9999999999998
 30
0.0
 11
41.999999999999943
 21
110.4999999999999
 31
0.0
  0
LINE
  5
4E88
  8
1
 10
50.000000000000057
 20
147.9999999999998
 30
0.0
 11
50.0
 21
45.0
 31
0.0
  0
LINE
  5
4E89
  8
0
 10
12.50000000000005
 20
49.999999999999837
 30
0.0
 11
87.500000000000114
 21
50.000000000000149
 31
0.0
  0
LINE
  5
4E8A
  8
0
 10
12.50000000000005
 20
51.999999999999829
 30
0.0
 11
87.500000000000114
 21
51.999999999999602
 31
0.0
  0
LINE
  5
4E8B
  8
0
 10
12.50000000000005
 20
51.999999999999829
 30
0.0
 11
12.50000000000005
 21
49.999999999999837
 31
0.0
  0
LINE
  5
4E8C
  8
0
 10
68.996307951951735
 20
65.918180240762595
 30
0.0
 11
78.102215228828982
 21
53.249091855542012
 31
0.0
  0
LINE
  5
4E8D
  8
0
 10
31.003692048048269
 20
65.918180240762595
 30
0.0
 11
21.897784771171079
 21
53.249091855542012
 31
0.0
  0
ARC
  5
4E90
  8
0
 10
19.46173865714286
 20
54.999999999999829
 30
0.0
 40
3.0
 50
270.0
 51
324.29330859939893
  0
ARC
  5
4E91
  8
0
 10
80.53826134285714
 20
54.999999999999829
 30
0.0
 40
3.0
 50
215.70669140060119
 51
270.0
  0
LINE
  5
4E92
  8
0
 10
87.500000000000057
 20
51.999999999999829
 30
0.0
 11
87.500000000000057
 21
49.999999999999837
 31
0.0
  0
LINE
  5
4E96
  8
0
 10
35.063768904761901
 20
67.999999999999815
 30
0.0
 11
64.936231095238085
 21
67.999999999999815
 31
0.0
  0
LINE
  5
4E97
  8
0
 10
42.00000000000005
 20
82.03994499919321
 30
0.0
 11
58.000000000000057
 21
82.03994499919321
 31
0.0
  0
ARC
  5
4E9A
  8
0
 10
50.000000000000057
 20
80.999999999999517
 30
0.0
 40
12.9999999999997
 50
237.7957724960275
 51
302.2042275039725
  0
LINE
  5
4E9B
  8
0
 10
63.85640646055105
 20
78.000000000000014
 30
0.0
 11
36.14359353944895
 21
78.000000000000014
 31
0.0
  0
LINE
  5
4E9D
  8
3
 10
43.160000000000082
 20
82.039944999193196
 30
0.0
 11
43.160000000000082
 21
97.499999999999915
 31
0.0
  0
LINE
  5
4E9E
  8
0
 10
42.00000000000005
 20
78.000000000000014
 30
0.0
 11
42.00000000000005
 21
97.499999999999915
 31
0.0
  0
ARC
  5
4E9F
  8
0
 10
35.063768904761901
 20
62.999999999999822
 30
0.0
 40
5.0
 50
90.0
 51
144.29330859939881
  0
ARC
  5
4EA0
  8
0
 10
39.607695154586622
 20
71.999999999999716
 30
0.0
 40
3.9999999999999178
 50
210.0
 51
330.00000000000432
  0
LINE
  5
4EA2
  8
0
 10
43.071796769724408
 20
77.999999999999915
 30
0.0
 11
43.071796769724408
 21
70.00000000000162
 31
0.0
  0
LINE
  5
4EA3
  8
0
 10
36.14359353944895
 20
77.999999999999915
 30
0.0
 11
36.14359353944895
 21
70.00000000000162
 31
0.0
  0
LINE
  5
4EA9
  8
0
 10
58.000000000000057
 20
78.000000000000014
 30
0.0
 11
58.000000000000057
 21
97.499999999999844
 31
0.0
  0
ARC
  5
4EAA
  8
0
 10
60.392304845413257
 20
71.999999999999829
 30
0.0
 40
3.9999999999999778
 50
210.0
 51
329.99999999999869
  0
ARC
  5
4EAB
  8
0
 10
64.936231095238085
 20
62.999999999999822
 30
0.0
 40
5.0
 50
35.706691400601152
 51
90.0
  0
LINE
  5
4EAC
  8
0
 10
56.928203230275408
 20
77.999999999999915
 30
0.0
 11
56.928203230275408
 21
70.000000000000014
 31
0.0
  0
LINE
  5
4EAE
  8
0
 10
63.85640646055105
 20
77.999999999999915
 30
0.0
 11
63.85640646055105
 21
70.000000000000725
 31
0.0
  0
LINE
  5
4EB2
  8
1
 10
50.000000000000057
 20
162.9999999999998
 30
0.0
 11
50.000000000000057
 21
247.9999999999998
 31
0.0
  0
CIRCLE
  5
4EB3
  8
0
 10
50.000000000000057
 20
205.4999999999998
 30
0.0
 40
37.5
  0
CIRCLE
  5
4EB4
  8
0
 10
50.000000000000057
 20
205.4999999999998
 30
0.0
 40
17.5
  0
CIRCLE
  5
4EB5
  8
0
 10
50.000000000000057
 20
205.4999999999998
 30
0.0
 40
29.0
  0
LINE
  5
4EB6
  8
0
 10
58.000000000000057
 20
140.9999999999998
 30
0.0
 11
42.00000000000005
 21
140.9999999999998
 31
0.0
  0
LINE
  5
4EB7
  8
0
 10
56.00000000000005
 20
142.9999999999998
 30
0.0
 11
43.999999999999943
 21
142.9999999999998
 31
0.0
  0
LINE
  5
4EB8
  8
0
 10
41.999999999999943
 20
140.9999999999998
 30
0.0
 11
43.999999999999943
 21
142.9999999999998
 31
0.0
  0
LINE
  5
4EB9
  8
0
 10
58.000000000000057
 20
140.9999999999998
 30
0.0
 11
56.00000000000005
 21
142.9999999999998
 31
0.0
  0
CIRCLE
  5
4EBA
  8
3
 10
50.000000000000057
 20
205.4999999999998
 30
0.0
 40
6.8399999999999981
  0
CIRCLE
  5
4EBB
  8
0
 10
50.000000000000057
 20
205.4999999999998
 30
0.0
 40
8.0
  0
LINE
  5
4EC3
  8
0
 10
43.071796769724521
 20
217.4999999999998
 30
0.0
 11
36.143593539449
 21
205.4999999999998
 31
0.0
  0
LINE
  5
4EC4
  8
0
 10
36.143593539449
 20
205.4999999999998
 30
0.0
 11
43.071796769724472
 21
193.4999999999998
 31
0.0
  0
LINE
  5
4EC5
  8
0
 10
43.071796769724472
 20
193.4999999999998
 30
0.0
 11
56.928203230275471
 21
193.4999999999998
 31
0.0
  0
LINE
  5
4EC6
  8
0
 10
56.928203230275471
 20
193.4999999999998
 30
0.0
 11
63.85640646055105
 21
205.4999999999998
 31
0.0
  0
LINE
  5
4EC7
  8
0
 10
63.85640646055105
 20
205.4999999999998
 30
0.0
 11
56.928203230275528
 21
217.4999999999998
 31
0.0
  0
LINE
  5
4EC8
  8
0
 10
56.928203230275528
 20
217.4999999999998
 30
0.0
 11
43.071796769724521
 21
217.4999999999998
 31
0.0
  0
LINE
  5
4ED3
  8
3
 10
43.160000000000082
 20
82.03994499919321
 30
0.0
 11
42.00000000000005
 21
80.030766062413264
 31
0.0
  0
LINE
  5
4ED4
  8
3
 10
56.840000000000032
 20
142.1599999999998
 30
0.0
 11
56.840000000000032
 21
110.4999999999999
 31
0.0
  0
LINE
  5
4ED5
  8
3
 10
56.840000000000032
 20
82.039944999193196
 30
0.0
 11
56.840000000000032
 21
97.499999999999915
 31
0.0
  0
LINE
  5
4ED6
  8
3
 10
56.840000000000032
 20
82.03994499919321
 30
0.0
 11
58.000000000000057
 21
80.030766062413264
 31
0.0
  0
LINE
  5
4F33
  8
0
 10
63.856406460551263
 20
110.4999999999999
 30
0.0
 11
36.143593539448887
 21
110.4999999999999
 31
0.0
  0
LINE
  5
4F34
  8
0
 10
61.50000000000005
 20
97.499999999999915
 30
0.0
 11
38.500000000107832
 21
97.499999999999915
 31
0.0
  0
ARC
  5
4F35
  8
0
 10
39.607695154586573
 20
103.9226497302857
 30
0.0
 40
6.1339745957208214
 50
244.38424746986149
 51
304.38424747120359
  0
LINE
  5
4F36
  8
0
 10
36.143593539427059
 20
98.860471904394132
 30
0.0
 11
38.500000000107832
 21
97.499999999999915
 31
0.0
  0
LINE
  5
4F37
  8
0
 10
36.143593539448887
 20
98.860471904394132
 30
0.0
 11
36.143593539448887
 21
110.4999999999999
 31
0.0
  0
LINE
  5
4F38
  8
0
 10
43.071796769724692
 20
98.860471904394132
 30
0.0
 11
43.071796769724692
 21
110.4999999999999
 31
0.0
  0
LINE
  5
4F39
  8
0
 10
56.928203230275408
 20
98.860471904394132
 30
0.0
 11
56.928203230275408
 21
110.4999999999999
 31
0.0
  0
LINE
  5
4F3A
  8
0
 10
63.85640646055122
 20
98.860471904394132
 30
0.0
 11
63.856406460551263
 21
110.4999999999999
 31
0.0
  0
LINE
  5
4F3B
  8
0
 10
63.856406460573048
 20
98.860471904394132
 30
0.0
 11
61.499999999892282
 21
97.499999999999915
 31
0.0
  0
ARC
  5
4F3C
  8
0
 10
60.392304845413548
 20
103.9226497302857
 30
0.0
 40
6.1339745957208214
 50
235.61575252879601
 51
295.61575253013848
  0
ARC
  5
4F3D
  8
0
 10
50.000000000000057
 20
120.71687836270441
 30
0.0
 40
22.928203228139491
 50
252.41204622431439
 51
287.58795377568561
  0
ENDSEC
  0
EOF
