  0
SECTION
  2
HEADER
  9
$ACADVER
  1
AC1009
  9
$INSBASE
 10
0.0
 20
0.0
 30
0.0
  9
$EXTMIN
 10
0.0
 20
-2.960436562073669
 30
0.0
  9
$EXTMAX
 10
105.8750295990677
 20
121.70184247471229
 30
0.0
  9
$LIMMIN
 10
0.0
 20
0.0
  9
$LIMMAX
 10
187.5
 20
135.0
  9
$ORTHOMODE
 70
     1
  9
$REGENMODE
 70
     1
  9
$FILLMODE
 70
     1
  9
$QTEXTMODE
 70
     0
  9
$MIRRTEXT
 70
     0
  9
$DRAGMODE
 70
     2
  9
$LTSCALE
 40
5.0
  9
$OSMODE
 70
  3071
  9
$ATTMODE
 70
     1
  9
$TEXTSIZE
 40
0.2
  9
$TRACEWID
 40
0.05
  9
$TEXTSTYLE
  7
STANDARD
  9
$CLAYER
  8
0
  9
$CELTYPE
  6
BYLAYER
  9
$CECOLOR
 62
   256
  9
$DIMSCALE
 40
0.5
  9
$DIMASZ
 40
3.0
  9
$DIMEXO
 40
2.0
  9
$DIMDLI
 40
0.38
  9
$DIMRND
 40
0.0
  9
$DIMDLE
 40
0.0
  9
$DIMEXE
 40
2.0
  9
$DIMTP
 40
0.0
  9
$DIMTM
 40
0.0
  9
$DIMTXT
 40
3.2000000000000002
  9
$DIMCEN
 40
0.0
  9
$DIMTSZ
 40
0.0
  9
$DIMTOL
 70
     0
  9
$DIMLIM
 70
     0
  9
$DIMTIH
 70
     0
  9
$DIMTOH
 70
     0
  9
$DIMSE1
 70
     0
  9
$DIMSE2
 70
     0
  9
$DIMTAD
 70
     1
  9
$DIMZIN
 70
     0
  9
$DIMBLK
  1

  9
$DIMASO
 70
     0
  9
$DIMSHO
 70
     0
  9
$DIMPOST
  1

  9
$DIMAPOST
  1

  9
$DIMALT
 70
     0
  9
$DIMALTD
 70
     2
  9
$DIMALTF
 40
25.399999999999999
  9
$DIMLFAC
 40
1.0
  9
$DIMTOFL
 70
     1
  9
$DIMTVP
 40
1.6000000000000001
  9
$DIMTIX
 70
     1
  9
$DIMSOXD
 70
     0
  9
$DIMSAH
 70
     0
  9
$DIMBLK1
  1

  9
$DIMBLK2
  1

  9
$DIMSTYLE
  2
STANDARD
  9
$DIMCLRD
 70
     0
  9
$DIMCLRE
 70
     0
  9
$DIMCLRT
 70
     0
  9
$DIMTFAC
 40
1.0
  9
$DIMGAP
 40
0.09
  9
$LUNITS
 70
     2
  9
$LUPREC
 70
     2
  9
$SKETCHINC
 40
0.1
  9
$FILLETRAD
 40
0.0
  9
$AUNITS
 70
     0
  9
$AUPREC
 70
     4
  9
$MENU
  1
E:\r13\win\SUPPORT\ACAD
  9
$ELEVATION
 40
0.0
  9
$PELEVATION
 40
0.0
  9
$THICKNESS
 40
0.0
  9
$LIMCHECK
 70
     0
  9
$BLIPMODE
 70
     0
  9
$CHAMFERA
 40
0.0
  9
$CHAMFERB
 40
0.0
  9
$SKPOLY
 70
     0
  9
$TDCREATE
 40
2449839.7732986109
  9
$TDUPDATE
 40
2456597.409252835
  9
$TDINDWG
 40
0.0356443519
  9
$TDUSRTIMER
 40
0.0356443519
  9
$USRTIMER
 70
     1
  9
$ANGBASE
 50
0.0
  9
$ANGDIR
 70
     0
  9
$PDMODE
 70
     0
  9
$PDSIZE
 40
0.0
  9
$PLINEWID
 40
0.0
  9
$COORDS
 70
     1
  9
$SPLFRAME
 70
     0
  9
$SPLINETYPE
 70
     6
  9
$SPLINESEGS
 70
     8
  9
$ATTDIA
 70
     0
  9
$ATTREQ
 70
     1
  9
$HANDLING
 70
     1
  9
$HANDSEED
  5
D85
  9
$SURFTAB1
 70
     6
  9
$SURFTAB2
 70
     6
  9
$SURFTYPE
 70
     6
  9
$SURFU
 70
     6
  9
$SURFV
 70
     6
  9
$UCSNAME
  2

  9
$UCSORG
 10
0.0
 20
0.0
 30
0.0
  9
$UCSXDIR
 10
1.0
 20
0.0
 30
0.0
  9
$UCSYDIR
 10
0.0
 20
1.0
 30
0.0
  9
$PUCSNAME
  2

  9
$PUCSORG
 10
0.0
 20
0.0
 30
0.0
  9
$PUCSXDIR
 10
1.0
 20
0.0
 30
0.0
  9
$PUCSYDIR
 10
0.0
 20
1.0
 30
0.0
  9
$USERI1
 70
     0
  9
$USERI2
 70
     1
  9
$USERI3
 70
     0
  9
$USERI4
 70
     0
  9
$USERI5
 70
     0
  9
$USERR1
 40
0.0
  9
$USERR2
 40
0.0
  9
$USERR3
 40
0.0
  9
$USERR4
 40
0.0
  9
$USERR5
 40
0.0
  9
$WORLDVIEW
 70
     1
  9
$SHADEDGE
 70
     3
  9
$SHADEDIF
 70
    70
  9
$TILEMODE
 70
     1
  9
$MAXACTVP
 70
    16
  9
$PLIMCHECK
 70
     0
  9
$PEXTMIN
 10
1.0000000000000000E+020
 20
1.0000000000000000E+020
 30
1.0000000000000000E+020
  9
$PEXTMAX
 10
-1.0000000000000000E+020
 20
-1.0000000000000000E+020
 30
-1.0000000000000000E+020
  9
$PLIMMIN
 10
0.0
 20
0.0
  9
$PLIMMAX
 10
12.0
 20
9.0
  9
$UNITMODE
 70
     0
  9
$VISRETAIN
 70
     0
  9
$PLINEGEN
 70
     0
  9
$PSLTSCALE
 70
     0
  0
ENDSEC
  0
SECTION
  2
TABLES
  0
TABLE
  2
VPORT
 70
     1
  0
VPORT
  2
*ACTIVE
 70
     0
 10
0.0
 20
0.0
 11
1.0
 21
1.0
 12
93.74713919532617
 22
66.313465060797697
 13
0.0
 23
0.0
 14
5.0
 24
5.0
 15
5.0
 25
5.0
 16
0.0
 26
0.0
 36
1.0
 17
0.0
 27
0.0
 37
0.0
 40
140.15365342376049
 41
2.304913294797688
 42
50.0
 43
0.0
 44
0.0
 50
0.0
 51
0.0
 71
     0
 72
   500
 73
     1
 74
     0
 75
     0
 76
     0
 77
     0
 78
     2
  0
ENDTAB
  0
TABLE
  2
LTYPE
 70
     3
  0
LTYPE
  2
CONTINUOUS
 70
     0
  3
Solid Line
 72
    65
 73
     0
 40
0.0
  0
LTYPE
  2
CENTER
 70
     0
  3
____ _ ____ _ ____ _ ____ _ ____ _ ____ _ ____
 72
    65
 73
     4
 40
2.0
 49
1.25
 49
-0.25
 49
0.25
 49
-0.25
  0
LTYPE
  2
PHANTOM2
 70
     0
  3
___ _ _ ___ _ _ ___ _ _ ___ _ _
 72
    65
 73
     6
 40
1.25
 49
0.625
 49
-0.125
 49
0.125
 49
-0.125
 49
0.125
 49
-0.125
  0
ENDTAB
  0
TABLE
  2
LAYER
 70
     3
  0
LAYER
  2
0
 70
     0
 62
     7
  6
CONTINUOUS
  0
LAYER
  2
1
 70
     0
 62
     1
  6
CENTER
  0
LAYER
  2
3
 70
     0
 62
     3
  6
CONTINUOUS
  0
ENDTAB
  0
TABLE
  2
STYLE
 70
     2
  0
STYLE
  2
STANDARD
 70
     0
 40
0.0
 41
1.0
 50
0.0
 71
     0
 42
0.2
  3
TXT
  4
BIGFONT
  0
STYLE
  2
STANDARD1
 70
     0
 40
0.0
 41
1.0
 50
0.0
 71
     0
 42
3.0
  3
txt
  4

  0
ENDTAB
  0
TABLE
  2
VIEW
 70
     1
  0
VIEW
  2
ALL
 70
     0
 40
270.0
 10
220.99159663865549
 20
135.0
 41
0.0
 11
0.0
 21
0.0
 31
1.0
 12
0.0
 22
0.0
 32
0.0
 42
0.0
 43
0.0
 44
0.0
 50
0.0
 71
     0
  0
ENDTAB
  0
TABLE
  2
UCS
 70
     0
  0
ENDTAB
  0
TABLE
  2
APPID
 70
     3
  0
APPID
  2
ACAD
 70
     0
  0
APPID
  2
ACAD_MLEADERVER
 70
     0
  0
APPID
  2
ACAD_NAV_VCDISPLAY
 70
     0
  0
ENDTAB
  0
TABLE
  2
DIMSTYLE
 70
     1
  0
DIMSTYLE
  2
STANDARD
 70
     0
  3

  4

  5

  6

  7

 40
1.0
 41
0.18
 42
0.0625
 43
0.38
 44
0.18
 45
0.0
 46
0.0
 47
0.0
 48
0.0
140
0.18
141
0.09
142
0.0
143
25.399999999999999
144
1.0
145
0.0
146
1.0
147
0.09
 71
     0
 72
     0
 73
     1
 74
     1
 75
     0
 76
     0
 77
     0
 78
     0
170
     0
171
     2
172
     0
173
     0
174
     0
175
     0
176
     0
177
     0
178
     0
  0
ENDTAB
  0
ENDSEC
  0
SECTION
  2
BLOCKS
  0
BLOCK
  8
0
  2
$MODEL_SPACE
 70
     0
 10
0.0
 20
0.0
 30
0.0
  3
$MODEL_SPACE
  1

  0
ENDBLK
  5
1D4
  8
0
  0
BLOCK
 67
     1
  8
0
  2
$PAPER_SPACE
 70
     0
 10
0.0
 20
0.0
 30
0.0
  3
$PAPER_SPACE
  1

  0
ENDBLK
  5
1D2
 67
     1
  8
0
  0
ENDSEC
  0
SECTION
  2
ENTITIES
  0
LINE
  5
B69
  8
0
 10
73.375029599067659
 20
86.70184247471235
 30
0.0
 11
43.375029599067659
 21
86.70184247471235
 31
0.0
  0
LINE
  5
B6A
  8
0
 10
43.375029599067659
 20
86.70184247471235
 30
0.0
 11
43.375029599067659
 21
116.70184247471229
 31
0.0
  0
LINE
  5
B6B
  8
1
 10
63.375029599067659
 20
84.20184247471235
 30
0.0
 11
63.375029599067659
 21
94.201842474712393
 31
0.0
  0
LINE
  5
B6C
  8
1
 10
40.875029599067659
 20
106.70184247471229
 30
0.0
 11
50.875029599067631
 21
106.70184247471229
 31
0.0
  0
LINE
  5
B6D
  8
1
 10
98.375029599067688
 20
121.70184247471229
 30
0.0
 11
98.375029599067688
 21
80.20184247471235
 31
0.0
  0
LINE
  5
B6E
  8
0
 10
93.375029599067688
 20
116.70184247471229
 30
0.0
 11
103.3750295990677
 21
116.70184247471229
 31
0.0
  0
LINE
  5
B6F
  8
0
 10
93.375029599067688
 20
86.70184247471235
 30
0.0
 11
93.375029599067688
 21
116.70184247471229
 31
0.0
  0
LINE
  5
B70
  8
0
 10
103.3750295990677
 20
86.70184247471235
 30
0.0
 11
93.375029599067688
 21
86.70184247471235
 31
0.0
  0
LINE
  5
B71
  8
0
 10
103.3750295990677
 20
116.70184247471229
 30
0.0
 11
103.3750295990677
 21
86.70184247471235
 31
0.0
  0
LINE
  5
B72
  8
1
 10
93.125029599067688
 20
106.70184247471229
 30
0.0
 11
103.6250295990677
 21
106.70184247471229
 31
0.0
  0
LINE
  5
B73
  8
1
 10
53.375029599067659
 20
91.70184247471235
 30
0.0
 11
53.375029599067659
 21
101.70184247471229
 31
0.0
  0
LINE
  5
B74
  8
1
 10
48.375029599067602
 20
96.70184247471235
 30
0.0
 11
58.375029599067602
 21
96.70184247471235
 31
0.0
  0
LINE
  5
B75
  8
1
 10
48.375029599067659
 20
82.70184247471235
 30
0.0
 11
48.375029599067659
 21
89.221952918073967
 31
0.0
  0
LINE
  5
B76
  8
1
 10
70.375029599067659
 20
82.70184247471235
 30
0.0
 11
70.375029599067659
 21
89.221952918073967
 31
0.0
  0
LINE
  5
B77
  8
1
 10
39.375029599067631
 20
91.70184247471235
 30
0.0
 11
45.87502959906768
 21
91.70184247471235
 31
0.0
  0
LINE
  5
B78
  8
1
 10
39.375029599067631
 20
113.70184247471229
 30
0.0
 11
45.87502959906768
 21
113.70184247471229
 31
0.0
  0
LINE
  5
B79
  8
0
 10
57.17502959906767
 20
96.70184247471235
 30
0.0
 11
57.175029599067699
 21
92.70184247471235
 31
0.0
  0
LINE
  5
B7A
  8
0
 10
53.375029599067659
 20
100.5018424747123
 30
0.0
 11
49.375029599067652
 21
100.5018424747123
 31
0.0
  0
LINE
  5
B7B
  8
0
 10
48.375029599067659
 20
101.5018424747123
 30
0.0
 11
48.375029599067659
 21
113.66647536072421
 31
0.0
  0
LINE
  5
B7C
  8
0
 10
70.339662485079515
 20
91.70184247471235
 30
0.0
 11
58.175029599067699
 21
91.70184247471235
 31
0.0
  0
LINE
  5
B7D
  8
0
 10
93.375029599067688
 20
91.70184247471235
 30
0.0
 11
103.3750295990677
 21
91.70184247471235
 31
0.0
  0
LINE
  5
B7E
  8
1
 10
90.875029599067716
 20
96.70184247471235
 30
0.0
 11
105.8750295990677
 21
96.701842474712393
 31
0.0
  0
ARC
  5
B7F
  8
0
 10
53.375029599067659
 20
96.70184247471235
 30
0.0
 40
3.7999999999999989
 50
0.0000000000016284
 51
90.0
  0
CIRCLE
  5
B80
  8
0
 10
53.375029599067602
 20
96.70184247471235
 30
0.0
 40
2.0669999999999988
  0
CIRCLE
  5
B81
  8
3
 10
53.375029599067602
 20
96.70184247471235
 30
0.0
 40
2.5
  0
CIRCLE
  5
B82
  8
0
 10
98.375029599067688
 20
106.70184247471229
 30
0.0
 40
2.75
  0
LINE
  5
B83
  8
0
 10
96.366378230625571
 20
85.20184247471235
 30
0.0
 11
100.3836809675098
 21
85.20184247471235
 31
0.0
  0
LINE
  5
B84
  8
0
 10
95.848847001675352
 20
86.70184247471235
 30
0.0
 11
95.866454383047369
 21
85.693116271493736
 31
0.0
  0
LINE
  5
B85
  8
0
 10
100.88360481508801
 20
85.693116271493736
 30
0.0
 11
100.90121219645999
 21
86.70184247471235
 31
0.0
  0
ARC
  5
B86
  8
0
 10
100.3836809675098
 20
85.701842474712407
 30
0.0
 40
0.5
 50
270.0
 51
358.99999999999977
  0
ARC
  5
B87
  8
0
 10
96.366378230625571
 20
85.70184247471235
 30
0.0
 40
0.5
 50
181.0000000000002
 51
270.0
  0
LINE
  5
B88
  8
0
 10
73.375029599067659
 20
86.70184247471235
 30
0.0
 11
73.3392055705487
 21
88.75419969402418
 31
0.0
  0
LINE
  5
B89
  8
0
 10
70.875029599067659
 20
85.20184247471235
 30
0.0
 11
69.875029599067659
 21
85.20184247471235
 31
0.0
  0
LINE
  5
B8A
  8
0
 10
69.875029599067659
 20
85.20184247471235
 30
0.0
 11
69.848847001675324
 21
86.70184247471235
 31
0.0
  0
LINE
  5
B8B
  8
0
 10
70.875029599067659
 20
85.20184247471235
 30
0.0
 11
70.901212196459923
 21
86.70184247471235
 31
0.0
  0
LINE
  5
B8C
  8
0
 10
70.875029599067659
 20
85.20184247471235
 30
0.0
 11
69.875029599067659
 21
85.20184247471235
 31
0.0
  0
LINE
  5
B8D
  8
0
 10
73.375029599067659
 20
86.70184247471235
 30
0.0
 11
71.875029599067645
 21
86.70184247471235
 31
0.0
  0
LINE
  5
B8E
  8
0
 10
48.875029599067659
 20
85.20184247471235
 30
0.0
 11
47.875029599067659
 21
85.20184247471235
 31
0.0
  0
LINE
  5
B8F
  8
0
 10
48.875029599067659
 20
85.20184247471235
 30
0.0
 11
48.901212196459937
 21
86.70184247471235
 31
0.0
  0
LINE
  5
B90
  8
0
 10
47.875029599067659
 20
85.20184247471235
 30
0.0
 11
47.848847001675317
 21
86.70184247471235
 31
0.0
  0
LINE
  5
B91
  8
0
 10
48.875029599067659
 20
85.20184247471235
 30
0.0
 11
47.875029599067659
 21
85.20184247471235
 31
0.0
  0
LINE
  5
B92
  8
0
 10
41.875029599067631
 20
91.201842474712336
 30
0.0
 11
41.875029599067631
 21
92.201842474712365
 31
0.0
  0
LINE
  5
B93
  8
0
 10
41.875029599067631
 20
91.201842474712336
 30
0.0
 11
43.375029599067659
 21
91.175659877320015
 31
0.0
  0
LINE
  5
B94
  8
0
 10
41.875029599067631
 20
92.201842474712365
 30
0.0
 11
43.375029599067659
 21
92.228025072104685
 31
0.0
  0
LINE
  5
B95
  8
0
 10
41.875029599067631
 20
114.20184247471229
 30
0.0
 11
43.375029599067659
 21
114.2280250721046
 31
0.0
  0
LINE
  5
B96
  8
0
 10
41.875029599067631
 20
113.20184247471229
 30
0.0
 11
43.375029599067659
 21
113.17565987732
 31
0.0
  0
LINE
  5
B97
  8
0
 10
41.875029599067631
 20
113.20184247471229
 30
0.0
 11
41.875029599067631
 21
114.20184247471229
 31
0.0
  0
LINE
  5
B98
  8
0
 10
43.375029599067659
 20
116.70184247471229
 30
0.0
 11
45.427386818379482
 21
116.66601844619341
 31
0.0
  0
ARC
  5
B99
  8
0
 10
45.375029599067659
 20
113.66647536072421
 30
0.0
 40
3.0
 50
0.0
 51
89.000000000000668
  0
ARC
  5
B9A
  8
0
 10
70.339662485079515
 20
88.701842474712336
 30
0.0
 40
3.0
 50
1.000000000000147
 51
90.0
  0
ARC
  5
B9B
  8
0
 10
58.175029599067699
 20
92.70184247471235
 30
0.0
 40
1.0
 50
180.00000000000159
 51
270.0
  0
ARC
  5
B9C
  8
0
 10
49.375029599067652
 20
101.5018424747123
 30
0.0
 40
1.0
 50
180.0
 51
270.0
  0
LINE
  5
B9D
  8
0
 10
93.375029599067688
 20
100.5018424747123
 30
0.0
 11
103.3750295990677
 21
100.5018424747123
 31
0.0
  0
LINE
  5
B9E
  8
0
 10
73.375029599067659
 20
65.20184247471235
 30
0.0
 11
73.375029599067659
 21
55.20184247471235
 31
0.0
  0
LINE
  5
B9F
  8
0
 10
43.375029599067659
 20
65.20184247471235
 30
0.0
 11
73.375029599067659
 21
65.20184247471235
 31
0.0
  0
LINE
  5
BA0
  8
0
 10
43.375029599067659
 20
55.20184247471235
 30
0.0
 11
43.375029599067659
 21
65.20184247471235
 31
0.0
  0
LINE
  5
BA1
  8
0
 10
73.375029599067659
 20
55.20184247471235
 30
0.0
 11
43.375029599067659
 21
55.20184247471235
 31
0.0
  0
LINE
  5
BA2
  8
1
 10
63.375029599067709
 20
65.451842474712322
 30
0.0
 11
63.375029599067709
 21
54.951842474712322
 31
0.0
  0
LINE
  5
BA3
  8
0
 10
71.875029599067645
 20
56.70184247471235
 30
0.0
 11
71.875029599067645
 21
63.70184247471235
 31
0.0
  0
LINE
  5
BA4
  8
0
 10
68.875029599067659
 20
56.70184247471235
 30
0.0
 11
68.875029599067659
 21
63.70184247471235
 31
0.0
  0
LINE
  5
BA5
  8
0
 10
55.375029599067659
 20
56.70184247471235
 30
0.0
 11
55.375029599067659
 21
63.70184247471235
 31
0.0
  0
LINE
  5
BA6
  8
0
 10
52.375029599067659
 20
56.70184247471235
 30
0.0
 11
52.375029599067659
 21
63.70184247471235
 31
0.0
  0
LINE
  5
BA7
  8
0
 10
71.875029599067645
 20
63.70184247471235
 30
0.0
 11
68.875029599067659
 21
63.70184247471235
 31
0.0
  0
LINE
  5
BA8
  8
0
 10
71.875029599067645
 20
56.70184247471235
 30
0.0
 11
68.875029599067659
 21
56.70184247471235
 31
0.0
  0
LINE
  5
BA9
  8
0
 10
69.875029599067659
 20
57.70184247471235
 30
0.0
 11
69.875029599067659
 21
62.70184247471235
 31
0.0
  0
LINE
  5
BAA
  8
0
 10
70.875029599067659
 20
57.70184247471235
 30
0.0
 11
70.875029599067659
 21
62.70184247471235
 31
0.0
  0
LINE
  5
BAB
  8
0
 10
69.875029599067659
 20
57.70184247471235
 30
0.0
 11
70.875029599067659
 21
57.70184247471235
 31
0.0
  0
LINE
  5
BAC
  8
0
 10
69.875029599067659
 20
62.70184247471235
 30
0.0
 11
70.875029599067659
 21
62.70184247471235
 31
0.0
  0
LINE
  5
BAD
  8
0
 10
55.375029599067659
 20
63.70184247471235
 30
0.0
 11
52.375029599067659
 21
63.70184247471235
 31
0.0
  0
LINE
  5
BAE
  8
0
 10
55.375029599067659
 20
56.70184247471235
 30
0.0
 11
52.375029599067659
 21
56.70184247471235
 31
0.0
  0
LINE
  5
BAF
  8
0
 10
47.875029599067659
 20
62.70184247471235
 30
0.0
 11
48.875029599067659
 21
62.70184247471235
 31
0.0
  0
LINE
  5
BB0
  8
0
 10
47.875029599067659
 20
57.70184247471235
 30
0.0
 11
48.875029599067659
 21
57.70184247471235
 31
0.0
  0
LINE
  5
BB1
  8
0
 10
48.875029599067659
 20
57.70184247471235
 30
0.0
 11
48.875029599067659
 21
62.70184247471235
 31
0.0
  0
LINE
  5
BB2
  8
0
 10
47.875029599067659
 20
57.70184247471235
 30
0.0
 11
47.875029599067659
 21
62.70184247471235
 31
0.0
  0
LINE
  5
BB3
  8
0
 10
49.875029599067659
 20
63.70184247471235
 30
0.0
 11
46.875029599067652
 21
63.70184247471235
 31
0.0
  0
LINE
  5
BB4
  8
0
 10
46.875029599067652
 20
56.70184247471235
 30
0.0
 11
46.875029599067652
 21
63.70184247471235
 31
0.0
  0
LINE
  5
BB5
  8
0
 10
49.875029599067659
 20
56.70184247471235
 30
0.0
 11
49.875029599067659
 21
63.70184247471235
 31
0.0
  0
LINE
  5
BB6
  8
0
 10
49.875029599067659
 20
56.70184247471235
 30
0.0
 11
46.875029599067652
 21
56.70184247471235
 31
0.0
  0
CIRCLE
  5
BB7
  8
0
 10
63.375029599067709
 20
60.201842474712322
 30
0.0
 40
2.75
  0
LINE
  5
BB8
  8
1
 10
78.375029599067659
 20
60.20184247471235
 30
0.0
 11
37.67502959906767
 21
60.20184247471235
 31
0.0
  0
LINE
  5
BB9
  8
1
 10
53.375029599067659
 20
52.701842474712322
 30
0.0
 11
53.375029599067602
 21
67.70184247471235
 31
0.0
  0
ARC
  5
BBA
  8
0
 10
42.375029599067652
 20
62.210493843154481
 30
0.0
 40
0.5
 50
91.000000000000156
 51
180.0
  0
ARC
  5
BBB
  8
0
 10
42.375029599067709
 20
58.193191106270248
 30
0.0
 40
0.5
 50
180.0
 51
268.99999999999977
  0
LINE
  5
BBC
  8
0
 10
42.366303395849052
 20
57.693267258692032
 30
0.0
 11
43.375029599067659
 21
57.675659877320037
 31
0.0
  0
LINE
  5
BBD
  8
0
 10
43.375029599067659
 20
62.728025072104678
 30
0.0
 11
42.366303395849052
 21
62.710417690732669
 31
0.0
  0
LINE
  5
BBE
  8
0
 10
41.875029599067652
 20
62.21049384315446
 30
0.0
 11
41.875029599067652
 21
58.193191106270241
 31
0.0
  0
TEXT
  5
CEE
  8
0
 62
     3
 10
0.0
 20
0.0
 30
0.0
 40
10.0
  1
JBK20-3010
  7
STANDARD1
  0
ENDSEC
  0
EOF
